  0
SECTION
  2
HEADER
  9
$ACADVER
  1
AC1009
  9
$INSBASE
 10
0.0
 20
0.0
 30
0.0
  9
$EXTMIN
 10
0.0
 20
-2.960436562073669
 30
0.0
  9
$EXTMAX
 10
292.5
 20
184.25
 30
0.0
  9
$LIMMIN
 10
0.0
 20
0.0
  9
$LIMMAX
 10
390.0
 20
270.0
  9
$ORTHOMODE
 70
     1
  9
$REGENMODE
 70
     1
  9
$FILLMODE
 70
     1
  9
$QTEXTMODE
 70
     0
  9
$MIRRTEXT
 70
     1
  9
$DRAGMODE
 70
     2
  9
$LTSCALE
 40
5.0
  9
$OSMODE
 70
    37
  9
$ATTMODE
 70
     1
  9
$TEXTSIZE
 40
2.5
  9
$TRACEWID
 40
1.0
  9
$TEXTSTYLE
  7
STANDARD
  9
$CLAYER
  8
0
  9
$CELTYPE
  6
BYLAYER
  9
$CECOLOR
 62
   256
  9
$DIMSCALE
 40
1.0
  9
$DIMASZ
 40
3.0
  9
$DIMEXO
 40
1.0
  9
$DIMDLI
 40
6.0
  9
$DIMRND
 40
0.0
  9
$DIMDLE
 40
0.0
  9
$DIMEXE
 40
1.0
  9
$DIMTP
 40
495.0
  9
$DIMTM
 40
0.0
  9
$DIMTXT
 40
2.5
  9
$DIMCEN
 40
0.0
  9
$DIMTSZ
 40
0.0
  9
$DIMTOL
 70
     0
  9
$DIMLIM
 70
     0
  9
$DIMTIH
 70
     0
  9
$DIMTOH
 70
     0
  9
$DIMSE1
 70
     0
  9
$DIMSE2
 70
     0
  9
$DIMTAD
 70
     1
  9
$DIMZIN
 70
     8
  9
$DIMBLK
  1

  9
$DIMASO
 70
     0
  9
$DIMSHO
 70
     1
  9
$DIMPOST
  1

  9
$DIMAPOST
  1

  9
$DIMALT
 70
     0
  9
$DIMALTD
 70
     2
  9
$DIMALTF
 40
25.399999999999999
  9
$DIMLFAC
 40
1.0
  9
$DIMTOFL
 70
     1
  9
$DIMTVP
 40
0.0
  9
$DIMTIX
 70
     1
  9
$DIMSOXD
 70
     0
  9
$DIMSAH
 70
     0
  9
$DIMBLK1
  1

  9
$DIMBLK2
  1

  9
$DIMSTYLE
  2
ITM
  9
$DIMCLRD
 70
   256
  9
$DIMCLRE
 70
   256
  9
$DIMCLRT
 70
   256
  9
$DIMTFAC
 40
1.0
  9
$DIMGAP
 40
1.0
  9
$LUNITS
 70
     2
  9
$LUPREC
 70
     1
  9
$SKETCHINC
 40
1.0
  9
$FILLETRAD
 40
0.4
  9
$AUNITS
 70
     0
  9
$AUPREC
 70
     1
  9
$MENU
  1
.
  9
$ELEVATION
 40
0.0
  9
$PELEVATION
 40
0.0
  9
$THICKNESS
 40
0.0
  9
$LIMCHECK
 70
     0
  9
$BLIPMODE
 70
     0
  9
$CHAMFERA
 40
1.1999999999999991
  9
$CHAMFERB
 40
1.1999999999999991
  9
$SKPOLY
 70
     0
  9
$TDCREATE
 40
2453354.0921258219
  9
$TDUPDATE
 40
2457168.554221123
  9
$TDINDWG
 40
513.96280935189998
  9
$TDUSRTIMER
 40
513.96253137730002
  9
$USRTIMER
 70
     1
  9
$ANGBASE
 50
0.0
  9
$ANGDIR
 70
     0
  9
$PDMODE
 70
     0
  9
$PDSIZE
 40
0.0
  9
$PLINEWID
 40
0.0
  9
$COORDS
 70
     1
  9
$SPLFRAME
 70
     0
  9
$SPLINETYPE
 70
     6
  9
$SPLINESEGS
 70
     8
  9
$ATTDIA
 70
     0
  9
$ATTREQ
 70
     1
  9
$HANDLING
 70
     1
  9
$HANDSEED
  5
59AAC
  9
$SURFTAB1
 70
     6
  9
$SURFTAB2
 70
     6
  9
$SURFTYPE
 70
     6
  9
$SURFU
 70
     6
  9
$SURFV
 70
     6
  9
$UCSNAME
  2

  9
$UCSORG
 10
0.0
 20
0.0
 30
0.0
  9
$UCSXDIR
 10
1.0
 20
0.0
 30
0.0
  9
$UCSYDIR
 10
0.0
 20
1.0
 30
0.0
  9
$PUCSNAME
  2

  9
$PUCSORG
 10
0.0
 20
0.0
 30
0.0
  9
$PUCSXDIR
 10
1.0
 20
0.0
 30
0.0
  9
$PUCSYDIR
 10
0.0
 20
1.0
 30
0.0
  9
$USERI1
 70
     4
  9
$USERI2
 70
     1
  9
$USERI3
 70
     1
  9
$USERI4
 70
     0
  9
$USERI5
 70
     0
  9
$USERR1
 40
1.0
  9
$USERR2
 40
3.0
  9
$USERR3
 40
3.2000000000000002
  9
$USERR4
 40
3.0
  9
$USERR5
 40
10.0
  9
$WORLDVIEW
 70
     1
  9
$SHADEDGE
 70
     3
  9
$SHADEDIF
 70
    70
  9
$TILEMODE
 70
     1
  9
$MAXACTVP
 70
    16
  9
$PLIMCHECK
 70
     0
  9
$PEXTMIN
 10
0.0
 20
0.0
 30
0.0
  9
$PEXTMAX
 10
0.0
 20
0.0
 30
0.0
  9
$PLIMMIN
 10
0.0
 20
0.0
  9
$PLIMMAX
 10
12.0
 20
9.0
  9
$UNITMODE
 70
     0
  9
$VISRETAIN
 70
     0
  9
$PLINEGEN
 70
     0
  9
$PSLTSCALE
 70
     1
  0
ENDSEC
  0
SECTION
  2
TABLES
  0
TABLE
  2
VPORT
 70
     1
  0
VPORT
  2
*ACTIVE
 70
     0
 10
0.0
 20
0.0
 11
1.0
 21
1.0
 12
317.84188034188031
 22
175.0
 13
0.0
 23
0.0
 14
5.0
 24
5.0
 15
10.0
 25
10.0
 16
0.0
 26
0.0
 36
1.0
 17
0.0
 27
0.0
 37
0.0
 40
350.0
 41
1.816239316239316
 42
50.0
 43
0.0
 44
0.0
 50
0.0
 51
0.0
 71
    16
 72
   500
 73
     1
 74
     1
 75
     0
 76
     0
 77
     0
 78
     1
  0
ENDTAB
  0
TABLE
  2
LTYPE
 70
     4
  0
LTYPE
  2
CONTINUOUS
 70
     0
  3
Solid line
 72
    65
 73
     0
 40
0.0
  0
LTYPE
  2
CENTER
 70
     0
  3
____ _ ____ _ ____ _ ____ _ ____ _ ____ _ ____
 72
    65
 73
     4
 40
2.0
 49
1.25
 49
-0.25
 49
0.25
 49
-0.25
  0
LTYPE
  2
HIDDEN
 70
     0
  3
_ _ _ _ _ _ _ _ _ _ _ _ _ _ _ _ _ _ _ _ _ _ _
 72
    65
 73
     2
 40
0.375
 49
0.25
 49
-0.125
  0
LTYPE
  2
PHANTOM2
 70
     0
  3
___ _ _ ___ _ _ ___ _ _ ___ _ _
 72
    65
 73
     6
 40
1.25
 49
0.625
 49
-0.125
 49
0.125
 49
-0.125
 49
0.125
 49
-0.125
  0
ENDTAB
  0
TABLE
  2
LAYER
 70
     6
  0
LAYER
  2
0
 70
     0
 62
     7
  6
CONTINUOUS
  0
LAYER
  2
1
 70
     0
 62
     1
  6
CENTER
  0
LAYER
  2
WAKU
 70
     0
 62
     5
  6
CONTINUOUS
  0
LAYER
  2
DEFPOINTS
 70
     0
 62
     7
  6
CONTINUOUS
  0
LAYER
  2
3
 70
     0
 62
     3
  6
CONTINUOUS
  0
LAYER
  2
2
 70
     0
 62
     2
  6
HIDDEN
  0
ENDTAB
  0
TABLE
  2
STYLE
 70
     3
  0
STYLE
  2
STANDARD
 70
     0
 40
0.0
 41
1.0
 50
0.0
 71
     0
 42
2.5
  3
ROMANS
  4
EXTFONT
  0
STYLE
  2
K
 70
     0
 40
0.0
 41
0.75
 50
0.0
 71
     0
 42
3.2000000000000002
  3
ROMANS.shx
  4
EXTFONT.shx
  0
STYLE
  2
STANDARD1
 70
     0
 40
0.0
 41
1.0
 50
0.0
 71
     0
 42
3.0
  3
txt
  4

  0
ENDTAB
  0
TABLE
  2
VIEW
 70
     2
  0
VIEW
  2
OLE1
 70
     0
 40
151.81220504325799
 10
73.676474473531471
 20
85.209442582639014
 41
295.93771616027522
 11
0.0
 21
0.0
 31
1.0
 12
0.0
 22
0.0
 32
0.0
 42
50.0
 43
0.0
 44
0.0
 50
0.0
 71
    16
  0
VIEW
  2
OLE2
 70
     0
 40
12.66566269640963
 10
177.82767580922561
 20
80.089748755761136
 41
24.690026015785861
 11
0.0
 21
0.0
 31
1.0
 12
0.0
 22
0.0
 32
0.0
 42
50.0
 43
0.0
 44
0.0
 50
0.0
 71
    16
  0
ENDTAB
  0
TABLE
  2
UCS
 70
     0
  0
ENDTAB
  0
TABLE
  2
APPID
 70
    49
  0
APPID
  2
ACAD
 70
     0
  0
APPID
  2
COMM
 70
     0
  0
APPID
  2
DCO15
 70
     0
  0
APPID
  2
GENIUS_GENOREF_13
 70
     0
  0
APPID
  2
GENIUS_GENOENT_13
 70
     0
  0
APPID
  2
GENIUS_GENBH_13
 70
     0
  0
APPID
  2
GENIUS_GENOBJ_13
 70
     0
  0
APPID
  2
GENIUS_GENODEF_13
 70
     0
  0
APPID
  2
GENIUS_GENOLIS_13
 70
     0
  0
APPID
  2
GENIUS_GENOBJ-NBEHI-BHF_13
 70
     0
  0
APPID
  2
GENIUS_GENOBJ-NBEHI-BHB_13
 70
     0
  0
APPID
  2
GENIUS_GENOBJ-F-PART_13
 70
     0
  0
APPID
  2
GENIUS_GEFSTDP_13
 70
     0
  0
APPID
  2
GENIUS_GENOBJ-N-RSSYM_13
 70
     0
  0
APPID
  2
GENIUS_GENSYMENT_13
 70
     0
  0
APPID
  2
GENIUS_GENOBJ-N-TIT_13
 70
     0
  0
APPID
  2
GENIUS_GENTITLE_13
 70
     0
  0
APPID
  2
GENIUS_GENZVEED_13
 70
     0
  0
APPID
  2
GENIUS_GENOBJ-N-LEADER_13
 70
     0
  0
APPID
  2
GENIUS_GENOBJ-N-FIL_13
 70
     0
  0
APPID
  2
GENIUS_GENOBJ-N-SEC_13
 70
     0
  0
APPID
  2
GENIUS_GENOBJ-N-CRS_13
 70
     0
  0
APPID
  2
GENIUS_GENOBJ-N-ZOO_13
 70
     0
  0
APPID
  2
GENIUS_GENZOO_13
 70
     0
  0
APPID
  2
GENIUS_GENOBJ-F-TOL_13
 70
     0
  0
APPID
  2
GENIUS_GENFIL_13
 70
     0
  0
APPID
  2
GENIUS_GENOBJ-N-CHA_13
 70
     0
  0
APPID
  2
_CALL_MAC$
 70
     0
  0
APPID
  2
ASM_BASE
 70
     0
  0
APPID
  2
ASM_EXPLO_VER_2_00
 70
     0
  0
APPID
  2
ASM_CADM_VER_12_00
 70
     0
  0
APPID
  2
ASM_BASEFORO
 70
     0
  0
APPID
  2
ASM_BASETRAVI
 70
     0
  0
APPID
  2
ASM_BASETRAVI1
 70
     0
  0
APPID
  2
ASM_GRUPPI
 70
     0
  0
APPID
  2
ASM_CADM_ALBERO
 70
     0
  0
APPID
  2
ASM_GOLE
 70
     0
  0
APPID
  2
GENIUS_GEFINERT_13
 70
     0
  0
APPID
  2
GENIUS_GENOBJ-F-INER_13
 70
     0
  0
APPID
  2
GENIUS_GENDTOL_13
 70
     0
  0
APPID
  2
AD_SKETCHDIM
 70
     0
  0
APPID
  2
GENIUS_GENSCREG_15
 70
     0
  0
APPID
  2
GENIUS_GENOBJ-N-SDF_13
 70
     0
  0
APPID
  2
GENIUS_GENOBJ-N-CEN_13
 70
     0
  0
APPID
  2
ACAD_MLEADERVER
 70
     0
  0
APPID
  2
ACAD_EXEMPT_FROM_CAD_STANDARDS
 70
     0
  0
APPID
  2
ACAD_NAV_VCDISPLAY
 70
     0
  0
APPID
  2
ACAD_DSTYLE_DIMJAG
 70
     0
  0
APPID
  2
ACAD_DSTYLE_DIMTALN
 70
     0
  0
ENDTAB
  0
TABLE
  2
DIMSTYLE
 70
     2
  0
DIMSTYLE
  2
ITM
 70
     0
  3

  4

  5

  6

  7

 40
0.0
 41
2.5
 42
1.0
 43
6.0
 44
1.0
 45
0.0
 46
0.0
 47
495.0
 48
0.0
140
3.0
141
0.0
142
0.0
143
25.399999999999999
144
1.0
145
0.0
146
1.0
147
1.0
 71
     0
 72
     0
 73
     0
 74
     0
 75
     0
 76
     0
 77
     3
 78
     8
170
     0
171
     2
172
     1
173
     0
174
     0
175
     0
176
     0
177
     0
178
     0
  0
DIMSTYLE
  2
STANDARD
 70
     0
  3

  4

  5

  6

  7

 40
1.0
 41
0.18
 42
0.0625
 43
0.38
 44
0.18
 45
0.0
 46
0.0
 47
0.0
 48
0.0
140
0.18
141
0.09
142
0.0
143
25.399999999999999
144
1.0
145
0.0
146
1.0
147
0.09
 71
     0
 72
     0
 73
     1
 74
     1
 75
     0
 76
     0
 77
     0
 78
     0
170
     0
171
     2
172
     0
173
     0
174
     0
175
     0
176
     0
177
     0
178
     0
  0
ENDTAB
  0
ENDSEC
  0
SECTION
  2
BLOCKS
  0
BLOCK
  8
0
  2
$MODEL_SPACE
 70
     0
 10
0.0
 20
0.0
 30
0.0
  3
$MODEL_SPACE
  1

  0
ENDBLK
  5
21
  8
0
  0
BLOCK
 67
     1
  8
0
  2
$PAPER_SPACE
 70
     0
 10
0.0
 20
0.0
 30
0.0
  3
$PAPER_SPACE
  1

  0
ENDBLK
  5
76
 67
     1
  8
0
  0
BLOCK
  8
0
  2
ARROW1
 70
     0
 10
0.0
 20
0.0
 30
0.0
  3
ARROW1
  1

  0
SOLID
  5
18C
  8
WAKU
  6
CONTINUOUS
 62
     4
 10
-1.0
 20
0.1666666666666714
 30
0.0
 11
-1.0
 21
-0.1666666666666714
 31
0.0
 12
0.0
 22
0.0
 32
0.0
 13
0.0
 23
0.0
 33
0.0
  0
ENDBLK
  5
3534A
  8
0
  0
ENDSEC
  0
SECTION
  2
ENTITIES
  0
TEXT
  5
58002
  8
0
 62
     3
 10
0.0
 20
0.0
 30
0.0
 40
10.0
  1
EFAL78B-SUS
  7
STANDARD1
  0
LINE
  5
5932A
  8
1
 10
115.0
 20
167.0
 30
0.0
 11
215.25
 21
167.0
 31
0.0
  0
LINE
  5
5932B
  8
1
 10
132.25
 20
149.75
 30
0.0
 11
132.25
 21
184.25
 31
0.0
  0
ARC
  5
5932C
  8
0
 10
132.25
 20
167.0
 30
0.0
 40
12.25
 50
60.000000000000462
 51
299.9999999999996
  0
POLYLINE
  5
5932D
  8
0
 66
     1
 10
0.0
 20
0.0
 30
0.0
 70
     8
  0
VERTEX
  5
5932E
  8
0
 10
139.1774826746724
 20
156.8969072164949
 30
0.0
 70
    32
  0
VERTEX
  5
5932F
  8
0
 10
139.49644766076739
 20
157.10821912445121
 30
0.0
 70
    32
  0
VERTEX
  5
59330
  8
0
 10
139.810308190184
 20
157.3022883726245
 30
0.0
 70
    32
  0
VERTEX
  5
59331
  8
0
 10
140.09024506248139
 20
157.46440829449759
 30
0.0
 70
    32
  0
VERTEX
  5
59332
  8
0
 10
140.2206440538225
 20
157.5365327561797
 30
0.0
 70
    32
  0
VERTEX
  5
59333
  8
0
 10
140.33810074556169
 20
157.59971185651301
 30
0.0
 70
    32
  0
VERTEX
  5
59334
  8
0
 10
140.4166666666666
 20
157.64103669933669
 30
0.0
 70
    32
  0
SEQEND
  5
59335
  8
0
  0
POLYLINE
  5
59336
  8
0
 66
     1
 10
0.0
 20
0.0
 30
0.0
 70
     8
  0
VERTEX
  5
59337
  8
0
 10
139.1774826746724
 20
177.10309278350519
 30
0.0
 70
    32
  0
VERTEX
  5
59338
  8
0
 10
138.8929715764508
 20
177.29239664191331
 30
0.0
 70
    32
  0
VERTEX
  5
59339
  8
0
 10
138.59532855074471
 20
177.47851638272829
 30
0.0
 70
    32
  0
VERTEX
  5
5933A
  8
0
 10
138.375
 20
177.6088111963594
 30
0.0
 70
    32
  0
SEQEND
  5
5933B
  8
0
  0
POLYLINE
  5
5933D
  8
0
 66
     1
 10
0.0
 20
0.0
 30
0.0
 70
     8
  0
VERTEX
  5
5933E
  8
0
 10
138.375
 20
156.3911888036406
 30
0.0
 70
    32
  0
VERTEX
  5
5933F
  8
0
 10
138.57566335929729
 20
156.50960043349909
 30
0.0
 70
    32
  0
VERTEX
  5
59340
  8
0
 10
138.77634071781719
 20
156.6332562086757
 30
0.0
 70
    32
  0
VERTEX
  5
59341
  8
0
 10
138.97854150699871
 20
156.76333896289449
 30
0.0
 70
    32
  0
VERTEX
  5
59342
  8
0
 10
139.1774826746724
 20
156.8969072164949
 30
0.0
 70
    32
  0
SEQEND
  5
59343
  8
0
  0
POLYLINE
  5
59344
  8
0
 66
     1
 10
0.0
 20
0.0
 30
0.0
 70
     8
  0
VERTEX
  5
59345
  8
0
 10
140.4166666666666
 20
176.35896330066339
 30
0.0
 70
    32
  0
VERTEX
  5
59346
  8
0
 10
140.2328107642212
 20
176.4568415295586
 30
0.0
 70
    32
  0
VERTEX
  5
59347
  8
0
 10
140.00555304932081
 20
176.58357941918609
 30
0.0
 70
    32
  0
VERTEX
  5
59348
  8
0
 10
139.75866247925251
 20
176.7287343819329
 30
0.0
 70
    32
  0
VERTEX
  5
59349
  8
0
 10
139.48793533973659
 20
176.89723202996879
 30
0.0
 70
    32
  0
VERTEX
  5
5934A
  8
0
 10
139.1774826746728
 20
177.10309278350491
 30
0.0
 70
    32
  0
SEQEND
  5
5934B
  8
0
  0
ARC
  5
5934C
  8
0
 10
202.25
 20
167.0
 30
0.0
 40
8.0000000000000018
 50
28.955024371859139
 51
90.0
  0
ARC
  5
5934D
  8
0
 10
202.25
 20
167.0
 30
0.0
 40
7.9999999999999716
 50
270.0
 51
331.04497562814078
  0
ARC
  5
5934E
  8
0
 10
145.96358815190251
 20
147.0
 30
0.0
 40
11.999999999999989
 50
90.0
 51
117.5319687017553
  0
ARC
  5
5934F
  8
0
 10
145.96358815190251
 20
187.00000000000011
 30
0.0
 40
12.00000000000011
 50
242.46803129824471
 51
270.0
  0
LINE
  5
59350
  8
3
 10
140.4166666666666
 20
157.64103669933669
 30
0.0
 11
140.4166666666666
 21
176.35896330066339
 31
0.0
  0
LINE
  5
59351
  8
0
 10
202.25
 20
159.0
 30
0.0
 11
145.96358815190251
 21
159.0
 31
0.0
  0
LINE
  5
59352
  8
0
 10
145.9635881519024
 20
175.0
 30
0.0
 11
202.25
 21
175.0
 31
0.0
  0
POLYLINE
  5
59353
  8
0
 66
     1
 10
0.0
 20
0.0
 30
0.0
 70
     8
  0
VERTEX
  5
59354
  8
0
 10
209.25
 20
163.12701665379259
 30
0.0
 70
    32
  0
VERTEX
  5
59355
  8
0
 10
209.4298000510729
 20
163.47147747256531
 30
0.0
 70
    32
  0
VERTEX
  5
59356
  8
0
 10
209.59302780829699
 20
163.8251074653501
 30
0.0
 70
    32
  0
VERTEX
  5
59357
  8
0
 10
209.7403051897096
 20
164.19013734054329
 30
0.0
 70
    32
  0
VERTEX
  5
59358
  8
0
 10
209.86892742546399
 20
164.56033918638011
 30
0.0
 70
    32
  0
VERTEX
  5
59359
  8
0
 10
210.03353451989699
 20
165.1515978853148
 30
0.0
 70
    32
  0
VERTEX
  5
5935A
  8
0
 10
210.15193751267509
 20
165.75124720389559
 30
0.0
 70
    32
  0
VERTEX
  5
5935B
  8
0
 10
210.22474904534511
 20
166.3648798036848
 30
0.0
 70
    32
  0
VERTEX
  5
5935C
  8
0
 10
210.2499822221871
 20
166.98313451185729
 30
0.0
 70
    32
  0
VERTEX
  5
5935D
  8
0
 10
210.25
 20
167.0
 30
0.0
 70
    32
  0
SEQEND
  5
5935E
  8
0
  0
POLYLINE
  5
5935F
  8
0
 66
     1
 10
0.0
 20
0.0
 30
0.0
 70
     8
  0
VERTEX
  5
59360
  8
0
 10
210.25
 20
167.0
 30
0.0
 70
    32
  0
VERTEX
  5
59361
  8
0
 10
210.2499822221871
 20
167.0168654881428
 30
0.0
 70
    32
  0
VERTEX
  5
59362
  8
0
 10
210.22617149874819
 20
167.6169993699815
 30
0.0
 70
    32
  0
VERTEX
  5
59363
  8
0
 10
210.15655978783931
 20
168.2191440937487
 30
0.0
 70
    32
  0
VERTEX
  5
59364
  8
0
 10
210.03802988495329
 20
168.82936888326941
 30
0.0
 70
    32
  0
VERTEX
  5
59365
  8
0
 10
209.86892742546399
 20
169.43966081362009
 30
0.0
 70
    32
  0
VERTEX
  5
59366
  8
0
 10
209.74403915640721
 20
169.7998887696186
 30
0.0
 70
    32
  0
VERTEX
  5
59367
  8
0
 10
209.6001913358393
 20
170.15827283915641
 30
0.0
 70
    32
  0
VERTEX
  5
59368
  8
0
 10
209.43514038999561
 20
170.51763522498501
 30
0.0
 70
    32
  0
VERTEX
  5
59369
  8
0
 10
209.25
 20
170.87298334620749
 30
0.0
 70
    32
  0
SEQEND
  5
5936A
  8
0
  0
CIRCLE
  5
5936E
  8
0
 10
132.25
 20
167.0
 30
0.0
 40
5.8333333333333304
  0
LINE
  5
59375
  8
2
 10
128.9265
 20
65.081176380348296
 30
0.0
 11
128.9265
 21
50.676500000000061
 31
0.0
  0
LINE
  5
59376
  8
2
 10
135.5735
 20
50.676500000000061
 30
0.0
 11
135.5735
 21
65.081176380348296
 31
0.0
  0
LINE
  5
59377
  8
2
 10
132.25
 20
67.000000000000014
 30
0.0
 11
128.9265
 21
65.081176380348296
 31
0.0
  0
LINE
  5
59378
  8
2
 10
135.5735
 20
65.081176380348296
 30
0.0
 11
132.25
 21
67.000000000000014
 31
0.0
  0
LINE
  5
59379
  8
2
 10
135.5735
 20
65.081176380348296
 30
0.0
 11
128.9265
 21
65.081176380348296
 31
0.0
  0
LINE
  5
5937C
  8
2
 10
128.9265
 20
50.676500000000061
 30
0.0
 11
128.25
 21
50.000000000000057
 31
0.0
  0
LINE
  5
5937D
  8
2
 10
136.25
 20
50.000000000000057
 30
0.0
 11
135.5735
 21
50.676500000000061
 31
0.0
  0
LINE
  5
5937E
  8
2
 10
135.5735
 20
50.676500000000061
 30
0.0
 11
128.9265
 21
50.676500000000061
 31
0.0
  0
LINE
  5
5938B
  8
2
 10
136.25
 20
50.000000000000057
 30
0.0
 11
136.25
 21
63.000000000000028
 31
0.0
  0
LINE
  5
5938C
  8
2
 10
136.25
 20
63.000000000000028
 30
0.0
 11
128.25
 21
63.000000000000028
 31
0.0
  0
LINE
  5
5938D
  8
2
 10
128.25
 20
50.000000000000057
 30
0.0
 11
128.25
 21
63.000000000000028
 31
0.0
  0
LINE
  5
5938E
  8
1
 10
132.25
 20
102.0
 30
0.0
 11
132.25
 21
45.0
 31
0.0
  0
LINE
  5
59391
  8
0
 10
137.08333333333329
 20
97.000000000000057
 30
0.0
 11
127.4166666666666
 21
97.000000000000057
 31
0.0
  0
ARC
  5
59392
  8
0
 10
127.4166666666666
 20
96.000000000000057
 30
0.0
 40
1.0
 50
90.0
 51
180.0
  0
ARC
  5
59393
  8
0
 10
137.08333333333329
 20
96.000000000000057
 30
0.0
 40
1.0000000000000031
 50
0.0
 51
90.0
  0
LINE
  5
59394
  8
0
 10
126.4166666666666
 20
96.000000000000057
 30
0.0
 11
126.4166666666666
 21
91.000000000000057
 31
0.0
  0
LINE
  5
59395
  8
0
 10
138.08333333333329
 20
91.000000000000057
 30
0.0
 11
138.08333333333329
 21
96.000000000000057
 31
0.0
  0
LINE
  5
59398
  8
3
 10
139.6750236378617
 20
59.600000000000051
 30
0.0
 11
139.6750236378617
 21
50.200000000000038
 31
0.0
  0
LINE
  5
5939A
  8
3
 10
138.13795812884359
 20
59.600000000000051
 30
0.0
 11
138.13795812884359
 21
50.200000000000038
 31
0.0
  0
LINE
  5
5939B
  8
0
 10
124.65000000000001
 20
50.200000000000038
 30
0.0
 11
124.65000000000001
 21
50.000000000000057
 31
0.0
  0
LINE
  5
5939C
  8
0
 10
139.84999999999999
 20
50.000000000000057
 30
0.0
 11
139.84999999999999
 21
50.200000000000038
 31
0.0
  0
LINE
  5
5939D
  8
0
 10
139.84999999999999
 20
50.000000000000057
 30
0.0
 11
124.65000000000001
 21
50.000000000000057
 31
0.0
  0
LINE
  5
5939E
  8
0
 10
205.4499999999999
 20
80.000000000000057
 30
0.0
 11
205.25
 21
80.000000000000057
 31
0.0
  0
ARC
  5
5939F
  8
0
 10
205.4499999999999
 20
84.799999999999983
 30
0.0
 40
4.8000000000000851
 50
345.04499060903112
 51
0.0053260629534849
  0
ARC
  5
593A0
  8
0
 10
205.4499999999999
 20
84.800000000000097
 30
0.0
 40
4.800000000000046
 50
270.0
 51
345.04499060902941
  0
LINE
  5
593A1
  8
0
 10
201.25
 20
84.000000000000057
 30
0.0
 11
205.246889392979
 21
80.003110607021085
 31
0.0
  0
POLYLINE
  5
593B4
  8
0
 66
     1
 10
0.0
 20
0.0
 30
0.0
 70
     8
  0
VERTEX
  5
593B5
  8
0
 10
209.25
 20
92.000000000000057
 30
0.0
 70
    32
  0
VERTEX
  5
593B6
  8
0
 10
209.4298000510729
 20
91.983703177607097
 30
0.0
 70
    32
  0
VERTEX
  5
593B7
  8
0
 10
209.59302780829699
 20
91.939325248641296
 30
0.0
 70
    32
  0
VERTEX
  5
593B8
  8
0
 10
209.86892742546399
 20
91.785448179072716
 30
0.0
 70
    32
  0
VERTEX
  5
593B9
  8
0
 10
210.03353451989699
 20
91.621348256725284
 30
0.0
 70
    32
  0
VERTEX
  5
593BA
  8
0
 10
210.15193751267509
 20
91.431866557202056
 30
0.0
 70
    32
  0
VERTEX
  5
593BB
  8
0
 10
210.22474904534511
 20
91.223303154037424
 30
0.0
 70
    32
  0
VERTEX
  5
593BC
  8
0
 10
210.2499822221871
 20
91.005962827325135
 30
0.0
 70
    32
  0
VERTEX
  5
593BD
  8
0
 10
210.25
 20
91.000000000000057
 30
0.0
 70
    32
  0
SEQEND
  5
593BE
  8
0
  0
LINE
  5
593BF
  8
0
 10
210.24999997926139
 20
84.800446195205964
 30
0.0
 11
210.25
 21
91.000000000000057
 31
0.0
  0
ARC
  5
593C0
  8
0
 10
177.9815011658286
 20
9.5515147098062698
 30
0.0
 40
78.000000000000242
 50
72.643628574713773
 51
90.257000525338483
  0
LINE
  5
593C3
  8
3
 10
136.19963800365571
 20
59.600000000000051
 30
0.0
 11
136.19963800365571
 21
50.200000000000038
 31
0.0
  0
ARC
  5
593D3
  8
0
 10
178.0056069157196
 20
9.4779290450857712
 30
0.0
 40
78.077031675463601
 50
90.538323178810074
 51
113.9743594734197
  0
LINE
  5
593D4
  8
0
 10
177.27204402744621
 20
87.551514595771835
 30
0.0
 11
177.63163292201261
 21
87.550730040551798
 31
0.0
  0
LINE
  5
593D6
  8
3
 10
135.12045442515719
 20
59.600000000000051
 30
0.0
 11
135.12045442515719
 21
50.200000000000038
 31
0.0
  0
LINE
  5
593D8
  8
3
 10
133.99215657560401
 20
59.600000000000051
 30
0.0
 11
133.99215657560401
 21
50.200000000000038
 31
0.0
  0
LINE
  5
593DA
  8
0
 10
141.75
 20
50.200000000000038
 30
0.0
 11
122.75
 21
50.200000000000038
 31
0.0
  0
LINE
  5
593DB
  8
3
 10
132.8340499440252
 20
59.600000000000051
 30
0.0
 11
132.8340499440252
 21
50.200000000000038
 31
0.0
  0
LINE
  5
593F4
  8
3
 10
137.21124218086479
 20
59.600000000000563
 30
0.0
 11
137.21124218086479
 21
50.200000000000557
 31
0.0
  0
LINE
  5
593F6
  8
3
 10
138.9639294807873
 20
59.600000000000051
 30
0.0
 11
138.9639294807873
 21
50.200000000000038
 31
0.0
  0
LINE
  5
593F9
  8
3
 10
140.25907358188681
 20
59.600000000000193
 30
0.0
 11
140.25907358188681
 21
50.200000000000188
 31
0.0
  0
LINE
  5
593FE
  8
0
 10
122.75
 20
59.600000000002318
 30
0.0
 11
141.75
 21
59.600000000000023
 31
0.0
  0
LINE
  5
59400
  8
0
 10
122.75
 20
62.000000000000057
 30
0.0
 11
122.75
 21
50.200000000000038
 31
0.0
  0
LINE
  5
59401
  8
0
 10
141.75
 20
50.200000000000038
 30
0.0
 11
141.75
 21
62.000000000000057
 31
0.0
  0
POLYLINE
  5
59402
  8
0
 66
     1
 10
0.0
 20
0.0
 30
0.0
 70
     8
  0
VERTEX
  5
59403
  8
0
 10
139.1774826746724
 20
91.042756705347614
 30
0.0
 70
    32
  0
VERTEX
  5
59404
  8
0
 10
139.49644766076739
 20
91.155659103377587
 30
0.0
 70
    32
  0
VERTEX
  5
59405
  8
0
 10
139.810308190184
 20
91.333362359350303
 30
0.0
 70
    32
  0
VERTEX
  5
59406
  8
0
 10
140.09024506248139
 20
91.567653316917813
 30
0.0
 70
    32
  0
VERTEX
  5
59407
  8
0
 10
140.33810074556169
 20
91.871429156308494
 30
0.0
 70
    32
  0
VERTEX
  5
59408
  8
0
 10
140.4166666666666
 20
92.000000000000014
 30
0.0
 70
    32
  0
SEQEND
  5
59409
  8
0
  0
POLYLINE
  5
5940A
  8
3
 66
     1
 10
0.0
 20
0.0
 30
0.0
 70
     8
  0
VERTEX
  5
5940B
  8
3
 10
143.611472474962
 20
80.819051067888097
 30
0.0
 70
    32
  0
VERTEX
  5
5940C
  8
3
 10
144.78106854856489
 20
81.198752301832656
 30
0.0
 70
    32
  0
VERTEX
  5
5940D
  8
3
 10
145.96358815190251
 20
81.611749866351076
 30
0.0
 70
    32
  0
SEQEND
  5
5940E
  8
3
  0
LINE
  5
59410
  8
0
 10
209.25
 20
92.000000000000057
 30
0.0
 11
140.4166666666666
 21
92.000000000000057
 31
0.0
  0
POLYLINE
  5
59411
  8
3
 66
     1
 10
0.0
 20
0.0
 30
0.0
 70
     8
  0
VERTEX
  5
59412
  8
3
 10
139.1774826746724
 20
78.077991977192653
 30
0.0
 70
    32
  0
VERTEX
  5
59413
  8
3
 10
139.18799027254241
 20
78.086951491889039
 30
0.0
 70
    32
  0
VERTEX
  5
59414
  8
3
 10
139.85379542101751
 20
78.639229423462439
 30
0.0
 70
    32
  0
VERTEX
  5
59415
  8
3
 10
140.55389264077141
 20
79.178654447689979
 30
0.0
 70
    32
  0
VERTEX
  5
59416
  8
3
 10
141.30669563217279
 20
79.699972763398478
 30
0.0
 70
    32
  0
VERTEX
  5
59417
  8
3
 10
142.10684209493149
 20
80.175685107567404
 30
0.0
 70
    32
  0
VERTEX
  5
59418
  8
3
 10
142.83463110361791
 20
80.53044639205234
 30
0.0
 70
    32
  0
VERTEX
  5
59419
  8
3
 10
143.611472474962
 20
80.819051067888097
 30
0.0
 70
    32
  0
SEQEND
  5
5941A
  8
3
  0
ARC
  5
5941B
  8
0
 10
147.5
 20
78.077991977192653
 30
0.0
 40
2.999999999999996
 50
113.9801432737366
 51
179.99999914622629
  0
POLYLINE
  5
5941E
  8
0
 66
     1
 10
0.0
 20
0.0
 30
0.0
 70
     8
  0
VERTEX
  5
5941F
  8
0
 10
138.375
 20
91.000000000000057
 30
0.0
 70
    32
  0
VERTEX
  5
59420
  8
0
 10
138.77634071781719
 20
90.980548247757284
 30
0.0
 70
    32
  0
VERTEX
  5
59421
  8
0
 10
139.1774826746724
 20
91.042756705347614
 30
0.0
 70
    32
  0
SEQEND
  5
59422
  8
0
  0
LINE
  5
59423
  8
0
 10
138.375
 20
91.000000000000057
 30
0.0
 11
120.0
 21
91.000000000000057
 31
0.0
  0
LINE
  5
59424
  8
0
 10
120.0
 20
91.000000000000057
 30
0.0
 11
120.0
 21
62.000000000000057
 31
0.0
  0
LINE
  5
59425
  8
0
 10
144.5
 20
62.000000000000057
 30
0.0
 11
144.5
 21
78.077991977192653
 31
0.0
  0
LINE
  5
59427
  8
0
 10
144.5
 20
62.000000000000057
 30
0.0
 11
120.0
 21
62.000000000000057
 31
0.0
  0
LINE
  5
5944F
  8
1
 10
280.25
 20
102.0
 30
0.0
 11
280.25
 21
45.0
 31
0.0
  0
LINE
  5
59452
  8
0
 10
285.08333333333331
 20
97.000000000000057
 30
0.0
 11
275.41666666704663
 21
97.000000000000057
 31
0.0
  0
ARC
  5
59453
  8
0
 10
275.41666666666669
 20
96.000000000000057
 30
0.0
 40
1.0
 50
90.0
 51
180.0
  0
ARC
  5
59454
  8
0
 10
285.08333333333331
 20
96.000000000000057
 30
0.0
 40
1.0000000000000031
 50
0.0
 51
90.0
  0
LINE
  5
59456
  8
0
 10
274.41666666666669
 20
96.000000000000057
 30
0.0
 11
274.41666666666669
 21
92.000000000000014
 31
0.0
  0
LINE
  5
59457
  8
0
 10
286.08333333333343
 20
92.000000000000014
 30
0.0
 11
286.08333333333343
 21
96.000000000000057
 31
0.0
  0
LINE
  5
5945C
  8
0
 10
287.85000000000002
 20
50.000000000000028
 30
0.0
 11
272.64999999999998
 21
50.000000000000028
 31
0.0
  0
LINE
  5
5945D
  8
0
 10
272.64999999999998
 20
50.200000000000017
 30
0.0
 11
272.64999999999998
 21
50.000000000000028
 31
0.0
  0
LINE
  5
5945E
  8
0
 10
287.85000000000002
 20
50.000000000000028
 30
0.0
 11
287.85000000000002
 21
50.200000000000017
 31
0.0
  0
LINE
  5
5945F
  8
0
 10
290.5067156903765
 20
91.000000000000028
 30
0.0
 11
292.5
 21
91.000000000000028
 31
0.0
  0
LINE
  5
59461
  8
0
 10
268.0
 20
91.000000000000028
 30
0.0
 11
270.0042795337165
 21
91.000000000000028
 31
0.0
  0
LINE
  5
59474
  8
0
 10
289.75
 20
50.200000000000017
 30
0.0
 11
270.75
 21
50.200000000000017
 31
0.0
  0
LINE
  5
5949A
  8
0
 10
270.75
 20
62.000000000000021
 30
0.0
 11
270.75
 21
50.200000000000017
 31
0.0
  0
LINE
  5
5949B
  8
0
 10
289.75
 20
50.200000000000017
 30
0.0
 11
289.75
 21
62.000000000000021
 31
0.0
  0
LINE
  5
594A6
  8
0
 10
292.5
 20
62.000000000000021
 30
0.0
 11
268.0
 21
62.000000000000021
 31
0.0
  0
LINE
  5
594A7
  8
0
 10
268.0
 20
91.000000000000028
 30
0.0
 11
268.0
 21
62.000000000000021
 31
0.0
  0
LINE
  5
594A8
  8
0
 10
292.5
 20
62.000000000000021
 30
0.0
 11
292.5
 21
91.000000000000028
 31
0.0
  0
LINE
  5
594A9
  8
0
 10
289.60896330066339
 20
92.000000000000014
 30
0.0
 11
270.89103669933661
 21
92.000000000000014
 31
0.0
  0
POLYLINE
  5
594AB
  8
0
 66
     1
 10
0.0
 20
0.0
 30
0.0
 70
     8
  0
VERTEX
  5
594AC
  8
0
 10
289.60896330066339
 20
92.000000000000014
 30
0.0
 70
    32
  0
VERTEX
  5
594AD
  8
0
 10
289.70684152955852
 20
91.727275868749444
 30
0.0
 70
    32
  0
VERTEX
  5
594AE
  8
0
 10
289.83357941918598
 20
91.487308510152914
 30
0.0
 70
    32
  0
VERTEX
  5
594AF
  8
0
 10
289.97873438193278
 20
91.298787327999364
 30
0.0
 70
    32
  0
VERTEX
  5
594B0
  8
0
 10
290.14723202996879
 20
91.151831569087818
 30
0.0
 70
    32
  0
VERTEX
  5
594B1
  8
0
 10
290.35309278350491
 20
91.042756705346306
 30
0.0
 70
    32
  0
SEQEND
  5
594B2
  8
0
  0
POLYLINE
  5
594B3
  8
0
 66
     1
 10
0.0
 20
0.0
 30
0.0
 70
     8
  0
VERTEX
  5
594B4
  8
0
 10
270.14690721649481
 20
91.042756705347585
 30
0.0
 70
    32
  0
VERTEX
  5
594B5
  8
0
 10
270.3582191244513
 20
91.155659103377545
 30
0.0
 70
    32
  0
VERTEX
  5
594B6
  8
0
 10
270.5522883726245
 20
91.333362359350275
 30
0.0
 70
    32
  0
VERTEX
  5
594B7
  8
0
 10
270.71440829449762
 20
91.567653316917784
 30
0.0
 70
    32
  0
VERTEX
  5
594B8
  8
0
 10
270.78653275617972
 20
91.712285888449586
 30
0.0
 70
    32
  0
VERTEX
  5
594B9
  8
0
 10
270.84971185651301
 20
91.871429156308466
 30
0.0
 70
    32
  0
VERTEX
  5
594BA
  8
0
 10
270.89103669933672
 20
92.0
 30
0.0
 70
    32
  0
SEQEND
  5
594BB
  8
0
  0
POLYLINE
  5
594BD
  8
0
 66
     1
 10
0.0
 20
0.0
 30
0.0
 70
     8
  0
VERTEX
  5
594BE
  8
0
 10
270.14690721649481
 20
78.077991977192625
 30
0.0
 70
    32
  0
VERTEX
  5
594BF
  8
0
 10
270.15410386542931
 20
78.08695149188901
 30
0.0
 70
    32
  0
VERTEX
  5
594C0
  8
0
 10
270.57822124775612
 20
78.63922942346241
 30
0.0
 70
    32
  0
VERTEX
  5
594C1
  8
0
 10
270.96145155788179
 20
79.178654447689951
 30
0.0
 70
    32
  0
VERTEX
  5
594C2
  8
0
 10
271.19826026122468
 20
79.530203783490009
 30
0.0
 70
    32
  0
VERTEX
  5
594C3
  8
0
 10
271.41601016752389
 20
79.864674413135873
 30
0.0
 70
    32
  0
VERTEX
  5
594C4
  8
0
 10
271.61334061145931
 20
80.175685107567375
 30
0.0
 70
    32
  0
VERTEX
  5
594C5
  8
0
 10
271.72889412003889
 20
80.360383793214439
 30
0.0
 70
    32
  0
VERTEX
  5
594C6
  8
0
 10
271.83488790580168
 20
80.530446392052298
 30
0.0
 70
    32
  0
VERTEX
  5
594C7
  8
0
 10
271.93166996370508
 20
80.684993540509453
 30
0.0
 70
    32
  0
VERTEX
  5
594C8
  8
0
 10
272.01722362506513
 20
80.819051067888068
 30
0.0
 70
    32
  0
SEQEND
  5
594C9
  8
0
  0
POLYLINE
  5
594CB
  8
0
 66
     1
 10
0.0
 20
0.0
 30
0.0
 70
     8
  0
VERTEX
  5
594CC
  8
0
 10
288.48277637493487
 20
80.819051067888068
 30
0.0
 70
    32
  0
VERTEX
  5
594CD
  8
0
 10
288.61512564681141
 20
80.610515081119644
 30
0.0
 70
    32
  0
VERTEX
  5
594CE
  8
0
 10
288.77178590423961
 20
80.359287407546176
 30
0.0
 70
    32
  0
VERTEX
  5
594CF
  8
0
 10
288.95492516375691
 20
80.067367247549356
 30
0.0
 70
    32
  0
VERTEX
  5
594D0
  8
0
 10
289.15912466326671
 20
79.748086013266061
 30
0.0
 70
    32
  0
VERTEX
  5
594D1
  8
0
 10
289.41736306997569
 20
79.356872432919317
 30
0.0
 70
    32
  0
VERTEX
  5
594D2
  8
0
 10
289.70028613519122
 20
78.946453829869341
 30
0.0
 70
    32
  0
VERTEX
  5
594D3
  8
0
 10
290.01051909517957
 20
78.51975554021729
 30
0.0
 70
    32
  0
VERTEX
  5
594D4
  8
0
 10
290.34589613457081
 20
78.086951491889408
 30
0.0
 70
    32
  0
VERTEX
  5
594D5
  8
0
 10
290.35309278350519
 20
78.077991977192625
 30
0.0
 70
    32
  0
SEQEND
  5
594D6
  8
0
  0
LINE
  5
594D7
  8
0
 10
272.25
 20
81.611749866351062
 30
0.0
 11
272.25
 21
82.992244549916066
 31
0.0
  0
POLYLINE
  5
594DA
  8
0
 66
     1
 10
0.0
 20
0.0
 30
0.0
 70
     8
  0
VERTEX
  5
594DB
  8
0
 10
288.25
 20
81.611749866351062
 30
0.0
 70
    32
  0
VERTEX
  5
594DC
  8
0
 10
288.26426069556499
 20
81.404701231133771
 30
0.0
 70
    32
  0
VERTEX
  5
594DD
  8
0
 10
288.30731523583017
 20
81.202507271447303
 30
0.0
 70
    32
  0
VERTEX
  5
594DE
  8
0
 10
288.38002176028522
 20
81.006223489615905
 30
0.0
 70
    32
  0
VERTEX
  5
594DF
  8
0
 10
288.48277637493487
 20
80.819051067888068
 30
0.0
 70
    32
  0
SEQEND
  5
594E0
  8
0
  0
POLYLINE
  5
594E1
  8
0
 66
     1
 10
0.0
 20
0.0
 30
0.0
 70
     8
  0
VERTEX
  5
594E2
  8
0
 10
272.01722362506513
 20
80.819051067888068
 30
0.0
 70
    32
  0
VERTEX
  5
594E3
  8
0
 10
272.11893891987779
 20
81.003950212766426
 30
0.0
 70
    32
  0
VERTEX
  5
594E4
  8
0
 10
272.1915931679037
 20
81.198752301832627
 30
0.0
 70
    32
  0
VERTEX
  5
594E5
  8
0
 10
272.23540288491353
 20
81.402304109646806
 30
0.0
 70
    32
  0
VERTEX
  5
594E6
  8
0
 10
272.25
 20
81.611749866351062
 30
0.0
 70
    32
  0
SEQEND
  5
594E7
  8
0
  0
LINE
  5
594E8
  8
0
 10
288.25
 20
82.998920957295368
 30
0.0
 11
288.25
 21
81.611749866351033
 31
0.0
  0
POLYLINE
  5
594E9
  8
0
 66
     1
 10
0.0
 20
0.0
 30
0.0
 70
     8
  0
VERTEX
  5
594EA
  8
0
 10
287.66745603062452
 20
80.003110607020631
 30
0.0
 70
    32
  0
VERTEX
  5
594EB
  8
0
 10
287.9004264920145
 20
80.660988565593726
 30
0.0
 70
    32
  0
VERTEX
  5
594EC
  8
0
 10
288.07517258834639
 20
81.336667813516385
 30
0.0
 70
    32
  0
VERTEX
  5
594ED
  8
0
 10
288.19036439631259
 20
82.025006023725638
 30
0.0
 70
    32
  0
VERTEX
  5
594EE
  8
0
 10
288.24512523669978
 20
82.720764526811763
 30
0.0
 70
    32
  0
VERTEX
  5
594EF
  8
0
 10
288.25
 20
83.000000000000014
 30
0.0
 70
    32
  0
SEQEND
  5
594F0
  8
0
  0
LINE
  5
594F1
  8
0
 10
288.25
 20
83.000000000000014
 30
0.0
 11
288.25
 21
92.000000000000014
 31
0.0
  0
POLYLINE
  5
594F2
  8
3
 66
     1
 10
0.0
 20
0.0
 30
0.0
 70
     8
  0
VERTEX
  5
594F3
  8
3
 10
280.25
 20
91.000000000000028
 30
0.0
 70
    32
  0
VERTEX
  5
594F4
  8
3
 10
280.26686548814268
 20
91.005962827325106
 30
0.0
 70
    32
  0
VERTEX
  5
594F5
  8
3
 10
280.8669993699815
 20
91.217000472422882
 30
0.0
 70
    32
  0
VERTEX
  5
594F6
  8
3
 10
281.46914409374858
 20
91.422077423079017
 30
0.0
 70
    32
  0
VERTEX
  5
594F7
  8
3
 10
282.07936888326941
 20
91.615636987534444
 30
0.0
 70
    32
  0
VERTEX
  5
594F8
  8
3
 10
282.68966081361998
 20
91.785448179072688
 30
0.0
 70
    32
  0
VERTEX
  5
594F9
  8
3
 10
283.05063611747761
 20
91.869629638774001
 30
0.0
 70
    32
  0
VERTEX
  5
594FA
  8
3
 10
283.40827283915638
 20
91.936678188228569
 30
0.0
 70
    32
  0
VERTEX
  5
594FB
  8
3
 10
283.76763522498487
 20
91.982712081940775
 30
0.0
 70
    32
  0
VERTEX
  5
594FC
  8
3
 10
284.12298334620738
 20
92.000000000000014
 30
0.0
 70
    32
  0
SEQEND
  5
594FD
  8
3
  0
POLYLINE
  5
594FE
  8
3
 66
     1
 10
0.0
 20
0.0
 30
0.0
 70
     8
  0
VERTEX
  5
594FF
  8
3
 10
276.37701665379262
 20
92.000000000000014
 30
0.0
 70
    32
  0
VERTEX
  5
59500
  8
3
 10
276.72147747256531
 20
91.983703177607083
 30
0.0
 70
    32
  0
VERTEX
  5
59501
  8
3
 10
277.07510746535002
 20
91.939325248641268
 30
0.0
 70
    32
  0
VERTEX
  5
59502
  8
3
 10
277.44096118036822
 20
91.871411603854114
 30
0.0
 70
    32
  0
VERTEX
  5
59503
  8
3
 10
277.81033918638002
 20
91.785448179072688
 30
0.0
 70
    32
  0
VERTEX
  5
59504
  8
3
 10
278.4015978853148
 20
91.62134825672527
 30
0.0
 70
    32
  0
VERTEX
  5
59505
  8
3
 10
279.00124720389562
 20
91.431866557202028
 30
0.0
 70
    32
  0
VERTEX
  5
59506
  8
3
 10
279.61487980368491
 20
91.223303154037424
 30
0.0
 70
    32
  0
VERTEX
  5
59507
  8
3
 10
280.23313451185732
 20
91.005962827325106
 30
0.0
 70
    32
  0
VERTEX
  5
59508
  8
3
 10
280.25
 20
91.000000000000028
 30
0.0
 70
    32
  0
SEQEND
  5
59509
  8
3
  0
LINE
  5
5950A
  8
0
 10
272.25
 20
83.000000000000014
 30
0.0
 11
272.25
 21
92.000000000000014
 31
0.0
  0
POLYLINE
  5
5950B
  8
0
 66
     1
 10
0.0
 20
0.0
 30
0.0
 70
     8
  0
VERTEX
  5
5950C
  8
0
 10
272.25
 20
83.000000000000014
 30
0.0
 70
    32
  0
VERTEX
  5
5950D
  8
0
 10
272.28044241526601
 20
82.302754058018763
 30
0.0
 70
    32
  0
VERTEX
  5
5950E
  8
0
 10
272.37153797590241
 20
81.610814578664574
 30
0.0
 70
    32
  0
VERTEX
  5
5950F
  8
0
 10
272.52259338968747
 20
80.92944763917987
 30
0.0
 70
    32
  0
VERTEX
  5
59510
  8
0
 10
272.7324590337127
 20
80.263838853394674
 30
0.0
 70
    32
  0
VERTEX
  5
59511
  8
0
 10
272.83254396937542
 20
80.003110607021057
 30
0.0
 70
    32
  0
SEQEND
  5
59512
  8
0
  0
POLYLINE
  5
59513
  8
3
 66
     1
 10
0.0
 20
0.0
 30
0.0
 70
     8
  0
VERTEX
  5
59514
  8
3
 10
280.25
 20
84.800000000000026
 30
0.0
 70
    32
  0
VERTEX
  5
59515
  8
3
 10
280.2652240421117
 20
84.788828609292068
 30
0.0
 70
    32
  0
VERTEX
  5
59516
  8
3
 10
280.6699070489255
 20
84.491915203330436
 30
0.0
 70
    32
  0
VERTEX
  5
59517
  8
3
 10
281.07400272743411
 20
84.195673367900127
 30
0.0
 70
    32
  0
VERTEX
  5
59518
  8
3
 10
281.47969242096531
 20
83.898745413805869
 30
0.0
 70
    32
  0
VERTEX
  5
59519
  8
3
 10
281.88360554419432
 20
83.603857731510786
 30
0.0
 70
    32
  0
VERTEX
  5
5951A
  8
3
 10
282.29410743712742
 20
83.305207205257148
 30
0.0
 70
    32
  0
VERTEX
  5
5951B
  8
3
 10
282.70140166976131
 20
83.010272797241953
 30
0.0
 70
    32
  0
VERTEX
  5
5951C
  8
3
 10
283.10804901920852
 20
82.71756761706834
 30
0.0
 70
    32
  0
VERTEX
  5
5951D
  8
3
 10
283.50985888567499
 20
82.430540652604094
 30
0.0
 70
    32
  0
VERTEX
  5
5951E
  8
3
 10
284.071210121288
 20
82.034292476134937
 30
0.0
 70
    32
  0
VERTEX
  5
5951F
  8
3
 10
284.62090912511491
 20
81.653471942248871
 30
0.0
 70
    32
  0
VERTEX
  5
59520
  8
3
 10
285.16208812462548
 20
81.288300687252303
 30
0.0
 70
    32
  0
VERTEX
  5
59521
  8
3
 10
285.68394484636411
 20
80.949278497899996
 30
0.0
 70
    32
  0
VERTEX
  5
59522
  8
3
 10
286.03897056581809
 20
80.729064108122273
 30
0.0
 70
    32
  0
VERTEX
  5
59523
  8
3
 10
286.37895064557961
 20
80.529292859366592
 30
0.0
 70
    32
  0
VERTEX
  5
59524
  8
3
 10
286.70507312254551
 20
80.351887239514667
 30
0.0
 70
    32
  0
VERTEX
  5
59525
  8
3
 10
287.01011369440403
 20
80.204138352519152
 30
0.0
 70
    32
  0
VERTEX
  5
59526
  8
3
 10
287.19195596830599
 20
80.127997953289338
 30
0.0
 70
    32
  0
VERTEX
  5
59527
  8
3
 10
287.36241470060929
 20
80.067987840424138
 30
0.0
 70
    32
  0
VERTEX
  5
59528
  8
3
 10
287.52179557260501
 20
80.025536143522274
 30
0.0
 70
    32
  0
VERTEX
  5
59529
  8
3
 10
287.66745603062429
 20
80.003110607020631
 30
0.0
 70
    32
  0
SEQEND
  5
5952A
  8
3
  0
POLYLINE
  5
5952B
  8
3
 66
     1
 10
0.0
 20
0.0
 30
0.0
 70
     8
  0
VERTEX
  5
5952C
  8
3
 10
272.83254396937508
 20
80.003110607020602
 30
0.0
 70
    32
  0
VERTEX
  5
5952D
  8
3
 10
272.97467520894759
 20
80.024783672179296
 30
0.0
 70
    32
  0
VERTEX
  5
5952E
  8
3
 10
273.1315443835062
 20
80.066109539073068
 30
0.0
 70
    32
  0
VERTEX
  5
5952F
  8
3
 10
273.30405646216423
 20
80.126455142048187
 30
0.0
 70
    32
  0
VERTEX
  5
59530
  8
3
 10
273.48988630559597
 20
80.204138352519152
 30
0.0
 70
    32
  0
VERTEX
  5
59531
  8
3
 10
273.78481497845479
 20
80.346668839822343
 30
0.0
 70
    32
  0
VERTEX
  5
59532
  8
3
 10
274.10428197560429
 20
80.519789809335435
 30
0.0
 70
    32
  0
VERTEX
  5
59533
  8
3
 10
274.45028941433611
 20
80.722568642749735
 30
0.0
 70
    32
  0
VERTEX
  5
59534
  8
3
 10
274.81605515363589
 20
80.949278497899996
 30
0.0
 70
    32
  0
VERTEX
  5
59535
  8
3
 10
275.32078941986492
 20
81.276946176087421
 30
0.0
 70
    32
  0
VERTEX
  5
59536
  8
3
 10
275.85142561393991
 20
81.634541080314676
 30
0.0
 70
    32
  0
VERTEX
  5
59537
  8
3
 10
276.41145146619027
 20
82.022159526398639
 30
0.0
 70
    32
  0
VERTEX
  5
59538
  8
3
 10
276.99014111432513
 20
82.430540652604094
 30
0.0
 70
    32
  0
VERTEX
  5
59539
  8
3
 10
277.37675604684631
 20
82.706670667578749
 30
0.0
 70
    32
  0
VERTEX
  5
5953A
  8
3
 10
277.76788073477161
 20
82.988095486528806
 30
0.0
 70
    32
  0
VERTEX
  5
5953B
  8
3
 10
278.16593041564238
 20
83.276202622390414
 30
0.0
 70
    32
  0
VERTEX
  5
5953C
  8
3
 10
278.5671157100706
 20
83.567944278631302
 30
0.0
 70
    32
  0
VERTEX
  5
5953D
  8
3
 10
278.98025434603329
 20
83.869465984581865
 30
0.0
 70
    32
  0
VERTEX
  5
5953E
  8
3
 10
279.39531729626549
 20
84.173198416074996
 30
0.0
 70
    32
  0
VERTEX
  5
5953F
  8
3
 10
279.8147185238322
 20
84.480638317045759
 30
0.0
 70
    32
  0
VERTEX
  5
59540
  8
3
 10
280.23477595788819
 20
84.788828609292068
 30
0.0
 70
    32
  0
VERTEX
  5
59541
  8
3
 10
280.25
 20
84.800000000000026
 30
0.0
 70
    32
  0
SEQEND
  5
59542
  8
3
  0
LINE
  5
59543
  8
0
 10
287.66745603062429
 20
80.003110607020631
 30
0.0
 11
272.83254396937508
 21
80.003110607020602
 31
0.0
  0
LINE
  5
595D5
  8
1
 10
50.000000000000007
 20
102.0
 30
0.0
 11
50.000000000000007
 21
45.0
 31
0.0
  0
LINE
  5
595D6
  8
0
 10
45.166666666666643
 20
97.000000000000057
 30
0.0
 11
54.833333332953451
 21
97.000000000000057
 31
0.0
  0
ARC
  5
595D7
  8
0
 10
54.833333333333329
 20
96.000000000000057
 30
0.0
 40
1.0
 50
0.0
 51
90.0
  0
ARC
  5
595D8
  8
0
 10
45.1666666666667
 20
96.000000000000057
 30
0.0
 40
1.0000000000000031
 50
90.0
 51
180.0
  0
LINE
  5
595D9
  8
0
 10
55.833333333333329
 20
96.000000000000057
 30
0.0
 11
55.833333333333329
 21
91.000000000000028
 31
0.0
  0
LINE
  5
595DA
  8
0
 10
44.166666666666643
 20
91.000000000000028
 30
0.0
 11
44.166666666666643
 21
96.000000000000057
 31
0.0
  0
LINE
  5
595DB
  8
0
 10
42.399999999999991
 20
50.0
 30
0.0
 11
57.600000000000009
 21
50.0
 31
0.0
  0
LINE
  5
595DC
  8
0
 10
57.600000000000009
 20
50.199999999999989
 30
0.0
 11
57.600000000000009
 21
50.0
 31
0.0
  0
LINE
  5
595DD
  8
0
 10
42.399999999999991
 20
50.0
 30
0.0
 11
42.399999999999991
 21
50.199999999999989
 31
0.0
  0
LINE
  5
595E0
  8
0
 10
62.250000000000007
 20
91.0
 30
0.0
 11
37.750000000000021
 21
91.000000000000028
 31
0.0
  0
LINE
  5
595EC
  8
0
 10
40.500000000000007
 20
50.199999999999989
 30
0.0
 11
59.500000000000007
 21
50.199999999999989
 31
0.0
  0
LINE
  5
595ED
  8
0
 10
59.500000000000007
 20
62.0
 30
0.0
 11
59.500000000000007
 21
50.199999999999989
 31
0.0
  0
LINE
  5
595EE
  8
0
 10
40.500000000000007
 20
50.199999999999989
 30
0.0
 11
40.500000000000007
 21
62.0
 31
0.0
  0
LINE
  5
595F9
  8
0
 10
37.750000000000021
 20
62.0
 30
0.0
 11
62.250000000000007
 21
62.0
 31
0.0
  0
LINE
  5
595FA
  8
0
 10
62.250000000000007
 20
91.0
 30
0.0
 11
62.250000000000007
 21
62.0
 31
0.0
  0
LINE
  5
595FB
  8
0
 10
37.750000000000021
 20
62.0
 30
0.0
 11
37.750000000000021
 21
91.0
 31
0.0
  0
LINE
  5
595FC
  8
0
 10
40.641036699336617
 20
92.0
 30
0.0
 11
44.166666666666643
 21
92.0
 31
0.0
  0
POLYLINE
  5
595FD
  8
0
 66
     1
 10
0.0
 20
0.0
 30
0.0
 70
     8
  0
VERTEX
  5
595FE
  8
0
 10
40.641036699336617
 20
92.0
 30
0.0
 70
    32
  0
VERTEX
  5
595FF
  8
0
 10
40.543158470441497
 20
91.727275868749416
 30
0.0
 70
    32
  0
VERTEX
  5
59600
  8
0
 10
40.416420580814027
 20
91.4873085101529
 30
0.0
 70
    32
  0
VERTEX
  5
59601
  8
0
 10
40.271265618067233
 20
91.298787327999364
 30
0.0
 70
    32
  0
VERTEX
  5
59602
  8
0
 10
40.102767970031223
 20
91.15183156908779
 30
0.0
 70
    32
  0
VERTEX
  5
59603
  8
0
 10
39.896907216495158
 20
91.042756705346278
 30
0.0
 70
    32
  0
SEQEND
  5
59604
  8
0
  0
POLYLINE
  5
59605
  8
0
 66
     1
 10
0.0
 20
0.0
 30
0.0
 70
     8
  0
VERTEX
  5
59606
  8
0
 10
60.103092783505183
 20
91.042756705347557
 30
0.0
 70
    32
  0
VERTEX
  5
59607
  8
0
 10
59.891780875548797
 20
91.155659103377531
 30
0.0
 70
    32
  0
VERTEX
  5
59608
  8
0
 10
59.697711627375512
 20
91.333362359350247
 30
0.0
 70
    32
  0
VERTEX
  5
59609
  8
0
 10
59.535591705502419
 20
91.567653316917756
 30
0.0
 70
    32
  0
VERTEX
  5
5960A
  8
0
 10
59.463467243820311
 20
91.712285888449571
 30
0.0
 70
    32
  0
VERTEX
  5
5960B
  8
0
 10
59.400288143487032
 20
91.871429156308423
 30
0.0
 70
    32
  0
VERTEX
  5
5960C
  8
0
 10
59.358963300663341
 20
91.999999999999972
 30
0.0
 70
    32
  0
SEQEND
  5
5960D
  8
0
  0
LINE
  5
5976D
  8
0
 10
55.833333333333329
 20
92.0
 30
0.0
 11
59.358963300663383
 21
92.0
 31
0.0
  0
POLYLINE
  5
5976E
  8
0
 66
     1
 10
0.0
 20
0.0
 30
0.0
 70
     8
  0
VERTEX
  5
59770
  8
0
 10
60.245720466283821
 20
90.999999999999972
 30
0.0
 70
    32
  0
VERTEX
  5
59771
  8
0
 10
60.23666103710557
 20
91.001456097589198
 30
0.0
 70
    32
  0
VERTEX
  5
59772
  8
0
 10
60.10309278350509
 20
91.042756705347557
 30
0.0
 70
    32
  0
SEQEND
  5
5976F
  8
0
  0
POLYLINE
  5
59773
  8
0
 66
     1
 10
0.0
 20
0.0
 30
0.0
 70
     8
  0
VERTEX
  5
59775
  8
0
 10
39.896907216494832
 20
91.042756705347557
 30
0.0
 70
    32
  0
VERTEX
  5
59776
  8
0
 10
39.743284309623519
 20
91.000000000000028
 30
0.0
 70
    32
  0
SEQEND
  5
59774
  8
0
  0
LINE
  5
597C8
  8
3
 10
140.84312352591201
 20
59.600000000000328
 30
0.0
 11
140.84312352591201
 21
50.20000000000033
 31
0.0
  0
LINE
  5
597C9
  8
3
 10
141.42717346993709
 20
59.60000000000047
 30
0.0
 11
141.42717346993709
 21
50.200000000000472
 31
0.0
  0
LINE
  5
597CA
  8
3
 10
124.8249763621382
 20
59.600000000000051
 30
0.0
 11
124.8249763621382
 21
50.200000000000038
 31
0.0
  0
LINE
  5
597CB
  8
3
 10
126.36204187115641
 20
59.600000000000051
 30
0.0
 11
126.36204187115641
 21
50.200000000000038
 31
0.0
  0
LINE
  5
597CC
  8
3
 10
128.30036199634429
 20
59.600000000000051
 30
0.0
 11
128.30036199634429
 21
50.200000000000038
 31
0.0
  0
LINE
  5
597CD
  8
3
 10
129.37954557484281
 20
59.600000000000051
 30
0.0
 11
129.37954557484281
 21
50.200000000000038
 31
0.0
  0
LINE
  5
597CE
  8
3
 10
130.5078434243959
 20
59.600000000000051
 30
0.0
 11
130.5078434243959
 21
50.200000000000038
 31
0.0
  0
LINE
  5
597CF
  8
3
 10
131.6659500559748
 20
59.600000000000051
 30
0.0
 11
131.6659500559748
 21
50.200000000000038
 31
0.0
  0
LINE
  5
597D0
  8
3
 10
127.2887578191351
 20
59.600000000000563
 30
0.0
 11
127.2887578191351
 21
50.200000000000557
 31
0.0
  0
LINE
  5
597D1
  8
3
 10
125.5360705192127
 20
59.600000000000051
 30
0.0
 11
125.5360705192127
 21
50.200000000000038
 31
0.0
  0
LINE
  5
597D2
  8
3
 10
124.24092641811311
 20
59.600000000000193
 30
0.0
 11
124.24092641811311
 21
50.200000000000188
 31
0.0
  0
LINE
  5
597D3
  8
3
 10
123.65687647408799
 20
59.600000000000328
 30
0.0
 11
123.65687647408799
 21
50.20000000000033
 31
0.0
  0
LINE
  5
597D4
  8
3
 10
123.0728265300628
 20
59.60000000000047
 30
0.0
 11
123.0728265300628
 21
50.200000000000472
 31
0.0
  0
POLYLINE
  5
597D5
  8
3
 66
     1
 10
0.0
 20
0.0
 30
0.0
 70
     8
  0
VERTEX
  5
597D7
  8
3
 10
145.96358815190251
 20
81.611749866351076
 30
0.0
 70
    32
  0
VERTEX
  5
597D8
  8
3
 10
148.691371374027
 20
82.561507587240555
 30
0.0
 70
    32
  0
VERTEX
  5
597D9
  8
3
 10
151.43835265916661
 20
83.454884876965266
 30
0.0
 70
    32
  0
VERTEX
  5
597DA
  8
3
 10
154.20683794355091
 20
84.277088866070784
 30
0.0
 70
    32
  0
VERTEX
  5
597DB
  8
3
 10
157.01697769408071
 20
85.021261128493506
 30
0.0
 70
    32
  0
VERTEX
  5
597DC
  8
3
 10
159.8497330314778
 20
85.677071168768805
 30
0.0
 70
    32
  0
VERTEX
  5
597DD
  8
3
 10
162.70166518359059
 20
86.239431689102275
 30
0.0
 70
    32
  0
VERTEX
  5
597DE
  8
3
 10
165.36713465921881
 20
86.674780035247807
 30
0.0
 70
    32
  0
VERTEX
  5
597DF
  8
3
 10
168.04518936169441
 20
87.024342384936034
 30
0.0
 70
    32
  0
VERTEX
  5
597E0
  8
3
 10
170.74464910190619
 20
87.287302707661155
 30
0.0
 70
    32
  0
VERTEX
  5
597E1
  8
3
 10
173.45132158024609
 20
87.460803004998667
 30
0.0
 70
    32
  0
VERTEX
  5
597E2
  8
3
 10
175.54019601971851
 20
87.532805194956893
 30
0.0
 70
    32
  0
VERTEX
  5
597E3
  8
3
 10
177.0523153077917
 20
87.549140835102193
 30
0.0
 70
    32
  0
SEQEND
  5
597D6
  8
3
  0
LINE
  5
597E9
  8
2
 10
46.676500000000011
 20
65.081176380348296
 30
0.0
 11
46.676500000000011
 21
50.676500000000061
 31
0.0
  0
LINE
  5
597EA
  8
2
 10
53.32350000000001
 20
50.676500000000061
 30
0.0
 11
53.32350000000001
 21
65.081176380348296
 31
0.0
  0
LINE
  5
597EB
  8
2
 10
50.000000000000007
 20
67.000000000000014
 30
0.0
 11
46.676500000000011
 21
65.081176380348296
 31
0.0
  0
LINE
  5
597EC
  8
2
 10
53.32350000000001
 20
65.081176380348296
 30
0.0
 11
50.000000000000007
 21
67.000000000000014
 31
0.0
  0
LINE
  5
597ED
  8
2
 10
53.32350000000001
 20
65.081176380348296
 30
0.0
 11
46.676500000000011
 21
65.081176380348296
 31
0.0
  0
LINE
  5
597EE
  8
2
 10
46.676500000000011
 20
50.676500000000061
 30
0.0
 11
46.000000000000007
 21
50.000000000000057
 31
0.0
  0
LINE
  5
597EF
  8
2
 10
54.000000000000021
 20
50.000000000000057
 30
0.0
 11
53.32350000000001
 21
50.676500000000061
 31
0.0
  0
LINE
  5
597F0
  8
2
 10
53.32350000000001
 20
50.676500000000061
 30
0.0
 11
46.676500000000011
 21
50.676500000000061
 31
0.0
  0
LINE
  5
597F1
  8
2
 10
54.000000000000021
 20
50.000000000000057
 30
0.0
 11
54.000000000000021
 21
63.000000000000028
 31
0.0
  0
LINE
  5
597F2
  8
2
 10
54.000000000000021
 20
63.000000000000028
 30
0.0
 11
46.000000000000007
 21
63.000000000000028
 31
0.0
  0
LINE
  5
597F3
  8
2
 10
46.000000000000007
 20
50.000000000000057
 30
0.0
 11
46.000000000000007
 21
63.000000000000028
 31
0.0
  0
LINE
  5
597F4
  8
3
 10
57.425023637861742
 20
59.600000000000051
 30
0.0
 11
57.425023637861742
 21
50.200000000000038
 31
0.0
  0
LINE
  5
597F5
  8
3
 10
55.887958128843628
 20
59.600000000000051
 30
0.0
 11
55.887958128843628
 21
50.200000000000038
 31
0.0
  0
LINE
  5
597F6
  8
3
 10
53.949638003655693
 20
59.600000000000051
 30
0.0
 11
53.949638003655693
 21
50.200000000000038
 31
0.0
  0
LINE
  5
597F7
  8
3
 10
52.870454425157249
 20
59.600000000000051
 30
0.0
 11
52.870454425157249
 21
50.200000000000038
 31
0.0
  0
LINE
  5
597F8
  8
3
 10
51.742156575604042
 20
59.600000000000051
 30
0.0
 11
51.742156575604042
 21
50.200000000000038
 31
0.0
  0
LINE
  5
597F9
  8
3
 10
50.584049944025189
 20
59.600000000000051
 30
0.0
 11
50.584049944025189
 21
50.200000000000038
 31
0.0
  0
LINE
  5
597FA
  8
3
 10
54.961242180864893
 20
59.600000000000563
 30
0.0
 11
54.961242180864893
 21
50.200000000000557
 31
0.0
  0
LINE
  5
597FB
  8
3
 10
56.713929480787272
 20
59.600000000000051
 30
0.0
 11
56.713929480787272
 21
50.200000000000038
 31
0.0
  0
LINE
  5
597FC
  8
3
 10
58.009073581886881
 20
59.600000000000193
 30
0.0
 11
58.009073581886881
 21
50.200000000000188
 31
0.0
  0
LINE
  5
597FD
  8
0
 10
40.500000000000028
 20
59.600000000002318
 30
0.0
 11
59.5
 21
59.600000000000023
 31
0.0
  0
LINE
  5
597FE
  8
3
 10
58.59312352591202
 20
59.600000000000328
 30
0.0
 11
58.59312352591202
 21
50.20000000000033
 31
0.0
  0
LINE
  5
597FF
  8
3
 10
59.177173469937159
 20
59.60000000000047
 30
0.0
 11
59.177173469937159
 21
50.200000000000472
 31
0.0
  0
LINE
  5
59800
  8
3
 10
42.574976362138287
 20
59.600000000000051
 30
0.0
 11
42.574976362138287
 21
50.200000000000038
 31
0.0
  0
LINE
  5
59801
  8
3
 10
44.112041871156393
 20
59.600000000000051
 30
0.0
 11
44.112041871156393
 21
50.200000000000038
 31
0.0
  0
LINE
  5
59802
  8
3
 10
46.050361996344328
 20
59.600000000000051
 30
0.0
 11
46.050361996344328
 21
50.200000000000038
 31
0.0
  0
LINE
  5
59803
  8
3
 10
47.12954557484278
 20
59.600000000000051
 30
0.0
 11
47.12954557484278
 21
50.200000000000038
 31
0.0
  0
LINE
  5
59804
  8
3
 10
48.257843424395979
 20
59.600000000000051
 30
0.0
 11
48.257843424395979
 21
50.200000000000038
 31
0.0
  0
LINE
  5
59805
  8
3
 10
49.415950055974832
 20
59.600000000000051
 30
0.0
 11
49.415950055974832
 21
50.200000000000038
 31
0.0
  0
LINE
  5
59806
  8
3
 10
45.038757819135142
 20
59.600000000000563
 30
0.0
 11
45.038757819135142
 21
50.200000000000557
 31
0.0
  0
LINE
  5
59807
  8
3
 10
43.286070519212757
 20
59.600000000000051
 30
0.0
 11
43.286070519212757
 21
50.200000000000038
 31
0.0
  0
LINE
  5
59808
  8
3
 10
41.990926418113141
 20
59.600000000000193
 30
0.0
 11
41.990926418113141
 21
50.200000000000188
 31
0.0
  0
LINE
  5
59809
  8
3
 10
41.406876474088008
 20
59.600000000000328
 30
0.0
 11
41.406876474088008
 21
50.20000000000033
 31
0.0
  0
LINE
  5
5980A
  8
3
 10
40.822826530062869
 20
59.60000000000047
 30
0.0
 11
40.822826530062869
 21
50.200000000000472
 31
0.0
  0
LINE
  5
5980B
  8
2
 10
276.92649999999998
 20
65.081176380348296
 30
0.0
 11
276.92649999999998
 21
50.676500000000033
 31
0.0
  0
LINE
  5
5980C
  8
2
 10
283.57350000000002
 20
50.676500000000033
 30
0.0
 11
283.57350000000002
 21
65.081176380348296
 31
0.0
  0
LINE
  5
5980D
  8
2
 10
280.25
 20
67.000000000000014
 30
0.0
 11
276.92649999999998
 21
65.081176380348296
 31
0.0
  0
LINE
  5
5980E
  8
2
 10
283.57350000000002
 20
65.081176380348296
 30
0.0
 11
280.25
 21
67.000000000000014
 31
0.0
  0
LINE
  5
5980F
  8
2
 10
283.57350000000002
 20
65.081176380348296
 30
0.0
 11
276.92649999999998
 21
65.081176380348296
 31
0.0
  0
LINE
  5
59810
  8
2
 10
276.92649999999998
 20
50.676500000000033
 30
0.0
 11
276.25
 21
50.000000000000028
 31
0.0
  0
LINE
  5
59811
  8
2
 10
284.25
 20
50.000000000000028
 30
0.0
 11
283.57350000000002
 21
50.676500000000033
 31
0.0
  0
LINE
  5
59812
  8
2
 10
283.57350000000002
 20
50.676500000000033
 30
0.0
 11
276.92649999999998
 21
50.676500000000033
 31
0.0
  0
LINE
  5
59813
  8
2
 10
284.25
 20
50.000000000000028
 30
0.0
 11
284.25
 21
63.000000000000028
 31
0.0
  0
LINE
  5
59814
  8
2
 10
284.25
 20
63.000000000000028
 30
0.0
 11
276.25
 21
63.000000000000028
 31
0.0
  0
LINE
  5
59815
  8
2
 10
276.25
 20
50.000000000000028
 30
0.0
 11
276.25
 21
63.000000000000028
 31
0.0
  0
LINE
  5
59816
  8
3
 10
287.67502363786173
 20
59.600000000000023
 30
0.0
 11
287.67502363786173
 21
50.200000000000017
 31
0.0
  0
LINE
  5
59817
  8
3
 10
286.13795812884359
 20
59.600000000000023
 30
0.0
 11
286.13795812884359
 21
50.200000000000017
 31
0.0
  0
LINE
  5
59818
  8
3
 10
284.19963800365559
 20
59.600000000000023
 30
0.0
 11
284.19963800365559
 21
50.200000000000017
 31
0.0
  0
LINE
  5
59819
  8
3
 10
283.12045442515722
 20
59.600000000000023
 30
0.0
 11
283.12045442515722
 21
50.200000000000017
 31
0.0
  0
LINE
  5
5981A
  8
3
 10
281.9921565756041
 20
59.600000000000023
 30
0.0
 11
281.9921565756041
 21
50.200000000000017
 31
0.0
  0
LINE
  5
5981B
  8
3
 10
280.8340499440252
 20
59.600000000000023
 30
0.0
 11
280.8340499440252
 21
50.200000000000017
 31
0.0
  0
LINE
  5
5981C
  8
3
 10
285.21124218086487
 20
59.600000000000541
 30
0.0
 11
285.21124218086487
 21
50.200000000000522
 31
0.0
  0
LINE
  5
5981D
  8
3
 10
286.96392948078727
 20
59.600000000000023
 30
0.0
 11
286.96392948078727
 21
50.200000000000017
 31
0.0
  0
LINE
  5
5981E
  8
3
 10
288.25907358188692
 20
59.600000000000158
 30
0.0
 11
288.25907358188692
 21
50.200000000000159
 31
0.0
  0
LINE
  5
5981F
  8
0
 10
270.75
 20
59.600000000002296
 30
0.0
 11
289.75
 21
59.599999999999987
 31
0.0
  0
LINE
  5
59820
  8
3
 10
288.84312352591201
 20
59.600000000000307
 30
0.0
 11
288.84312352591201
 21
50.200000000000301
 31
0.0
  0
LINE
  5
59821
  8
3
 10
289.42717346993709
 20
59.600000000000449
 30
0.0
 11
289.42717346993709
 21
50.200000000000443
 31
0.0
  0
LINE
  5
59822
  8
3
 10
272.82497636213827
 20
59.600000000000023
 30
0.0
 11
272.82497636213827
 21
50.200000000000017
 31
0.0
  0
LINE
  5
59823
  8
3
 10
274.36204187115641
 20
59.600000000000023
 30
0.0
 11
274.36204187115641
 21
50.200000000000017
 31
0.0
  0
LINE
  5
59824
  8
3
 10
276.30036199634441
 20
59.600000000000023
 30
0.0
 11
276.30036199634441
 21
50.200000000000017
 31
0.0
  0
LINE
  5
59825
  8
3
 10
277.37954557484278
 20
59.600000000000023
 30
0.0
 11
277.37954557484278
 21
50.200000000000017
 31
0.0
  0
LINE
  5
59826
  8
3
 10
278.50784342439601
 20
59.600000000000023
 30
0.0
 11
278.50784342439601
 21
50.200000000000017
 31
0.0
  0
LINE
  5
59827
  8
3
 10
279.6659500559748
 20
59.600000000000023
 30
0.0
 11
279.6659500559748
 21
50.200000000000017
 31
0.0
  0
LINE
  5
59828
  8
3
 10
275.28875781913513
 20
59.600000000000541
 30
0.0
 11
275.28875781913513
 21
50.200000000000522
 31
0.0
  0
LINE
  5
59829
  8
3
 10
273.53607051921273
 20
59.600000000000023
 30
0.0
 11
273.53607051921273
 21
50.200000000000017
 31
0.0
  0
LINE
  5
5982A
  8
3
 10
272.24092641811308
 20
59.600000000000158
 30
0.0
 11
272.24092641811308
 21
50.200000000000159
 31
0.0
  0
LINE
  5
5982B
  8
3
 10
271.65687647408799
 20
59.600000000000307
 30
0.0
 11
271.65687647408799
 21
50.200000000000301
 31
0.0
  0
LINE
  5
5982C
  8
3
 10
271.07282653006291
 20
59.600000000000449
 30
0.0
 11
271.07282653006291
 21
50.200000000000443
 31
0.0
  0
POLYLINE
  5
59A13
  8
0
 66
     1
 10
0.0
 20
0.0
 30
0.0
 70
     8
  0
VERTEX
  5
59A15
  8
0
 10
270.0042795337165
 20
91.000000000000028
 30
0.0
 70
    32
  0
VERTEX
  5
59A16
  8
0
 10
270.01333896289441
 20
91.001456097589227
 30
0.0
 70
    32
  0
VERTEX
  5
59A17
  8
0
 10
270.14690721649492
 20
91.042756705347585
 30
0.0
 70
    32
  0
SEQEND
  5
59A14
  8
0
  0
POLYLINE
  5
59A18
  8
0
 66
     1
 10
0.0
 20
0.0
 30
0.0
 70
     8
  0
VERTEX
  5
59A1A
  8
0
 10
290.35309278350519
 20
91.042756705347585
 30
0.0
 70
    32
  0
VERTEX
  5
59A1B
  8
0
 10
290.5067156903765
 20
91.000000000000028
 30
0.0
 70
    32
  0
SEQEND
  5
59A19
  8
0
  0
VIEWPORT
  5
1EC2F
 67
     1
  8
0
 10
261.51769911504419
 20
148.5
 30
0.0
 40
523.0353982300885
 41
297.0
 68
     1
 69
     1
1001
ACAD
1000
MVIEW
1002
{
1070
    16
1010
0.0
1020
0.0
1030
0.0
1010
0.0
1020
0.0
1030
1.0
1040
0.0
1040
297.0
1040
261.51769911504419
1040
148.5
1040
50.0
1040
0.0
1040
0.0
1070
     0
1070
   100
1070
     1
1070
     1
1070
     0
1070
     0
1070
     0
1070
     0
1040
0.0
1040
0.0
1040
0.0
1040
1.0
1040
1.0
1040
10.0
1040
10.0
1070
     0
1002
{
1002
}
1002
}
  0
ENDSEC
  0
EOF
