  0
SECTION
  2
HEADER
  9
$ACADVER
  1
AC1009
  9
$INSBASE
 10
0.0
 20
0.0
 30
0.0
  9
$EXTMIN
 10
0.0
 20
-2.960436562073669
 30
0.0
  9
$EXTMAX
 10
232.0
 20
152.0
 30
0.0
  9
$LIMMIN
 10
0.0
 20
0.0
  9
$LIMMAX
 10
390.0
 20
270.0
  9
$ORTHOMODE
 70
     1
  9
$REGENMODE
 70
     1
  9
$FILLMODE
 70
     1
  9
$QTEXTMODE
 70
     0
  9
$MIRRTEXT
 70
     1
  9
$DRAGMODE
 70
     2
  9
$LTSCALE
 40
5.0
  9
$OSMODE
 70
    37
  9
$ATTMODE
 70
     1
  9
$TEXTSIZE
 40
2.5
  9
$TRACEWID
 40
1.0
  9
$TEXTSTYLE
  7
STANDARD
  9
$CLAYER
  8
0
  9
$CELTYPE
  6
BYLAYER
  9
$CECOLOR
 62
   256
  9
$DIMSCALE
 40
1.0
  9
$DIMASZ
 40
3.0
  9
$DIMEXO
 40
1.0
  9
$DIMDLI
 40
6.0
  9
$DIMRND
 40
0.0
  9
$DIMDLE
 40
0.0
  9
$DIMEXE
 40
1.0
  9
$DIMTP
 40
495.0
  9
$DIMTM
 40
0.0
  9
$DIMTXT
 40
2.5
  9
$DIMCEN
 40
0.0
  9
$DIMTSZ
 40
0.0
  9
$DIMTOL
 70
     0
  9
$DIMLIM
 70
     0
  9
$DIMTIH
 70
     0
  9
$DIMTOH
 70
     0
  9
$DIMSE1
 70
     0
  9
$DIMSE2
 70
     0
  9
$DIMTAD
 70
     1
  9
$DIMZIN
 70
     8
  9
$DIMBLK
  1

  9
$DIMASO
 70
     0
  9
$DIMSHO
 70
     1
  9
$DIMPOST
  1

  9
$DIMAPOST
  1

  9
$DIMALT
 70
     0
  9
$DIMALTD
 70
     2
  9
$DIMALTF
 40
25.399999999999999
  9
$DIMLFAC
 40
1.0
  9
$DIMTOFL
 70
     1
  9
$DIMTVP
 40
0.0
  9
$DIMTIX
 70
     1
  9
$DIMSOXD
 70
     0
  9
$DIMSAH
 70
     0
  9
$DIMBLK1
  1

  9
$DIMBLK2
  1

  9
$DIMSTYLE
  2
ITM
  9
$DIMCLRD
 70
   256
  9
$DIMCLRE
 70
   256
  9
$DIMCLRT
 70
   256
  9
$DIMTFAC
 40
1.0
  9
$DIMGAP
 40
1.0
  9
$LUNITS
 70
     2
  9
$LUPREC
 70
     1
  9
$SKETCHINC
 40
1.0
  9
$FILLETRAD
 40
0.4
  9
$AUNITS
 70
     0
  9
$AUPREC
 70
     1
  9
$MENU
  1
.
  9
$ELEVATION
 40
0.0
  9
$PELEVATION
 40
0.0
  9
$THICKNESS
 40
0.0
  9
$LIMCHECK
 70
     0
  9
$BLIPMODE
 70
     0
  9
$CHAMFERA
 40
1.1999999999999991
  9
$CHAMFERB
 40
1.1999999999999991
  9
$SKPOLY
 70
     0
  9
$TDCREATE
 40
2453354.0921258219
  9
$TDUPDATE
 40
2457168.55402125
  9
$TDINDWG
 40
513.94089840280003
  9
$TDUSRTIMER
 40
513.94062042819996
  9
$USRTIMER
 70
     1
  9
$ANGBASE
 50
0.0
  9
$ANGDIR
 70
     0
  9
$PDMODE
 70
     0
  9
$PDSIZE
 40
0.0
  9
$PLINEWID
 40
0.0
  9
$COORDS
 70
     1
  9
$SPLFRAME
 70
     0
  9
$SPLINETYPE
 70
     6
  9
$SPLINESEGS
 70
     8
  9
$ATTDIA
 70
     0
  9
$ATTREQ
 70
     1
  9
$HANDLING
 70
     1
  9
$HANDSEED
  5
59177
  9
$SURFTAB1
 70
     6
  9
$SURFTAB2
 70
     6
  9
$SURFTYPE
 70
     6
  9
$SURFU
 70
     6
  9
$SURFV
 70
     6
  9
$UCSNAME
  2

  9
$UCSORG
 10
0.0
 20
0.0
 30
0.0
  9
$UCSXDIR
 10
1.0
 20
0.0
 30
0.0
  9
$UCSYDIR
 10
0.0
 20
1.0
 30
0.0
  9
$PUCSNAME
  2

  9
$PUCSORG
 10
0.0
 20
0.0
 30
0.0
  9
$PUCSXDIR
 10
1.0
 20
0.0
 30
0.0
  9
$PUCSYDIR
 10
0.0
 20
1.0
 30
0.0
  9
$USERI1
 70
     4
  9
$USERI2
 70
     1
  9
$USERI3
 70
     1
  9
$USERI4
 70
     0
  9
$USERI5
 70
     0
  9
$USERR1
 40
1.0
  9
$USERR2
 40
3.0
  9
$USERR3
 40
3.2000000000000002
  9
$USERR4
 40
3.0
  9
$USERR5
 40
10.0
  9
$WORLDVIEW
 70
     1
  9
$SHADEDGE
 70
     3
  9
$SHADEDIF
 70
    70
  9
$TILEMODE
 70
     1
  9
$MAXACTVP
 70
    16
  9
$PLIMCHECK
 70
     0
  9
$PEXTMIN
 10
0.0
 20
0.0
 30
0.0
  9
$PEXTMAX
 10
0.0
 20
0.0
 30
0.0
  9
$PLIMMIN
 10
0.0
 20
0.0
  9
$PLIMMAX
 10
12.0
 20
9.0
  9
$UNITMODE
 70
     0
  9
$VISRETAIN
 70
     0
  9
$PLINEGEN
 70
     0
  9
$PSLTSCALE
 70
     1
  0
ENDSEC
  0
SECTION
  2
TABLES
  0
TABLE
  2
VPORT
 70
     1
  0
VPORT
  2
*ACTIVE
 70
     0
 10
0.0
 20
0.0
 11
1.0
 21
1.0
 12
317.84188034188031
 22
175.0
 13
0.0
 23
0.0
 14
5.0
 24
5.0
 15
10.0
 25
10.0
 16
0.0
 26
0.0
 36
1.0
 17
0.0
 27
0.0
 37
0.0
 40
350.0
 41
1.816239316239316
 42
50.0
 43
0.0
 44
0.0
 50
0.0
 51
0.0
 71
    16
 72
   500
 73
     1
 74
     1
 75
     0
 76
     0
 77
     0
 78
     1
  0
ENDTAB
  0
TABLE
  2
LTYPE
 70
     4
  0
LTYPE
  2
CONTINUOUS
 70
     0
  3
Solid line
 72
    65
 73
     0
 40
0.0
  0
LTYPE
  2
CENTER
 70
     0
  3
____ _ ____ _ ____ _ ____ _ ____ _ ____ _ ____
 72
    65
 73
     4
 40
2.0
 49
1.25
 49
-0.25
 49
0.25
 49
-0.25
  0
LTYPE
  2
HIDDEN
 70
     0
  3
_ _ _ _ _ _ _ _ _ _ _ _ _ _ _ _ _ _ _ _ _ _ _
 72
    65
 73
     2
 40
0.375
 49
0.25
 49
-0.125
  0
LTYPE
  2
PHANTOM2
 70
     0
  3
___ _ _ ___ _ _ ___ _ _ ___ _ _
 72
    65
 73
     6
 40
1.25
 49
0.625
 49
-0.125
 49
0.125
 49
-0.125
 49
0.125
 49
-0.125
  0
ENDTAB
  0
TABLE
  2
LAYER
 70
     6
  0
LAYER
  2
0
 70
     0
 62
     7
  6
CONTINUOUS
  0
LAYER
  2
1
 70
     0
 62
     1
  6
CENTER
  0
LAYER
  2
WAKU
 70
     0
 62
     5
  6
CONTINUOUS
  0
LAYER
  2
DEFPOINTS
 70
     0
 62
     7
  6
CONTINUOUS
  0
LAYER
  2
3
 70
     0
 62
     3
  6
CONTINUOUS
  0
LAYER
  2
2
 70
     0
 62
     2
  6
HIDDEN
  0
ENDTAB
  0
TABLE
  2
STYLE
 70
     3
  0
STYLE
  2
STANDARD
 70
     0
 40
0.0
 41
1.0
 50
0.0
 71
     0
 42
2.5
  3
ROMANS
  4
EXTFONT
  0
STYLE
  2
K
 70
     0
 40
0.0
 41
0.75
 50
0.0
 71
     0
 42
3.2000000000000002
  3
ROMANS.shx
  4
EXTFONT.shx
  0
STYLE
  2
STANDARD1
 70
     0
 40
0.0
 41
1.0
 50
0.0
 71
     0
 42
3.0
  3
txt
  4

  0
ENDTAB
  0
TABLE
  2
VIEW
 70
     2
  0
VIEW
  2
OLE1
 70
     0
 40
151.81220504325799
 10
73.676474473531471
 20
85.209442582639014
 41
295.93771616027522
 11
0.0
 21
0.0
 31
1.0
 12
0.0
 22
0.0
 32
0.0
 42
50.0
 43
0.0
 44
0.0
 50
0.0
 71
    16
  0
VIEW
  2
OLE2
 70
     0
 40
12.66566269640963
 10
177.82767580922561
 20
80.089748755761136
 41
24.690026015785861
 11
0.0
 21
0.0
 31
1.0
 12
0.0
 22
0.0
 32
0.0
 42
50.0
 43
0.0
 44
0.0
 50
0.0
 71
    16
  0
ENDTAB
  0
TABLE
  2
UCS
 70
     0
  0
ENDTAB
  0
TABLE
  2
APPID
 70
    49
  0
APPID
  2
ACAD
 70
     0
  0
APPID
  2
COMM
 70
     0
  0
APPID
  2
DCO15
 70
     0
  0
APPID
  2
GENIUS_GENOREF_13
 70
     0
  0
APPID
  2
GENIUS_GENOENT_13
 70
     0
  0
APPID
  2
GENIUS_GENBH_13
 70
     0
  0
APPID
  2
GENIUS_GENOBJ_13
 70
     0
  0
APPID
  2
GENIUS_GENODEF_13
 70
     0
  0
APPID
  2
GENIUS_GENOLIS_13
 70
     0
  0
APPID
  2
GENIUS_GENOBJ-NBEHI-BHF_13
 70
     0
  0
APPID
  2
GENIUS_GENOBJ-NBEHI-BHB_13
 70
     0
  0
APPID
  2
GENIUS_GENOBJ-F-PART_13
 70
     0
  0
APPID
  2
GENIUS_GEFSTDP_13
 70
     0
  0
APPID
  2
GENIUS_GENOBJ-N-RSSYM_13
 70
     0
  0
APPID
  2
GENIUS_GENSYMENT_13
 70
     0
  0
APPID
  2
GENIUS_GENOBJ-N-TIT_13
 70
     0
  0
APPID
  2
GENIUS_GENTITLE_13
 70
     0
  0
APPID
  2
GENIUS_GENZVEED_13
 70
     0
  0
APPID
  2
GENIUS_GENOBJ-N-LEADER_13
 70
     0
  0
APPID
  2
GENIUS_GENOBJ-N-FIL_13
 70
     0
  0
APPID
  2
GENIUS_GENOBJ-N-SEC_13
 70
     0
  0
APPID
  2
GENIUS_GENOBJ-N-CRS_13
 70
     0
  0
APPID
  2
GENIUS_GENOBJ-N-ZOO_13
 70
     0
  0
APPID
  2
GENIUS_GENZOO_13
 70
     0
  0
APPID
  2
GENIUS_GENOBJ-F-TOL_13
 70
     0
  0
APPID
  2
GENIUS_GENFIL_13
 70
     0
  0
APPID
  2
GENIUS_GENOBJ-N-CHA_13
 70
     0
  0
APPID
  2
_CALL_MAC$
 70
     0
  0
APPID
  2
ASM_BASE
 70
     0
  0
APPID
  2
ASM_EXPLO_VER_2_00
 70
     0
  0
APPID
  2
ASM_CADM_VER_12_00
 70
     0
  0
APPID
  2
ASM_BASEFORO
 70
     0
  0
APPID
  2
ASM_BASETRAVI
 70
     0
  0
APPID
  2
ASM_BASETRAVI1
 70
     0
  0
APPID
  2
ASM_GRUPPI
 70
     0
  0
APPID
  2
ASM_CADM_ALBERO
 70
     0
  0
APPID
  2
ASM_GOLE
 70
     0
  0
APPID
  2
GENIUS_GEFINERT_13
 70
     0
  0
APPID
  2
GENIUS_GENOBJ-F-INER_13
 70
     0
  0
APPID
  2
GENIUS_GENDTOL_13
 70
     0
  0
APPID
  2
AD_SKETCHDIM
 70
     0
  0
APPID
  2
GENIUS_GENSCREG_15
 70
     0
  0
APPID
  2
GENIUS_GENOBJ-N-SDF_13
 70
     0
  0
APPID
  2
GENIUS_GENOBJ-N-CEN_13
 70
     0
  0
APPID
  2
ACAD_MLEADERVER
 70
     0
  0
APPID
  2
ACAD_EXEMPT_FROM_CAD_STANDARDS
 70
     0
  0
APPID
  2
ACAD_NAV_VCDISPLAY
 70
     0
  0
APPID
  2
ACAD_DSTYLE_DIMJAG
 70
     0
  0
APPID
  2
ACAD_DSTYLE_DIMTALN
 70
     0
  0
ENDTAB
  0
TABLE
  2
DIMSTYLE
 70
     2
  0
DIMSTYLE
  2
ITM
 70
     0
  3

  4

  5

  6

  7

 40
0.0
 41
2.5
 42
1.0
 43
6.0
 44
1.0
 45
0.0
 46
0.0
 47
495.0
 48
0.0
140
3.0
141
0.0
142
0.0
143
25.399999999999999
144
1.0
145
0.0
146
1.0
147
1.0
 71
     0
 72
     0
 73
     0
 74
     0
 75
     0
 76
     0
 77
     3
 78
     8
170
     0
171
     2
172
     1
173
     0
174
     0
175
     0
176
     0
177
     0
178
     0
  0
DIMSTYLE
  2
STANDARD
 70
     0
  3

  4

  5

  6

  7

 40
1.0
 41
0.18
 42
0.0625
 43
0.38
 44
0.18
 45
0.0
 46
0.0
 47
0.0
 48
0.0
140
0.18
141
0.09
142
0.0
143
25.399999999999999
144
1.0
145
0.0
146
1.0
147
0.09
 71
     0
 72
     0
 73
     1
 74
     1
 75
     0
 76
     0
 77
     0
 78
     0
170
     0
171
     2
172
     0
173
     0
174
     0
175
     0
176
     0
177
     0
178
     0
  0
ENDTAB
  0
ENDSEC
  0
SECTION
  2
BLOCKS
  0
BLOCK
  8
0
  2
$MODEL_SPACE
 70
     0
 10
0.0
 20
0.0
 30
0.0
  3
$MODEL_SPACE
  1

  0
ENDBLK
  5
21
  8
0
  0
BLOCK
 67
     1
  8
0
  2
$PAPER_SPACE
 70
     0
 10
0.0
 20
0.0
 30
0.0
  3
$PAPER_SPACE
  1

  0
ENDBLK
  5
76
 67
     1
  8
0
  0
BLOCK
  8
0
  2
ARROW1
 70
     0
 10
0.0
 20
0.0
 30
0.0
  3
ARROW1
  1

  0
SOLID
  5
18C
  8
WAKU
  6
CONTINUOUS
 62
     4
 10
-1.0
 20
0.1666666666666714
 30
0.0
 11
-1.0
 21
-0.1666666666666714
 31
0.0
 12
0.0
 22
0.0
 32
0.0
 13
0.0
 23
0.0
 33
0.0
  0
ENDBLK
  5
3534A
  8
0
  0
ENDSEC
  0
SECTION
  2
ENTITIES
  0
TEXT
  5
58002
  8
0
 62
     3
 10
0.0
 20
0.0
 30
0.0
 40
10.0
  1
EFAL63-SUS
  7
STANDARD1
  0
LINE
  5
58AC3
  8
1
 10
95.0
 20
137.5
 30
0.0
 11
177.5
 21
137.5
 31
0.0
  0
LINE
  5
58AC4
  8
1
 10
109.5
 20
123.0
 30
0.0
 11
109.5
 21
152.0
 31
0.0
  0
ARC
  5
58AC5
  8
0
 10
109.5
 20
137.5
 30
0.0
 40
9.4999999999999982
 50
60.000000000000462
 51
299.99999999999937
  0
ARC
  5
58AC6
  8
0
 10
118.9174041009186
 20
152.24999999999989
 30
0.0
 40
7.999999999999905
 50
247.32466632865589
 51
270.0
  0
LINE
  5
58AC7
  8
0
 10
165.75
 20
130.75
 30
0.0
 11
118.9174041009187
 21
130.75
 31
0.0
  0
LINE
  5
58AC8
  8
0
 10
118.9174041009186
 20
144.25
 30
0.0
 11
165.75
 21
144.25
 31
0.0
  0
ARC
  5
58AC9
  8
0
 10
165.75
 20
137.5
 30
0.0
 40
6.7500000000000018
 50
31.586338096528571
 51
90.0
  0
ARC
  5
58ACA
  8
0
 10
165.75
 20
137.5
 30
0.0
 40
6.7500000000000231
 50
270.0
 51
328.41366190347151
  0
ARC
  5
58ACB
  8
0
 10
118.9174041009187
 20
122.7499999999999
 30
0.0
 40
8.0000000000000355
 50
90.0
 51
112.67533367134401
  0
POLYLINE
  5
58ACC
  8
0
 66
     1
 10
0.0
 20
0.0
 30
0.0
 70
     8
  0
VERTEX
  5
58ACD
  8
0
 10
171.5
 20
133.96446609406729
 30
0.0
 70
    32
  0
VERTEX
  5
58ACE
  8
0
 10
171.66860238916991
 20
134.25459621019019
 30
0.0
 70
    32
  0
VERTEX
  5
58ACF
  8
0
 10
171.82294140251389
 20
134.55349652611241
 30
0.0
 70
    32
  0
VERTEX
  5
58AD0
  8
0
 10
171.96368065659311
 20
134.8632078773858
 30
0.0
 70
    32
  0
VERTEX
  5
58AD1
  8
0
 10
172.08807201311879
 20
135.17807339553559
 30
0.0
 70
    32
  0
VERTEX
  5
58AD2
  8
0
 10
172.2484919710968
 20
135.67459535949121
 30
0.0
 70
    32
  0
VERTEX
  5
58AD3
  8
0
 10
172.36952775047089
 20
136.17926067645951
 30
0.0
 70
    32
  0
VERTEX
  5
58AD4
  8
0
 10
172.4520489268445
 20
136.69685606384559
 30
0.0
 70
    32
  0
VERTEX
  5
58AD5
  8
0
 10
172.49414882028151
 20
137.2190076693295
 30
0.0
 70
    32
  0
VERTEX
  5
58AD6
  8
0
 10
172.49998258060751
 20
137.48466502372
 30
0.0
 70
    32
  0
VERTEX
  5
58AD7
  8
0
 10
172.5
 20
137.5
 30
0.0
 70
    32
  0
SEQEND
  5
58AD8
  8
0
  0
POLYLINE
  5
58AD9
  8
0
 66
     1
 10
0.0
 20
0.0
 30
0.0
 70
     8
  0
VERTEX
  5
58ADA
  8
0
 10
172.5
 20
137.5
 30
0.0
 70
    32
  0
VERTEX
  5
58ADB
  8
0
 10
172.49998258060751
 20
137.51533497627989
 30
0.0
 70
    32
  0
VERTEX
  5
58ADC
  8
0
 10
172.49414882028151
 20
137.7809923306705
 30
0.0
 70
    32
  0
VERTEX
  5
58ADD
  8
0
 10
172.4539254126106
 20
138.2873271633529
 30
0.0
 70
    32
  0
VERTEX
  5
58ADE
  8
0
 10
172.37464362008029
 20
138.79483470255039
 30
0.0
 70
    32
  0
VERTEX
  5
58ADF
  8
0
 10
172.2531501540202
 20
139.3087393605125
 30
0.0
 70
    32
  0
VERTEX
  5
58AE0
  8
0
 10
172.08807201311879
 20
139.82192660446441
 30
0.0
 70
    32
  0
VERTEX
  5
58AE1
  8
0
 10
171.9675179409806
 20
140.1277310847162
 30
0.0
 70
    32
  0
VERTEX
  5
58AE2
  8
0
 10
171.8302158859174
 20
140.43146290794149
 30
0.0
 70
    32
  0
VERTEX
  5
58AE3
  8
0
 10
171.6739628573724
 20
140.7356087625781
 30
0.0
 70
    32
  0
VERTEX
  5
58AE4
  8
0
 10
171.5
 20
141.03553390593271
 30
0.0
 70
    32
  0
SEQEND
  5
58AE5
  8
0
  0
POLYLINE
  5
58AE7
  8
0
 66
     1
 10
0.0
 20
0.0
 30
0.0
 70
     8
  0
VERTEX
  5
58AE8
  8
0
 10
115.8333333333333
 20
144.86836688120269
 30
0.0
 70
    32
  0
VERTEX
  5
58AE9
  8
0
 10
115.6498172329395
 20
144.94774856224399
 30
0.0
 70
    32
  0
VERTEX
  5
58AEA
  8
0
 10
115.5406221813535
 20
144.99760025119039
 30
0.0
 70
    32
  0
VERTEX
  5
58AEB
  8
0
 10
115.4230983994151
 20
145.053485033404
 30
0.0
 70
    32
  0
VERTEX
  5
58AEC
  8
0
 10
115.1762246978293
 20
145.1786792836204
 30
0.0
 70
    32
  0
VERTEX
  5
58AED
  8
0
 10
114.90519198259381
 20
145.32886180476311
 30
0.0
 70
    32
  0
VERTEX
  5
58AEE
  8
0
 10
114.61230508335581
 20
145.5071428571429
 30
0.0
 70
    32
  0
SEQEND
  5
58AEF
  8
0
  0
POLYLINE
  5
58AF0
  8
0
 66
     1
 10
0.0
 20
0.0
 30
0.0
 70
     8
  0
VERTEX
  5
58AF1
  8
0
 10
114.61230508335581
 20
145.5071428571429
 30
0.0
 70
    32
  0
VERTEX
  5
58AF2
  8
0
 10
114.43397840488871
 20
145.6182422420184
 30
0.0
 70
    32
  0
VERTEX
  5
58AF3
  8
0
 10
114.25
 20
145.7272413359521
 30
0.0
 70
    32
  0
SEQEND
  5
58AF4
  8
0
  0
POLYLINE
  5
58AF6
  8
0
 66
     1
 10
0.0
 20
0.0
 30
0.0
 70
     8
  0
VERTEX
  5
58AF7
  8
0
 10
114.25
 20
129.27275866404781
 30
0.0
 70
    32
  0
VERTEX
  5
58AF8
  8
0
 10
114.4328037090735
 20
129.381043936087
 30
0.0
 70
    32
  0
VERTEX
  5
58AF9
  8
0
 10
114.61230508335581
 20
129.4928571428571
 30
0.0
 70
    32
  0
SEQEND
  5
58AFA
  8
0
  0
POLYLINE
  5
58AFB
  8
0
 66
     1
 10
0.0
 20
0.0
 30
0.0
 70
     8
  0
VERTEX
  5
58AFC
  8
0
 10
114.61230508335581
 20
129.4928571428571
 30
0.0
 70
    32
  0
VERTEX
  5
58AFD
  8
0
 10
114.91607331082599
 20
129.6774347278236
 30
0.0
 70
    32
  0
VERTEX
  5
58AFE
  8
0
 10
115.06850489624119
 20
129.76326332530681
 30
0.0
 70
    32
  0
VERTEX
  5
58AFF
  8
0
 10
115.2165133954492
 20
129.84248954783641
 30
0.0
 70
    32
  0
VERTEX
  5
58B00
  8
0
 10
115.3549784020843
 20
129.9130329024043
 30
0.0
 70
    32
  0
VERTEX
  5
58B01
  8
0
 10
115.48604301406139
 20
129.97673931255321
 30
0.0
 70
    32
  0
VERTEX
  5
58B02
  8
0
 10
115.612224605222
 20
130.03530975443479
 30
0.0
 70
    32
  0
VERTEX
  5
58B03
  8
0
 10
115.7269805408594
 20
130.08629317212839
 30
0.0
 70
    32
  0
VERTEX
  5
58B04
  8
0
 10
115.8333333333333
 20
130.13163311879731
 30
0.0
 70
    32
  0
SEQEND
  5
58B05
  8
0
  0
LINE
  5
58B06
  8
3
 10
115.8333333333333
 20
130.13163311879731
 30
0.0
 11
115.8333333333333
 21
144.86836688120269
 31
0.0
  0
CIRCLE
  5
58B09
  8
0
 10
109.5
 20
137.5
 30
0.0
 40
4.5238095238095193
  0
LINE
  5
58B10
  8
2
 10
107.0415
 20
63.780584363197299
 30
0.0
 11
107.0415
 21
50.541499999999992
 31
0.0
  0
LINE
  5
58B11
  8
2
 10
111.9585
 20
50.541499999999992
 30
0.0
 11
111.9585
 21
63.780584363197299
 31
0.0
  0
LINE
  5
58B12
  8
2
 10
109.5
 20
65.199999999999989
 30
0.0
 11
107.0415
 21
63.780584363197299
 31
0.0
  0
LINE
  5
58B13
  8
2
 10
111.9585
 20
63.780584363197299
 30
0.0
 11
109.5
 21
65.199999999999989
 31
0.0
  0
LINE
  5
58B14
  8
2
 10
111.9585
 20
63.780584363197299
 30
0.0
 11
107.0415
 21
63.780584363197299
 31
0.0
  0
LINE
  5
58B16
  8
2
 10
112.5
 20
50.0
 30
0.0
 11
111.9585
 21
50.541499999999992
 31
0.0
  0
LINE
  5
58B17
  8
2
 10
111.9585
 20
50.541499999999992
 30
0.0
 11
107.0415
 21
50.541499999999992
 31
0.0
  0
LINE
  5
58B22
  8
2
 10
112.5
 20
50.0
 30
0.0
 11
112.5
 21
62.0
 31
0.0
  0
LINE
  5
58B23
  8
2
 10
112.5
 20
62.0
 30
0.0
 11
106.5
 21
62.0
 31
0.0
  0
LINE
  5
58B24
  8
2
 10
106.5
 20
50.0
 30
0.0
 11
106.5
 21
62.0
 31
0.0
  0
LINE
  5
58B25
  8
1
 10
109.5
 20
92.5
 30
0.0
 11
109.5
 21
45.0
 31
0.0
  0
LINE
  5
58B27
  8
3
 10
116.0133507042045
 20
56.399999999999999
 30
0.0
 11
116.0133507042045
 21
50.199999999999989
 31
0.0
  0
LINE
  5
58B28
  8
0
 10
113.0238095238095
 20
87.499999999999986
 30
0.0
 11
105.9761904761905
 21
87.499999999999986
 31
0.0
  0
ARC
  5
58B29
  8
0
 10
105.9761904761905
 20
86.499999999999986
 30
0.0
 40
1.0
 50
90.0
 51
180.0
  0
ARC
  5
58B2A
  8
0
 10
113.0238095238095
 20
86.499999999999986
 30
0.0
 40
1.000000000000002
 50
0.0
 51
90.0
  0
LINE
  5
58B2B
  8
0
 10
104.9761904761905
 20
86.499999999999986
 30
0.0
 11
104.9761904761904
 21
85.499999999999986
 31
0.0
  0
LINE
  5
58B2C
  8
0
 10
114.0238095238095
 20
85.499999999999986
 30
0.0
 11
114.0238095238095
 21
86.499999999999986
 31
0.0
  0
LINE
  5
58B2F
  8
3
 10
114.8608620574802
 20
56.399999999999999
 30
0.0
 11
114.8608620574802
 21
50.199999999999989
 31
0.0
  0
LINE
  5
58B30
  8
0
 10
103.5
 20
50.199999999999989
 30
0.0
 11
103.5
 21
50.0
 31
0.0
  0
LINE
  5
58B31
  8
0
 10
115.5
 20
50.0
 30
0.0
 11
115.5
 21
50.199999999999989
 31
0.0
  0
LINE
  5
58B32
  8
0
 10
115.5
 20
50.0
 30
0.0
 11
103.5
 21
50.0
 31
0.0
  0
LINE
  5
58B34
  8
3
 10
113.18361488124739
 20
56.399999999999999
 30
0.0
 11
113.18361488124739
 21
50.199999999999989
 31
0.0
  0
LINE
  5
58B35
  8
0
 10
168.5
 20
76.5
 30
0.0
 11
167.5
 21
76.5
 31
0.0
  0
ARC
  5
58B36
  8
0
 10
168.50000000000131
 20
80.499999999999929
 30
0.0
 40
3.9999999999986948
 50
351.53841900917467
 51
359.99759443401223
  0
ARC
  5
58B37
  8
0
 10
168.5
 20
80.5
 30
0.0
 40
4.0000000000000062
 50
270.0
 51
351.53841900917649
  0
LINE
  5
58B38
  8
0
 10
164.83333333333329
 20
79.166666666666686
 30
0.0
 11
167.5
 21
76.5
 31
0.0
  0
POLYLINE
  5
58B4B
  8
0
 66
     1
 10
0.0
 20
0.0
 30
0.0
 70
     8
  0
VERTEX
  5
58B4C
  8
0
 10
171.5
 20
86.5
 30
0.0
 70
    32
  0
VERTEX
  5
58B4D
  8
0
 10
171.66922263943269
 20
86.485619522472746
 30
0.0
 70
    32
  0
VERTEX
  5
58B4E
  8
0
 10
171.82294140251389
 20
86.446418961423717
 30
0.0
 70
    32
  0
VERTEX
  5
58B4F
  8
0
 10
172.08807201311879
 20
86.308808572770033
 30
0.0
 70
    32
  0
VERTEX
  5
58B50
  8
0
 10
172.2489995642996
 20
86.162629233379405
 30
0.0
 70
    32
  0
VERTEX
  5
58B51
  8
0
 10
172.36952775047089
 20
85.9938840867664
 30
0.0
 70
    32
  0
VERTEX
  5
58B52
  8
0
 10
172.45222274422571
 20
85.805424730814082
 30
0.0
 70
    32
  0
VERTEX
  5
58B53
  8
0
 10
172.49414882028151
 20
85.608019086891716
 30
0.0
 70
    32
  0
VERTEX
  5
58B54
  8
0
 10
172.49998258060751
 20
85.505902414977129
 30
0.0
 70
    32
  0
VERTEX
  5
58B55
  8
0
 10
172.5
 20
85.5
 30
0.0
 70
    32
  0
SEQEND
  5
58B56
  8
0
  0
LINE
  5
58B57
  8
0
 10
172.5
 20
80.5
 30
0.0
 11
172.5
 21
85.5
 31
0.0
  0
ARC
  5
58B58
  8
0
 10
153.39041503890331
 20
17.214591472151771
 30
0.0
 40
62.999999999998643
 50
79.535071757009334
 51
90.236026723686734
  0
POLYLINE
  5
58B5A
  8
3
 66
     1
 10
0.0
 20
0.0
 30
0.0
 70
     8
  0
VERTEX
  5
58B5B
  8
3
 10
118.9174041009187
 20
71.302163859698112
 30
0.0
 70
    32
  0
VERTEX
  5
58B5C
  8
3
 10
121.3677800034781
 20
72.482951055919756
 30
0.0
 70
    32
  0
VERTEX
  5
58B5D
  8
3
 10
123.83500466291299
 20
73.627696960357554
 30
0.0
 70
    32
  0
VERTEX
  5
58B5E
  8
3
 10
126.33539060013911
 20
74.710591596773071
 30
0.0
 70
    32
  0
VERTEX
  5
58B5F
  8
3
 10
128.86791941024461
 20
75.715681307014393
 30
0.0
 70
    32
  0
VERTEX
  5
58B60
  8
3
 10
130.87251038393859
 20
76.440484689596161
 30
0.0
 70
    32
  0
VERTEX
  5
58B61
  8
3
 10
132.89734509769559
 20
77.107962282087101
 30
0.0
 70
    32
  0
VERTEX
  5
58B62
  8
3
 10
134.94057739532849
 20
77.715081320731542
 30
0.0
 70
    32
  0
VERTEX
  5
58B63
  8
3
 10
137.01839713763289
 20
78.263696151084218
 30
0.0
 70
    32
  0
VERTEX
  5
58B64
  8
3
 10
139.11286914612009
 20
78.747140980811125
 30
0.0
 70
    32
  0
VERTEX
  5
58B65
  8
3
 10
141.22110188323521
 20
79.163677361768066
 30
0.0
 70
    32
  0
VERTEX
  5
58B66
  8
3
 10
143.18132229220311
 20
79.488142362069482
 30
0.0
 70
    32
  0
VERTEX
  5
58B67
  8
3
 10
145.15083531548541
 20
79.753704696661828
 30
0.0
 70
    32
  0
VERTEX
  5
58B68
  8
3
 10
147.12701794388761
 20
79.959578140894394
 30
0.0
 70
    32
  0
VERTEX
  5
58B69
  8
3
 10
149.12521997668171
 20
80.106139789087123
 30
0.0
 70
    32
  0
VERTEX
  5
58B6A
  8
3
 10
151.1274619701486
 20
80.191091968675025
 30
0.0
 70
    32
  0
VERTEX
  5
58B6B
  8
3
 10
152.86514102547281
 20
80.214591396738555
 30
0.0
 70
    32
  0
SEQEND
  5
58B6C
  8
3
  0
ARC
  5
58B6D
  8
0
 10
153.3904150389032
 20
17.214591472150509
 30
0.0
 40
62.999999999999901
 50
90.356876506260434
 51
121.5453710097996
  0
LINE
  5
58B6E
  8
0
 10
152.99801136261121
 20
80.213369391684964
 30
0.0
 11
153.13089083550199
 21
80.214056923754413
 31
0.0
  0
LINE
  5
58B70
  8
3
 10
112.19791819817389
 20
56.399999999999999
 30
0.0
 11
112.19791819817389
 21
50.199999999999989
 31
0.0
  0
LINE
  5
58B72
  8
3
 10
111.1457898151841
 20
56.399999999999999
 30
0.0
 11
111.1457898151841
 21
50.199999999999989
 31
0.0
  0
LINE
  5
58B73
  8
3
 10
110.0531366248813
 20
56.399999999999999
 30
0.0
 11
110.0531366248813
 21
50.199999999999989
 31
0.0
  0
LINE
  5
58B75
  8
0
 10
117.0
 20
50.199999999999989
 30
0.0
 11
102.0
 21
50.199999999999989
 31
0.0
  0
LINE
  5
58B8E
  8
3
 10
115.5111131586963
 20
56.399999999999999
 30
0.0
 11
115.5111131586963
 21
50.199999999999989
 31
0.0
  0
LINE
  5
58B91
  8
3
 10
116.5282672028185
 20
56.399999999999999
 30
0.0
 11
116.5282672028185
 21
50.199999999999989
 31
0.0
  0
LINE
  5
58B92
  8
0
 10
102.0
 20
56.399999999999999
 30
0.0
 11
116.99034828668501
 21
56.399999999999999
 31
0.0
  0
LINE
  5
58B94
  8
0
 10
102.0
 20
58.0
 30
0.0
 11
102.0
 21
50.199999999999989
 31
0.0
  0
LINE
  5
58B95
  8
0
 10
117.0
 20
50.199999999999989
 30
0.0
 11
117.0
 21
58.0
 31
0.0
  0
POLYLINE
  5
58B96
  8
0
 66
     1
 10
0.0
 20
0.0
 30
0.0
 70
     8
  0
VERTEX
  5
58B97
  8
0
 10
114.61230508335581
 20
85.561482767491725
 30
0.0
 70
    32
  0
VERTEX
  5
58B98
  8
0
 10
114.91607331082599
 20
85.669196933949976
 30
0.0
 70
    32
  0
VERTEX
  5
58B99
  8
0
 10
115.2165133954492
 20
85.836254230181737
 30
0.0
 70
    32
  0
VERTEX
  5
58B9A
  8
0
 10
115.48604301406139
 20
86.054348154824709
 30
0.0
 70
    32
  0
VERTEX
  5
58B9B
  8
0
 10
115.7269805408594
 20
86.333922606680517
 30
0.0
 70
    32
  0
VERTEX
  5
58B9C
  8
0
 10
115.8333333333333
 20
86.5
 30
0.0
 70
    32
  0
SEQEND
  5
58B9D
  8
0
  0
LINE
  5
58B9E
  8
3
 10
118.06096354800469
 20
70.904838562875852
 30
0.0
 11
118.9174041009187
 21
71.302163859698112
 31
0.0
  0
LINE
  5
58BA0
  8
0
 10
171.5
 20
86.5
 30
0.0
 11
115.8333333333333
 21
86.5
 31
0.0
  0
POLYLINE
  5
58BA1
  8
3
 66
     1
 10
0.0
 20
0.0
 30
0.0
 70
     8
  0
VERTEX
  5
58BA2
  8
3
 10
114.61230508335581
 20
68.348160129984123
 30
0.0
 70
    32
  0
VERTEX
  5
58BA3
  8
3
 10
114.62085186860971
 20
68.356584657899901
 30
0.0
 70
    32
  0
VERTEX
  5
58BA4
  8
3
 10
115.24756757198151
 20
68.953411061475265
 30
0.0
 70
    32
  0
VERTEX
  5
58BA5
  8
3
 10
115.9158442545245
 20
69.534623298866052
 30
0.0
 70
    32
  0
VERTEX
  5
58BA6
  8
3
 10
116.4028456061082
 20
69.916232000300724
 30
0.0
 70
    32
  0
VERTEX
  5
58BA7
  8
3
 10
116.9162250048775
 20
70.275710144530819
 30
0.0
 70
    32
  0
VERTEX
  5
58BA8
  8
3
 10
117.4567858402023
 20
70.603456319400664
 30
0.0
 70
    32
  0
VERTEX
  5
58BA9
  8
3
 10
118.06096354800469
 20
70.904838562875852
 30
0.0
 70
    32
  0
SEQEND
  5
58BAA
  8
3
  0
ARC
  5
58BAB
  8
0
 10
121.9999999999999
 20
68.348160129984166
 30
0.0
 40
2.999999999999984
 50
121.54537100979709
 51
179.99999914622629
  0
LINE
  5
58BAD
  8
0
 10
114.25
 20
85.5
 30
0.0
 11
100.0
 21
85.5
 31
0.0
  0
LINE
  5
58BAF
  8
0
 10
114.25
 20
85.5
 30
0.0
 11
114.61230508335581
 21
85.561482767491725
 31
0.0
  0
LINE
  5
58BB0
  8
0
 10
100.0
 20
85.5
 30
0.0
 11
100.0
 21
58.0
 31
0.0
  0
LINE
  5
58BB1
  8
0
 10
119.0
 20
58.0
 30
0.0
 11
119.0
 21
68.348160129984123
 31
0.0
  0
LINE
  5
58BB3
  8
0
 10
119.0
 20
58.0
 30
0.0
 11
100.0
 21
58.0
 31
0.0
  0
LINE
  5
58BD4
  8
1
 10
222.5
 20
92.5
 30
0.0
 11
222.5
 21
45.0
 31
0.0
  0
LINE
  5
58BD7
  8
0
 10
226.02380952380949
 20
87.499999999999986
 30
0.0
 11
218.9761904764635
 21
87.499999999999986
 31
0.0
  0
ARC
  5
58BD8
  8
0
 10
218.97619047619051
 20
86.499999999999986
 30
0.0
 40
1.0
 50
90.0
 51
180.0
  0
ARC
  5
58BD9
  8
0
 10
226.02380952380949
 20
86.499999999999986
 30
0.0
 40
1.000000000000002
 50
0.0
 51
90.0
  0
LINE
  5
58BDF
  8
0
 10
228.5
 20
50.0
 30
0.0
 11
216.5
 21
50.0
 31
0.0
  0
LINE
  5
58BE0
  8
0
 10
216.5
 20
50.199999999999989
 30
0.0
 11
216.5
 21
50.0
 31
0.0
  0
LINE
  5
58BE1
  8
0
 10
228.5
 20
50.0
 30
0.0
 11
228.5
 21
50.199999999999989
 31
0.0
  0
LINE
  5
58BEA
  8
0
 10
230.0
 20
50.199999999999989
 30
0.0
 11
215.0
 21
50.199999999999989
 31
0.0
  0
LINE
  5
58C09
  8
0
 10
215.0
 20
58.0
 30
0.0
 11
215.0
 21
50.199999999999989
 31
0.0
  0
LINE
  5
58C0A
  8
0
 10
230.0
 20
50.199999999999989
 30
0.0
 11
230.0
 21
58.0
 31
0.0
  0
POLYLINE
  5
58C0B
  8
0
 66
     1
 10
0.0
 20
0.0
 30
0.0
 70
     8
  0
VERTEX
  5
58C0C
  8
0
 10
229.86836688120269
 20
86.5
 30
0.0
 70
    32
  0
VERTEX
  5
58C0D
  8
0
 10
229.94774856224399
 20
86.232578349199571
 30
0.0
 70
    32
  0
VERTEX
  5
58C0E
  8
0
 10
229.99760025119039
 20
86.109059349357196
 30
0.0
 70
    32
  0
VERTEX
  5
58C0F
  8
0
 10
230.053485033404
 20
85.996216224857562
 30
0.0
 70
    32
  0
VERTEX
  5
58C10
  8
0
 10
230.1786792836204
 20
85.809773991713541
 30
0.0
 70
    32
  0
VERTEX
  5
58C11
  8
0
 10
230.32886180476311
 20
85.664357896040144
 30
0.0
 70
    32
  0
VERTEX
  5
58C12
  8
0
 10
230.5071428571429
 20
85.561482767491725
 30
0.0
 70
    32
  0
SEQEND
  5
58C13
  8
0
  0
LINE
  5
58C14
  8
0
 10
229.86836688120269
 20
86.5
 30
0.0
 11
215.13163311879731
 21
86.5
 31
0.0
  0
POLYLINE
  5
58C15
  8
0
 66
     1
 10
0.0
 20
0.0
 30
0.0
 70
     8
  0
VERTEX
  5
58C16
  8
0
 10
214.4928571428571
 20
85.561482767491725
 30
0.0
 70
    32
  0
VERTEX
  5
58C17
  8
0
 10
214.6774347278236
 20
85.669196933949976
 30
0.0
 70
    32
  0
VERTEX
  5
58C18
  8
0
 10
214.76326332530681
 20
85.745506822421873
 30
0.0
 70
    32
  0
VERTEX
  5
58C19
  8
0
 10
214.84248954783649
 20
85.836254230181737
 30
0.0
 70
    32
  0
VERTEX
  5
58C1A
  8
0
 10
214.9130329024043
 20
85.938635757404143
 30
0.0
 70
    32
  0
VERTEX
  5
58C1B
  8
0
 10
214.97673931255321
 20
86.054348154824709
 30
0.0
 70
    32
  0
VERTEX
  5
58C1C
  8
0
 10
215.03530975443491
 20
86.187733470568958
 30
0.0
 70
    32
  0
VERTEX
  5
58C1D
  8
0
 10
215.08629317212851
 20
86.333922606680517
 30
0.0
 70
    32
  0
VERTEX
  5
58C1E
  8
0
 10
215.13163311879731
 20
86.5
 30
0.0
 70
    32
  0
SEQEND
  5
58C1F
  8
0
  0
POLYLINE
  5
58C21
  8
0
 66
     1
 10
0.0
 20
0.0
 30
0.0
 70
     8
  0
VERTEX
  5
58C22
  8
0
 10
214.2727586640479
 20
85.5
 30
0.0
 70
    32
  0
VERTEX
  5
58C23
  8
0
 10
214.38104393608691
 20
85.522442471175566
 30
0.0
 70
    32
  0
VERTEX
  5
58C24
  8
0
 10
214.4928571428571
 20
85.561482767491725
 30
0.0
 70
    32
  0
SEQEND
  5
58C25
  8
0
  0
LINE
  5
58C26
  8
0
 10
214.2727586640479
 20
85.5
 30
0.0
 11
213.0
 21
85.5
 31
0.0
  0
POLYLINE
  5
58C27
  8
0
 66
     1
 10
0.0
 20
0.0
 30
0.0
 70
     8
  0
VERTEX
  5
58C28
  8
0
 10
230.5071428571429
 20
85.561482767491725
 30
0.0
 70
    32
  0
VERTEX
  5
58C29
  8
0
 10
230.6182422420184
 20
85.522642320466673
 30
0.0
 70
    32
  0
VERTEX
  5
58C2A
  8
0
 10
230.7272413359521
 20
85.5
 30
0.0
 70
    32
  0
SEQEND
  5
58C2B
  8
0
  0
LINE
  5
58C2D
  8
0
 10
232.0
 20
58.0
 30
0.0
 11
213.0
 21
58.0
 31
0.0
  0
LINE
  5
58C2E
  8
0
 10
213.0
 20
85.5
 30
0.0
 11
213.0
 21
58.0
 31
0.0
  0
LINE
  5
58C2F
  8
0
 10
232.0
 20
58.0
 30
0.0
 11
232.0
 21
85.5
 31
0.0
  0
LINE
  5
58C30
  8
0
 10
232.0
 20
85.5
 30
0.0
 11
230.7272413359521
 21
85.5
 31
0.0
  0
POLYLINE
  5
58C31
  8
0
 66
     1
 10
0.0
 20
0.0
 30
0.0
 70
     8
  0
VERTEX
  5
58C32
  8
0
 10
214.4928571428571
 20
68.348160129984123
 30
0.0
 70
    32
  0
VERTEX
  5
58C33
  8
0
 10
214.49830637382749
 20
68.356584657899901
 30
0.0
 70
    32
  0
VERTEX
  5
58C34
  8
0
 10
214.74451523457381
 20
68.755333463591185
 30
0.0
 70
    32
  0
VERTEX
  5
58C35
  8
0
 10
214.9670440033828
 20
69.149753752005466
 30
0.0
 70
    32
  0
VERTEX
  5
58C36
  8
0
 10
215.16556730726069
 20
69.534623298866052
 30
0.0
 70
    32
  0
VERTEX
  5
58C37
  8
0
 10
215.30235023720999
 20
69.822529509517665
 30
0.0
 70
    32
  0
VERTEX
  5
58C38
  8
0
 10
215.42390067524559
 20
70.099337480326085
 30
0.0
 70
    32
  0
VERTEX
  5
58C39
  8
0
 10
215.52877561285811
 20
70.360996615538113
 30
0.0
 70
    32
  0
VERTEX
  5
58C3A
  8
0
 10
215.6155320415381
 20
70.603456319400664
 30
0.0
 70
    32
  0
VERTEX
  5
58C3B
  8
0
 10
215.66506101426421
 20
70.760922174136866
 30
0.0
 70
    32
  0
VERTEX
  5
58C3C
  8
0
 10
215.7040247409299
 20
70.904838562875852
 30
0.0
 70
    32
  0
SEQEND
  5
58C3D
  8
0
  0
POLYLINE
  5
58C3F
  8
0
 66
     1
 10
0.0
 20
0.0
 30
0.0
 70
     8
  0
VERTEX
  5
58C40
  8
0
 10
229.2959752590701
 20
70.904838562875852
 30
0.0
 70
    32
  0
VERTEX
  5
58C41
  8
0
 10
229.36628158007929
 20
70.659067157701884
 30
0.0
 70
    32
  0
VERTEX
  5
58C42
  8
0
 10
229.46424659940499
 20
70.379483288317886
 30
0.0
 70
    32
  0
VERTEX
  5
58C43
  8
0
 10
229.59026077140371
 20
70.065889709997833
 30
0.0
 70
    32
  0
VERTEX
  5
58C44
  8
0
 10
229.73977470507199
 20
69.731548738628362
 30
0.0
 70
    32
  0
VERTEX
  5
58C45
  8
0
 10
229.9016215228657
 20
69.400448030297611
 30
0.0
 70
    32
  0
VERTEX
  5
58C46
  8
0
 10
230.0821396821685
 20
69.059624836586494
 30
0.0
 70
    32
  0
VERTEX
  5
58C47
  8
0
 10
230.28260032126531
 20
68.709674585246205
 30
0.0
 70
    32
  0
VERTEX
  5
58C48
  8
0
 10
230.5016936261726
 20
68.356584657900143
 30
0.0
 70
    32
  0
VERTEX
  5
58C49
  8
0
 10
230.5071428571429
 20
68.348160129984123
 30
0.0
 70
    32
  0
SEQEND
  5
58C4A
  8
0
  0
LINE
  5
58C4B
  8
0
 10
215.75
 20
71.302163859698112
 30
0.0
 11
215.75
 21
78.246222327014664
 31
0.0
  0
POLYLINE
  5
58C4D
  8
0
 66
     1
 10
0.0
 20
0.0
 30
0.0
 70
     8
  0
VERTEX
  5
58C4E
  8
0
 10
229.25
 20
71.302163859700244
 30
0.0
 70
    32
  0
VERTEX
  5
58C4F
  8
0
 10
229.26136557255029
 20
71.099517133682156
 30
0.0
 70
    32
  0
VERTEX
  5
58C50
  8
0
 10
229.2959752590701
 20
70.904838562875852
 30
0.0
 70
    32
  0
SEQEND
  5
58C51
  8
0
  0
POLYLINE
  5
58C52
  8
0
 66
     1
 10
0.0
 20
0.0
 30
0.0
 70
     8
  0
VERTEX
  5
58C53
  8
0
 10
215.7040247409299
 20
70.904838562875852
 30
0.0
 70
    32
  0
VERTEX
  5
58C54
  8
0
 10
215.7385711233712
 20
71.098966648144454
 30
0.0
 70
    32
  0
VERTEX
  5
58C55
  8
0
 10
215.75
 20
71.302163859698112
 30
0.0
 70
    32
  0
SEQEND
  5
58C56
  8
0
  0
LINE
  5
58C57
  8
0
 10
229.25
 20
78.247999695491728
 30
0.0
 11
229.25
 21
71.302163859700244
 31
0.0
  0
POLYLINE
  5
58C58
  8
3
 66
     1
 10
0.0
 20
0.0
 30
0.0
 70
     8
  0
VERTEX
  5
58C59
  8
3
 10
216.1957408087375
 20
76.5
 30
0.0
 70
    32
  0
VERTEX
  5
58C5A
  8
3
 10
216.3241391119854
 20
76.511029980960103
 30
0.0
 70
    32
  0
VERTEX
  5
58C5B
  8
3
 10
216.46734327528819
 20
76.542906515480354
 30
0.0
 70
    32
  0
VERTEX
  5
58C5C
  8
3
 10
216.6283279114862
 20
76.595359056153029
 30
0.0
 70
    32
  0
VERTEX
  5
58C5D
  8
3
 10
216.8025941321832
 20
76.665937243745248
 30
0.0
 70
    32
  0
VERTEX
  5
58C5E
  8
3
 10
217.05248214968111
 20
76.784538568445683
 30
0.0
 70
    32
  0
VERTEX
  5
58C5F
  8
3
 10
217.32113036233471
 20
76.927959866623866
 30
0.0
 70
    32
  0
VERTEX
  5
58C60
  8
3
 10
217.61390483168589
 20
77.097294513758555
 30
0.0
 70
    32
  0
VERTEX
  5
58C61
  8
3
 10
217.9216429956038
 20
77.285793715014506
 30
0.0
 70
    32
  0
VERTEX
  5
58C62
  8
3
 10
218.34900283262439
 20
77.560212777330207
 30
0.0
 70
    32
  0
VERTEX
  5
58C63
  8
3
 10
218.79507685440419
 20
77.857807117753765
 30
0.0
 70
    32
  0
VERTEX
  5
58C64
  8
3
 10
219.26889338369099
 20
78.182591628623925
 30
0.0
 70
    32
  0
VERTEX
  5
58C65
  8
3
 10
219.75574979985231
 20
78.522990958027492
 30
0.0
 70
    32
  0
VERTEX
  5
58C66
  8
3
 10
220.1919803833419
 20
78.83211918784724
 30
0.0
 70
    32
  0
VERTEX
  5
58C67
  8
3
 10
220.63502320198501
 20
79.149031981722374
 30
0.0
 70
    32
  0
VERTEX
  5
58C68
  8
3
 10
221.08268517275221
 20
79.471463776644896
 30
0.0
 70
    32
  0
VERTEX
  5
58C69
  8
3
 10
221.54816017036421
 20
79.808350808844409
 30
0.0
 70
    32
  0
VERTEX
  5
58C6A
  8
3
 10
222.01659053998441
 20
80.148460015637909
 30
0.0
 70
    32
  0
VERTEX
  5
58C6B
  8
3
 10
222.48593716414729
 20
80.489770794372063
 30
0.0
 70
    32
  0
VERTEX
  5
58C6C
  8
3
 10
222.5
 20
80.5
 30
0.0
 70
    32
  0
SEQEND
  5
58C6D
  8
3
  0
POLYLINE
  5
58C6E
  8
3
 66
     1
 10
0.0
 20
0.0
 30
0.0
 70
     8
  0
VERTEX
  5
58C6F
  8
3
 10
222.5
 20
80.5
 30
0.0
 70
    32
  0
VERTEX
  5
58C70
  8
3
 10
222.51406283585271
 20
80.489770794372063
 30
0.0
 70
    32
  0
VERTEX
  5
58C71
  8
3
 10
222.96945082532031
 20
80.158606197784636
 30
0.0
 70
    32
  0
VERTEX
  5
58C72
  8
3
 10
223.42400128038611
 20
79.828539420981087
 30
0.0
 70
    32
  0
VERTEX
  5
58C73
  8
3
 10
223.8758546109589
 20
79.501412413471542
 30
0.0
 70
    32
  0
VERTEX
  5
58C74
  8
3
 10
224.3375926725912
 20
79.16869694364965
 30
0.0
 70
    32
  0
VERTEX
  5
58C75
  8
3
 10
224.79452227085659
 20
78.84173300230475
 30
0.0
 70
    32
  0
VERTEX
  5
58C76
  8
3
 10
225.2442502001476
 20
78.522990958027492
 30
0.0
 70
    32
  0
VERTEX
  5
58C77
  8
3
 10
225.71905778625319
 20
78.190944683509713
 30
0.0
 70
    32
  0
VERTEX
  5
58C78
  8
3
 10
226.1815415218764
 20
77.87364910911532
 30
0.0
 70
    32
  0
VERTEX
  5
58C79
  8
3
 10
226.63974621444919
 20
77.567593807807725
 30
0.0
 70
    32
  0
VERTEX
  5
58C7A
  8
3
 10
227.0783570043962
 20
77.285793715014506
 30
0.0
 70
    32
  0
VERTEX
  5
58C7B
  8
3
 10
227.37862894473889
 20
77.101754719969733
 30
0.0
 70
    32
  0
VERTEX
  5
58C7C
  8
3
 10
227.6647231814076
 20
76.935865758297496
 30
0.0
 70
    32
  0
VERTEX
  5
58C7D
  8
3
 10
227.94089570706279
 20
76.787899681779663
 30
0.0
 70
    32
  0
VERTEX
  5
58C7E
  8
3
 10
228.1974058678168
 20
76.665937243745248
 30
0.0
 70
    32
  0
VERTEX
  5
58C7F
  8
3
 10
228.36780388727021
 20
76.596787349143909
 30
0.0
 70
    32
  0
VERTEX
  5
58C80
  8
3
 10
228.5255504027613
 20
76.544896960581525
 30
0.0
 70
    32
  0
VERTEX
  5
58C81
  8
3
 10
228.67264804870291
 20
76.511550018569594
 30
0.0
 70
    32
  0
VERTEX
  5
58C82
  8
3
 10
228.8042591912625
 20
76.5
 30
0.0
 70
    32
  0
SEQEND
  5
58C83
  8
3
  0
POLYLINE
  5
58C84
  8
0
 66
     1
 10
0.0
 20
0.0
 30
0.0
 70
     8
  0
VERTEX
  5
58C85
  8
0
 10
229.01920240520261
 20
76.5
 30
0.0
 70
    32
  0
VERTEX
  5
58C86
  8
0
 10
229.1469174216582
 20
77.07484520608719
 30
0.0
 70
    32
  0
VERTEX
  5
58C87
  8
0
 10
229.22404538301649
 20
77.658634049733934
 30
0.0
 70
    32
  0
VERTEX
  5
58C88
  8
0
 10
229.2499992989205
 20
78.246923545338689
 30
0.0
 70
    32
  0
VERTEX
  5
58C89
  8
0
 10
229.25
 20
78.25
 30
0.0
 70
    32
  0
SEQEND
  5
58C8A
  8
0
  0
LINE
  5
58C8B
  8
0
 10
229.25
 20
78.25
 30
0.0
 11
229.25
 21
86.5
 31
0.0
  0
LINE
  5
58C8C
  8
0
 10
215.75
 20
78.25
 30
0.0
 11
215.75
 21
86.5
 31
0.0
  0
POLYLINE
  5
58C8D
  8
0
 66
     1
 10
0.0
 20
0.0
 30
0.0
 70
     8
  0
VERTEX
  5
58C8E
  8
0
 10
215.75
 20
78.25
 30
0.0
 70
    32
  0
VERTEX
  5
58C8F
  8
0
 10
215.77568578788069
 20
77.661698736453303
 30
0.0
 70
    32
  0
VERTEX
  5
58C90
  8
0
 10
215.85254766716761
 20
77.077874800748219
 30
0.0
 70
    32
  0
VERTEX
  5
58C91
  8
0
 10
215.98000067254881
 20
76.502971445557989
 30
0.0
 70
    32
  0
VERTEX
  5
58C92
  8
0
 10
215.98079759479739
 20
76.5
 30
0.0
 70
    32
  0
SEQEND
  5
58C93
  8
0
  0
LINE
  5
58C94
  8
0
 10
215.98079759479739
 20
76.5
 30
0.0
 11
229.01920240520261
 21
76.5
 31
0.0
  0
POLYLINE
  5
58C95
  8
3
 66
     1
 10
0.0
 20
0.0
 30
0.0
 70
     8
  0
VERTEX
  5
58C96
  8
3
 10
218.96446609406729
 20
86.5
 30
0.0
 70
    32
  0
VERTEX
  5
58C97
  8
3
 10
219.2545962101903
 20
86.485684145335711
 30
0.0
 70
    32
  0
VERTEX
  5
58C98
  8
3
 10
219.55349652611241
 20
86.446418961423717
 30
0.0
 70
    32
  0
VERTEX
  5
58C99
  8
3
 10
219.8632078773858
 20
86.386002397685672
 30
0.0
 70
    32
  0
VERTEX
  5
58C9A
  8
3
 10
220.17807339553559
 20
86.308808572770033
 30
0.0
 70
    32
  0
VERTEX
  5
58C9B
  8
3
 10
220.67459535949121
 20
86.163143852577775
 30
0.0
 70
    32
  0
VERTEX
  5
58C9C
  8
3
 10
221.17926067645951
 20
85.9938840867664
 30
0.0
 70
    32
  0
VERTEX
  5
58C9D
  8
3
 10
221.69685606384559
 20
85.80594581365682
 30
0.0
 70
    32
  0
VERTEX
  5
58C9E
  8
3
 10
222.2190076693295
 20
85.608019086891716
 30
0.0
 70
    32
  0
VERTEX
  5
58C9F
  8
3
 10
222.48466502372
 20
85.505902414977129
 30
0.0
 70
    32
  0
VERTEX
  5
58CA0
  8
3
 10
222.5
 20
85.5
 30
0.0
 70
    32
  0
SEQEND
  5
58CA1
  8
3
  0
POLYLINE
  5
58CA2
  8
3
 66
     1
 10
0.0
 20
0.0
 30
0.0
 70
     8
  0
VERTEX
  5
58CA3
  8
3
 10
222.5
 20
85.5
 30
0.0
 70
    32
  0
VERTEX
  5
58CA4
  8
3
 10
222.51533497628
 20
85.505902414977129
 30
0.0
 70
    32
  0
VERTEX
  5
58CA5
  8
3
 10
222.7809923306705
 20
85.608019086891716
 30
0.0
 70
    32
  0
VERTEX
  5
58CA6
  8
3
 10
223.2873271633529
 20
85.800043842089224
 30
0.0
 70
    32
  0
VERTEX
  5
58CA7
  8
3
 10
223.79483470255039
 20
85.984766477649586
 30
0.0
 70
    32
  0
VERTEX
  5
58CA8
  8
3
 10
224.3087393605125
 20
86.157848649386324
 30
0.0
 70
    32
  0
VERTEX
  5
58CA9
  8
3
 10
224.82192660446441
 20
86.308808572770033
 30
0.0
 70
    32
  0
VERTEX
  5
58CAA
  8
3
 10
225.1277310847162
 20
86.383983582913856
 30
0.0
 70
    32
  0
VERTEX
  5
58CAB
  8
3
 10
225.43146290794149
 20
86.443905434186988
 30
0.0
 70
    32
  0
VERTEX
  5
58CAC
  8
3
 10
225.7356087625781
 20
86.484752214648381
 30
0.0
 70
    32
  0
VERTEX
  5
58CAD
  8
3
 10
226.03553390593271
 20
86.5
 30
0.0
 70
    32
  0
SEQEND
  5
58CAE
  8
3
  0
LINE
  5
58D39
  8
3
 10
114.0786087407278
 20
50.199999999999989
 30
0.0
 11
114.0786087407278
 21
56.399999999999999
 31
0.0
  0
LINE
  5
58D4B
  8
3
 10
102.9866492957954
 20
56.399999999999999
 30
0.0
 11
102.9866492957954
 21
50.199999999999989
 31
0.0
  0
LINE
  5
58D4C
  8
3
 10
104.1391379425198
 20
56.399999999999999
 30
0.0
 11
104.1391379425198
 21
50.199999999999989
 31
0.0
  0
LINE
  5
58D4D
  8
3
 10
105.81638511875251
 20
56.399999999999999
 30
0.0
 11
105.81638511875251
 21
50.199999999999989
 31
0.0
  0
LINE
  5
58D4E
  8
3
 10
106.80208180182611
 20
56.399999999999999
 30
0.0
 11
106.80208180182611
 21
50.199999999999989
 31
0.0
  0
LINE
  5
58D4F
  8
3
 10
107.8542101848158
 20
56.399999999999999
 30
0.0
 11
107.8542101848158
 21
50.199999999999989
 31
0.0
  0
LINE
  5
58D50
  8
3
 10
108.9468633751187
 20
56.399999999999999
 30
0.0
 11
108.9468633751187
 21
50.199999999999989
 31
0.0
  0
LINE
  5
58D51
  8
3
 10
103.4888868413036
 20
56.399999999999999
 30
0.0
 11
103.4888868413036
 21
50.199999999999989
 31
0.0
  0
LINE
  5
58D52
  8
3
 10
102.4717327971814
 20
56.399999999999999
 30
0.0
 11
102.4717327971814
 21
50.199999999999989
 31
0.0
  0
LINE
  5
58D53
  8
3
 10
104.9213912592722
 20
50.199999999999989
 30
0.0
 11
104.9213912592722
 21
56.399999999999999
 31
0.0
  0
LINE
  5
58D97
  8
3
 10
229.01335070420461
 20
56.399999999999999
 30
0.0
 11
229.01335070420461
 21
50.199999999999989
 31
0.0
  0
LINE
  5
58D98
  8
3
 10
227.8608620574802
 20
56.399999999999999
 30
0.0
 11
227.8608620574802
 21
50.199999999999989
 31
0.0
  0
LINE
  5
58D99
  8
3
 10
226.18361488124739
 20
56.399999999999999
 30
0.0
 11
226.18361488124739
 21
50.199999999999989
 31
0.0
  0
LINE
  5
58D9A
  8
3
 10
225.19791819817391
 20
56.399999999999999
 30
0.0
 11
225.19791819817391
 21
50.199999999999989
 31
0.0
  0
LINE
  5
58D9B
  8
3
 10
224.14578981518409
 20
56.399999999999999
 30
0.0
 11
224.14578981518409
 21
50.199999999999989
 31
0.0
  0
LINE
  5
58D9C
  8
3
 10
223.05313662488129
 20
56.399999999999999
 30
0.0
 11
223.05313662488129
 21
50.199999999999989
 31
0.0
  0
LINE
  5
58D9D
  8
3
 10
228.5111131586963
 20
56.399999999999999
 30
0.0
 11
228.5111131586963
 21
50.199999999999989
 31
0.0
  0
LINE
  5
58D9E
  8
3
 10
229.52826720281851
 20
56.399999999999999
 30
0.0
 11
229.52826720281851
 21
50.199999999999989
 31
0.0
  0
LINE
  5
58D9F
  8
3
 10
227.07860874072779
 20
50.199999999999989
 30
0.0
 11
227.07860874072779
 21
56.399999999999999
 31
0.0
  0
LINE
  5
58DA0
  8
3
 10
215.98664929579539
 20
56.399999999999999
 30
0.0
 11
215.98664929579539
 21
50.199999999999989
 31
0.0
  0
LINE
  5
58DA1
  8
3
 10
217.1391379425198
 20
56.399999999999999
 30
0.0
 11
217.1391379425198
 21
50.199999999999989
 31
0.0
  0
LINE
  5
58DA2
  8
3
 10
218.81638511875261
 20
56.399999999999999
 30
0.0
 11
218.81638511875261
 21
50.199999999999989
 31
0.0
  0
LINE
  5
58DA3
  8
3
 10
219.80208180182609
 20
56.399999999999999
 30
0.0
 11
219.80208180182609
 21
50.199999999999989
 31
0.0
  0
LINE
  5
58DA4
  8
3
 10
220.85421018481591
 20
56.399999999999999
 30
0.0
 11
220.85421018481591
 21
50.199999999999989
 31
0.0
  0
LINE
  5
58DA5
  8
3
 10
221.94686337511871
 20
56.399999999999999
 30
0.0
 11
221.94686337511871
 21
50.199999999999989
 31
0.0
  0
LINE
  5
58DA6
  8
3
 10
216.48888684130361
 20
56.399999999999999
 30
0.0
 11
216.48888684130361
 21
50.199999999999989
 31
0.0
  0
LINE
  5
58DA7
  8
3
 10
215.47173279718149
 20
56.399999999999999
 30
0.0
 11
215.47173279718149
 21
50.199999999999989
 31
0.0
  0
LINE
  5
58DA8
  8
3
 10
217.92139125927221
 20
50.199999999999989
 30
0.0
 11
217.92139125927221
 21
56.399999999999999
 31
0.0
  0
LINE
  5
58DA9
  8
2
 10
106.5
 20
50.0
 30
0.0
 11
107.0415
 21
50.541499999999992
 31
0.0
  0
LINE
  5
58DAA
  8
2
 10
220.04150000000001
 20
63.780584363197299
 30
0.0
 11
220.04150000000001
 21
50.541499999999992
 31
0.0
  0
LINE
  5
58DAB
  8
2
 10
224.95849999999999
 20
50.541499999999992
 30
0.0
 11
224.95849999999999
 21
63.780584363197299
 31
0.0
  0
LINE
  5
58DAC
  8
2
 10
222.5
 20
65.199999999999989
 30
0.0
 11
220.04150000000001
 21
63.780584363197299
 31
0.0
  0
LINE
  5
58DAD
  8
2
 10
224.95849999999999
 20
63.780584363197299
 30
0.0
 11
222.5
 21
65.199999999999989
 31
0.0
  0
LINE
  5
58DAE
  8
2
 10
224.95849999999999
 20
63.780584363197299
 30
0.0
 11
220.04150000000001
 21
63.780584363197299
 31
0.0
  0
LINE
  5
58DAF
  8
2
 10
225.5
 20
50.0
 30
0.0
 11
224.95849999999999
 21
50.541499999999992
 31
0.0
  0
LINE
  5
58DB0
  8
2
 10
224.95849999999999
 20
50.541499999999992
 30
0.0
 11
220.04150000000001
 21
50.541499999999992
 31
0.0
  0
LINE
  5
58DB1
  8
2
 10
225.5
 20
50.0
 30
0.0
 11
225.5
 21
62.0
 31
0.0
  0
LINE
  5
58DB2
  8
2
 10
225.5
 20
62.0
 30
0.0
 11
219.5
 21
62.0
 31
0.0
  0
LINE
  5
58DB3
  8
2
 10
219.5
 20
50.0
 30
0.0
 11
219.5
 21
62.0
 31
0.0
  0
LINE
  5
58DB4
  8
2
 10
219.5
 20
50.0
 30
0.0
 11
220.04150000000001
 21
50.541499999999992
 31
0.0
  0
LINE
  5
58DB5
  8
0
 10
215.0
 20
56.399999999999999
 30
0.0
 11
229.99034828668499
 21
56.399999999999999
 31
0.0
  0
LINE
  5
58E11
  8
1
 10
50.0
 20
92.5
 30
0.0
 11
50.0
 21
45.0
 31
0.0
  0
LINE
  5
58E12
  8
0
 10
46.476190476190467
 20
87.499999999999986
 30
0.0
 11
53.523809523536549
 21
87.499999999999986
 31
0.0
  0
ARC
  5
58E13
  8
0
 10
53.523809523809518
 20
86.499999999999986
 30
0.0
 40
1.0
 50
0.0
 51
90.0
  0
ARC
  5
58E14
  8
0
 10
46.476190476190467
 20
86.499999999999986
 30
0.0
 40
1.000000000000002
 50
90.0
 51
180.0
  0
LINE
  5
58E15
  8
0
 10
54.523809523809518
 20
86.499999999999986
 30
0.0
 11
54.523809523809518
 21
85.5
 31
0.0
  0
LINE
  5
58E16
  8
0
 10
45.476190476190482
 20
85.5
 30
0.0
 11
45.476190476190482
 21
86.499999999999986
 31
0.0
  0
LINE
  5
58E17
  8
0
 10
44.0
 20
50.0
 30
0.0
 11
56.0
 21
50.0
 31
0.0
  0
LINE
  5
58E18
  8
0
 10
56.0
 20
50.199999999999989
 30
0.0
 11
56.0
 21
50.0
 31
0.0
  0
LINE
  5
58E19
  8
0
 10
44.0
 20
50.0
 30
0.0
 11
44.0
 21
50.199999999999989
 31
0.0
  0
LINE
  5
58E1A
  8
0
 10
42.5
 20
50.199999999999989
 30
0.0
 11
57.5
 21
50.199999999999989
 31
0.0
  0
LINE
  5
58E1B
  8
0
 10
57.5
 20
58.0
 30
0.0
 11
57.5
 21
50.199999999999989
 31
0.0
  0
LINE
  5
58E1C
  8
0
 10
42.5
 20
50.199999999999989
 30
0.0
 11
42.5
 21
58.0
 31
0.0
  0
POLYLINE
  5
58E1D
  8
0
 66
     1
 10
0.0
 20
0.0
 30
0.0
 70
     8
  0
VERTEX
  5
58E1E
  8
0
 10
42.631633118797311
 20
86.5
 30
0.0
 70
    32
  0
VERTEX
  5
58E1F
  8
0
 10
42.552251437756013
 20
86.232578349199571
 30
0.0
 70
    32
  0
VERTEX
  5
58E20
  8
0
 10
42.502399748809573
 20
86.109059349357196
 30
0.0
 70
    32
  0
VERTEX
  5
58E21
  8
0
 10
42.44651496659597
 20
85.996216224857562
 30
0.0
 70
    32
  0
VERTEX
  5
58E22
  8
0
 10
42.321320716379631
 20
85.809773991713541
 30
0.0
 70
    32
  0
VERTEX
  5
58E23
  8
0
 10
42.171138195236892
 20
85.664357896040144
 30
0.0
 70
    32
  0
VERTEX
  5
58E24
  8
0
 10
41.992857142857133
 20
85.561482767491725
 30
0.0
 70
    32
  0
SEQEND
  5
58E25
  8
0
  0
LINE
  5
58E26
  8
0
 10
42.631633118797311
 20
86.5
 30
0.0
 11
45.476190476190482
 21
86.5
 31
0.0
  0
POLYLINE
  5
58E27
  8
0
 66
     1
 10
0.0
 20
0.0
 30
0.0
 70
     8
  0
VERTEX
  5
58E28
  8
0
 10
58.007142857142867
 20
85.561482767491725
 30
0.0
 70
    32
  0
VERTEX
  5
58E29
  8
0
 10
57.822565272176398
 20
85.669196933949976
 30
0.0
 70
    32
  0
VERTEX
  5
58E2A
  8
0
 10
57.736736674693162
 20
85.745506822421873
 30
0.0
 70
    32
  0
VERTEX
  5
58E2B
  8
0
 10
57.657510452163542
 20
85.836254230181737
 30
0.0
 70
    32
  0
VERTEX
  5
58E2C
  8
0
 10
57.586967097595682
 20
85.938635757404143
 30
0.0
 70
    32
  0
VERTEX
  5
58E2D
  8
0
 10
57.523260687446822
 20
86.054348154824709
 30
0.0
 70
    32
  0
VERTEX
  5
58E2E
  8
0
 10
57.464690245565087
 20
86.187733470568958
 30
0.0
 70
    32
  0
VERTEX
  5
58E2F
  8
0
 10
57.413706827871522
 20
86.333922606680517
 30
0.0
 70
    32
  0
VERTEX
  5
58E30
  8
0
 10
57.368366881202689
 20
86.5
 30
0.0
 70
    32
  0
SEQEND
  5
58E31
  8
0
  0
POLYLINE
  5
58E32
  8
0
 66
     1
 10
0.0
 20
0.0
 30
0.0
 70
     8
  0
VERTEX
  5
58E33
  8
0
 10
58.227241335952151
 20
85.5
 30
0.0
 70
    32
  0
VERTEX
  5
58E34
  8
0
 10
58.11895606391306
 20
85.522442471175566
 30
0.0
 70
    32
  0
VERTEX
  5
58E35
  8
0
 10
58.007142857142867
 20
85.561482767491725
 30
0.0
 70
    32
  0
SEQEND
  5
58E36
  8
0
  0
LINE
  5
58E37
  8
0
 10
40.499999999999993
 20
85.5
 30
0.0
 11
59.5
 21
85.5
 31
0.0
  0
POLYLINE
  5
58E38
  8
0
 66
     1
 10
0.0
 20
0.0
 30
0.0
 70
     8
  0
VERTEX
  5
58E39
  8
0
 10
41.992857142857133
 20
85.561482767491725
 30
0.0
 70
    32
  0
VERTEX
  5
58E3A
  8
0
 10
41.881757757981632
 20
85.522642320466673
 30
0.0
 70
    32
  0
VERTEX
  5
58E3B
  8
0
 10
41.772758664047842
 20
85.5
 30
0.0
 70
    32
  0
SEQEND
  5
58E3C
  8
0
  0
LINE
  5
58E3D
  8
0
 10
40.499999999999993
 20
58.0
 30
0.0
 11
59.5
 21
58.0
 31
0.0
  0
LINE
  5
58E3E
  8
0
 10
59.5
 20
85.5
 30
0.0
 11
59.5
 21
58.0
 31
0.0
  0
LINE
  5
58E3F
  8
0
 10
40.499999999999993
 20
58.0
 30
0.0
 11
40.499999999999993
 21
85.5
 31
0.0
  0
LINE
  5
58EBD
  8
3
 10
43.486649295795409
 20
56.399999999999999
 30
0.0
 11
43.486649295795409
 21
50.199999999999989
 31
0.0
  0
LINE
  5
58EBE
  8
3
 10
44.639137942519788
 20
56.399999999999999
 30
0.0
 11
44.639137942519788
 21
50.199999999999989
 31
0.0
  0
LINE
  5
58EBF
  8
3
 10
46.316385118752578
 20
56.399999999999999
 30
0.0
 11
46.316385118752578
 21
50.199999999999989
 31
0.0
  0
LINE
  5
58EC0
  8
3
 10
47.30208180182612
 20
56.399999999999999
 30
0.0
 11
47.30208180182612
 21
50.199999999999989
 31
0.0
  0
LINE
  5
58EC1
  8
3
 10
48.354210184815877
 20
56.399999999999999
 30
0.0
 11
48.354210184815877
 21
50.199999999999989
 31
0.0
  0
LINE
  5
58EC2
  8
3
 10
49.44686337511871
 20
56.399999999999999
 30
0.0
 11
49.44686337511871
 21
50.199999999999989
 31
0.0
  0
LINE
  5
58EC3
  8
3
 10
43.98888684130366
 20
56.399999999999999
 30
0.0
 11
43.98888684130366
 21
50.199999999999989
 31
0.0
  0
LINE
  5
58EC4
  8
3
 10
42.97173279718146
 20
56.399999999999999
 30
0.0
 11
42.97173279718146
 21
50.199999999999989
 31
0.0
  0
LINE
  5
58EC5
  8
3
 10
45.421391259272212
 20
50.199999999999989
 30
0.0
 11
45.421391259272212
 21
56.399999999999999
 31
0.0
  0
LINE
  5
58EC6
  8
3
 10
56.513350704204584
 20
56.399999999999999
 30
0.0
 11
56.513350704204584
 21
50.199999999999989
 31
0.0
  0
LINE
  5
58EC7
  8
3
 10
55.360862057480198
 20
56.399999999999999
 30
0.0
 11
55.360862057480198
 21
50.199999999999989
 31
0.0
  0
LINE
  5
58EC8
  8
3
 10
53.683614881247422
 20
56.399999999999999
 30
0.0
 11
53.683614881247422
 21
50.199999999999989
 31
0.0
  0
LINE
  5
58EC9
  8
3
 10
52.69791819817388
 20
56.399999999999999
 30
0.0
 11
52.69791819817388
 21
50.199999999999989
 31
0.0
  0
LINE
  5
58ECA
  8
3
 10
51.645789815184109
 20
56.399999999999999
 30
0.0
 11
51.645789815184109
 21
50.199999999999989
 31
0.0
  0
LINE
  5
58ECB
  8
3
 10
50.55313662488129
 20
56.399999999999999
 30
0.0
 11
50.55313662488129
 21
50.199999999999989
 31
0.0
  0
LINE
  5
58ECC
  8
3
 10
56.011113158696332
 20
56.399999999999999
 30
0.0
 11
56.011113158696332
 21
50.199999999999989
 31
0.0
  0
LINE
  5
58ECD
  8
3
 10
57.02826720281854
 20
56.399999999999999
 30
0.0
 11
57.02826720281854
 21
50.199999999999989
 31
0.0
  0
LINE
  5
58ECE
  8
3
 10
54.57860874072778
 20
50.199999999999989
 30
0.0
 11
54.57860874072778
 21
56.399999999999999
 31
0.0
  0
LINE
  5
58ECF
  8
2
 10
52.458500000000008
 20
63.780584363197299
 30
0.0
 11
52.458500000000008
 21
50.541499999999992
 31
0.0
  0
LINE
  5
58ED0
  8
2
 10
47.541499999999978
 20
50.541499999999992
 30
0.0
 11
47.541499999999978
 21
63.780584363197299
 31
0.0
  0
LINE
  5
58ED1
  8
2
 10
50.0
 20
65.199999999999989
 30
0.0
 11
52.458500000000008
 21
63.780584363197299
 31
0.0
  0
LINE
  5
58ED2
  8
2
 10
47.541499999999978
 20
63.780584363197299
 30
0.0
 11
50.0
 21
65.199999999999989
 31
0.0
  0
LINE
  5
58ED3
  8
2
 10
47.541499999999978
 20
63.780584363197299
 30
0.0
 11
52.458500000000008
 21
63.780584363197299
 31
0.0
  0
LINE
  5
58ED4
  8
2
 10
47.0
 20
50.0
 30
0.0
 11
47.541499999999978
 21
50.541499999999992
 31
0.0
  0
LINE
  5
58ED5
  8
2
 10
47.541499999999978
 20
50.541499999999992
 30
0.0
 11
52.458500000000008
 21
50.541499999999992
 31
0.0
  0
LINE
  5
58ED6
  8
2
 10
47.0
 20
50.0
 30
0.0
 11
47.0
 21
62.0
 31
0.0
  0
LINE
  5
58ED7
  8
2
 10
47.0
 20
62.0
 30
0.0
 11
53.0
 21
62.0
 31
0.0
  0
LINE
  5
58ED8
  8
2
 10
53.0
 20
50.0
 30
0.0
 11
53.0
 21
62.0
 31
0.0
  0
LINE
  5
58ED9
  8
2
 10
53.0
 20
50.0
 30
0.0
 11
52.458500000000008
 21
50.541499999999992
 31
0.0
  0
LINE
  5
58EDA
  8
0
 10
57.5
 20
56.399999999999999
 30
0.0
 11
42.509651713314952
 21
56.399999999999999
 31
0.0
  0
LINE
  5
58F5E
  8
0
 10
54.523809523809518
 20
86.5
 30
0.0
 11
57.368366881202689
 21
86.5
 31
0.0
  0
VIEWPORT
  5
1EC2F
 67
     1
  8
0
 10
261.51769911504419
 20
148.5
 30
0.0
 40
523.0353982300885
 41
297.0
 68
     1
 69
     1
1001
ACAD
1000
MVIEW
1002
{
1070
    16
1010
0.0
1020
0.0
1030
0.0
1010
0.0
1020
0.0
1030
1.0
1040
0.0
1040
297.0
1040
261.51769911504419
1040
148.5
1040
50.0
1040
0.0
1040
0.0
1070
     0
1070
   100
1070
     1
1070
     1
1070
     0
1070
     0
1070
     0
1070
     0
1040
0.0
1040
0.0
1040
0.0
1040
1.0
1040
1.0
1040
10.0
1040
10.0
1070
     0
1002
{
1002
}
1002
}
  0
ENDSEC
  0
EOF
