  0
SECTION
  2
HEADER
  9
$ACADVER
  1
AC1009
  9
$INSBASE
 10
0.0
 20
0.0
 30
0.0
  9
$EXTMIN
 10
0.0
 20
-2.960436562073669
 30
0.0
  9
$EXTMAX
 10
209.5
 20
182.25
 30
0.0
  9
$LIMMIN
 10
0.0
 20
0.0
  9
$LIMMAX
 10
390.0
 20
270.0
  9
$ORTHOMODE
 70
     1
  9
$REGENMODE
 70
     1
  9
$FILLMODE
 70
     1
  9
$QTEXTMODE
 70
     0
  9
$MIRRTEXT
 70
     1
  9
$DRAGMODE
 70
     2
  9
$LTSCALE
 40
5.0
  9
$OSMODE
 70
    37
  9
$ATTMODE
 70
     1
  9
$TEXTSIZE
 40
2.5
  9
$TRACEWID
 40
1.0
  9
$TEXTSTYLE
  7
STANDARD
  9
$CLAYER
  8
0
  9
$CELTYPE
  6
BYLAYER
  9
$CECOLOR
 62
   256
  9
$DIMSCALE
 40
1.0
  9
$DIMASZ
 40
3.0
  9
$DIMEXO
 40
1.0
  9
$DIMDLI
 40
6.0
  9
$DIMRND
 40
0.0
  9
$DIMDLE
 40
0.0
  9
$DIMEXE
 40
1.0
  9
$DIMTP
 40
495.0
  9
$DIMTM
 40
0.0
  9
$DIMTXT
 40
2.5
  9
$DIMCEN
 40
0.0
  9
$DIMTSZ
 40
0.0
  9
$DIMTOL
 70
     0
  9
$DIMLIM
 70
     0
  9
$DIMTIH
 70
     0
  9
$DIMTOH
 70
     0
  9
$DIMSE1
 70
     0
  9
$DIMSE2
 70
     0
  9
$DIMTAD
 70
     1
  9
$DIMZIN
 70
     8
  9
$DIMBLK
  1

  9
$DIMASO
 70
     0
  9
$DIMSHO
 70
     1
  9
$DIMPOST
  1

  9
$DIMAPOST
  1

  9
$DIMALT
 70
     0
  9
$DIMALTD
 70
     2
  9
$DIMALTF
 40
25.399999999999999
  9
$DIMLFAC
 40
1.0
  9
$DIMTOFL
 70
     1
  9
$DIMTVP
 40
0.0
  9
$DIMTIX
 70
     1
  9
$DIMSOXD
 70
     0
  9
$DIMSAH
 70
     0
  9
$DIMBLK1
  1

  9
$DIMBLK2
  1

  9
$DIMSTYLE
  2
ITM
  9
$DIMCLRD
 70
   256
  9
$DIMCLRE
 70
   256
  9
$DIMCLRT
 70
   256
  9
$DIMTFAC
 40
1.0
  9
$DIMGAP
 40
1.0
  9
$LUNITS
 70
     2
  9
$LUPREC
 70
     1
  9
$SKETCHINC
 40
1.0
  9
$FILLETRAD
 40
0.4
  9
$AUNITS
 70
     0
  9
$AUPREC
 70
     1
  9
$MENU
  1
.
  9
$ELEVATION
 40
0.0
  9
$PELEVATION
 40
0.0
  9
$THICKNESS
 40
0.0
  9
$LIMCHECK
 70
     0
  9
$BLIPMODE
 70
     0
  9
$CHAMFERA
 40
1.1999999999999991
  9
$CHAMFERB
 40
1.1999999999999991
  9
$SKPOLY
 70
     0
  9
$TDCREATE
 40
2453354.0921258219
  9
$TDUPDATE
 40
2457168.5539566092
  9
$TDINDWG
 40
513.91284797449998
  9
$TDUSRTIMER
 40
513.91256999999996
  9
$USRTIMER
 70
     1
  9
$ANGBASE
 50
0.0
  9
$ANGDIR
 70
     0
  9
$PDMODE
 70
     0
  9
$PDSIZE
 40
0.0
  9
$PLINEWID
 40
0.0
  9
$COORDS
 70
     1
  9
$SPLFRAME
 70
     0
  9
$SPLINETYPE
 70
     6
  9
$SPLINESEGS
 70
     8
  9
$ATTDIA
 70
     0
  9
$ATTREQ
 70
     1
  9
$HANDLING
 70
     1
  9
$HANDSEED
  5
58BD5
  9
$SURFTAB1
 70
     6
  9
$SURFTAB2
 70
     6
  9
$SURFTYPE
 70
     6
  9
$SURFU
 70
     6
  9
$SURFV
 70
     6
  9
$UCSNAME
  2

  9
$UCSORG
 10
0.0
 20
0.0
 30
0.0
  9
$UCSXDIR
 10
1.0
 20
0.0
 30
0.0
  9
$UCSYDIR
 10
0.0
 20
1.0
 30
0.0
  9
$PUCSNAME
  2

  9
$PUCSORG
 10
0.0
 20
0.0
 30
0.0
  9
$PUCSXDIR
 10
1.0
 20
0.0
 30
0.0
  9
$PUCSYDIR
 10
0.0
 20
1.0
 30
0.0
  9
$USERI1
 70
     4
  9
$USERI2
 70
     1
  9
$USERI3
 70
     1
  9
$USERI4
 70
     0
  9
$USERI5
 70
     0
  9
$USERR1
 40
1.0
  9
$USERR2
 40
3.0
  9
$USERR3
 40
3.2000000000000002
  9
$USERR4
 40
3.0
  9
$USERR5
 40
10.0
  9
$WORLDVIEW
 70
     1
  9
$SHADEDGE
 70
     3
  9
$SHADEDIF
 70
    70
  9
$TILEMODE
 70
     1
  9
$MAXACTVP
 70
    16
  9
$PLIMCHECK
 70
     0
  9
$PEXTMIN
 10
0.0
 20
0.0
 30
0.0
  9
$PEXTMAX
 10
0.0
 20
0.0
 30
0.0
  9
$PLIMMIN
 10
0.0
 20
0.0
  9
$PLIMMAX
 10
12.0
 20
9.0
  9
$UNITMODE
 70
     0
  9
$VISRETAIN
 70
     0
  9
$PLINEGEN
 70
     0
  9
$PSLTSCALE
 70
     1
  0
ENDSEC
  0
SECTION
  2
TABLES
  0
TABLE
  2
VPORT
 70
     1
  0
VPORT
  2
*ACTIVE
 70
     0
 10
0.0
 20
0.0
 11
1.0
 21
1.0
 12
208.27245720408109
 22
114.67236467236459
 13
0.0
 23
0.0
 14
5.0
 24
5.0
 15
10.0
 25
10.0
 16
0.0
 26
0.0
 36
1.0
 17
0.0
 27
0.0
 37
0.0
 40
229.3447293447293
 41
1.816239316239316
 42
50.0
 43
0.0
 44
0.0
 50
0.0
 51
0.0
 71
    16
 72
   500
 73
     1
 74
     1
 75
     0
 76
     0
 77
     0
 78
     1
  0
ENDTAB
  0
TABLE
  2
LTYPE
 70
     3
  0
LTYPE
  2
CONTINUOUS
 70
     0
  3
Solid line
 72
    65
 73
     0
 40
0.0
  0
LTYPE
  2
CENTER
 70
     0
  3
____ _ ____ _ ____ _ ____ _ ____ _ ____ _ ____
 72
    65
 73
     4
 40
2.0
 49
1.25
 49
-0.25
 49
0.25
 49
-0.25
  0
LTYPE
  2
PHANTOM2
 70
     0
  3
___ _ _ ___ _ _ ___ _ _ ___ _ _
 72
    65
 73
     6
 40
1.25
 49
0.625
 49
-0.125
 49
0.125
 49
-0.125
 49
0.125
 49
-0.125
  0
ENDTAB
  0
TABLE
  2
LAYER
 70
     5
  0
LAYER
  2
0
 70
     0
 62
     7
  6
CONTINUOUS
  0
LAYER
  2
1
 70
     0
 62
     1
  6
CENTER
  0
LAYER
  2
WAKU
 70
     0
 62
     5
  6
CONTINUOUS
  0
LAYER
  2
DEFPOINTS
 70
     0
 62
     7
  6
CONTINUOUS
  0
LAYER
  2
3
 70
     0
 62
     3
  6
CONTINUOUS
  0
ENDTAB
  0
TABLE
  2
STYLE
 70
     3
  0
STYLE
  2
STANDARD
 70
     0
 40
0.0
 41
1.0
 50
0.0
 71
     0
 42
2.5
  3
ROMANS
  4
EXTFONT
  0
STYLE
  2
K
 70
     0
 40
0.0
 41
0.75
 50
0.0
 71
     0
 42
3.2000000000000002
  3
ROMANS.shx
  4
EXTFONT.shx
  0
STYLE
  2
STANDARD1
 70
     0
 40
0.0
 41
1.0
 50
0.0
 71
     0
 42
3.0
  3
txt
  4

  0
ENDTAB
  0
TABLE
  2
VIEW
 70
     2
  0
VIEW
  2
OLE1
 70
     0
 40
151.81220504325799
 10
73.676474473531471
 20
85.209442582639014
 41
295.93771616027522
 11
0.0
 21
0.0
 31
1.0
 12
0.0
 22
0.0
 32
0.0
 42
50.0
 43
0.0
 44
0.0
 50
0.0
 71
    16
  0
VIEW
  2
OLE2
 70
     0
 40
12.66566269640963
 10
177.82767580922561
 20
80.089748755761136
 41
24.690026015785861
 11
0.0
 21
0.0
 31
1.0
 12
0.0
 22
0.0
 32
0.0
 42
50.0
 43
0.0
 44
0.0
 50
0.0
 71
    16
  0
ENDTAB
  0
TABLE
  2
UCS
 70
     0
  0
ENDTAB
  0
TABLE
  2
APPID
 70
    49
  0
APPID
  2
ACAD
 70
     0
  0
APPID
  2
COMM
 70
     0
  0
APPID
  2
DCO15
 70
     0
  0
APPID
  2
GENIUS_GENOREF_13
 70
     0
  0
APPID
  2
GENIUS_GENOENT_13
 70
     0
  0
APPID
  2
GENIUS_GENBH_13
 70
     0
  0
APPID
  2
GENIUS_GENOBJ_13
 70
     0
  0
APPID
  2
GENIUS_GENODEF_13
 70
     0
  0
APPID
  2
GENIUS_GENOLIS_13
 70
     0
  0
APPID
  2
GENIUS_GENOBJ-NBEHI-BHF_13
 70
     0
  0
APPID
  2
GENIUS_GENOBJ-NBEHI-BHB_13
 70
     0
  0
APPID
  2
GENIUS_GENOBJ-F-PART_13
 70
     0
  0
APPID
  2
GENIUS_GEFSTDP_13
 70
     0
  0
APPID
  2
GENIUS_GENOBJ-N-RSSYM_13
 70
     0
  0
APPID
  2
GENIUS_GENSYMENT_13
 70
     0
  0
APPID
  2
GENIUS_GENOBJ-N-TIT_13
 70
     0
  0
APPID
  2
GENIUS_GENTITLE_13
 70
     0
  0
APPID
  2
GENIUS_GENZVEED_13
 70
     0
  0
APPID
  2
GENIUS_GENOBJ-N-LEADER_13
 70
     0
  0
APPID
  2
GENIUS_GENOBJ-N-FIL_13
 70
     0
  0
APPID
  2
GENIUS_GENOBJ-N-SEC_13
 70
     0
  0
APPID
  2
GENIUS_GENOBJ-N-CRS_13
 70
     0
  0
APPID
  2
GENIUS_GENOBJ-N-ZOO_13
 70
     0
  0
APPID
  2
GENIUS_GENZOO_13
 70
     0
  0
APPID
  2
GENIUS_GENOBJ-F-TOL_13
 70
     0
  0
APPID
  2
GENIUS_GENFIL_13
 70
     0
  0
APPID
  2
GENIUS_GENOBJ-N-CHA_13
 70
     0
  0
APPID
  2
_CALL_MAC$
 70
     0
  0
APPID
  2
ASM_BASE
 70
     0
  0
APPID
  2
ASM_EXPLO_VER_2_00
 70
     0
  0
APPID
  2
ASM_CADM_VER_12_00
 70
     0
  0
APPID
  2
ASM_BASEFORO
 70
     0
  0
APPID
  2
ASM_BASETRAVI
 70
     0
  0
APPID
  2
ASM_BASETRAVI1
 70
     0
  0
APPID
  2
ASM_GRUPPI
 70
     0
  0
APPID
  2
ASM_CADM_ALBERO
 70
     0
  0
APPID
  2
ASM_GOLE
 70
     0
  0
APPID
  2
GENIUS_GEFINERT_13
 70
     0
  0
APPID
  2
GENIUS_GENOBJ-F-INER_13
 70
     0
  0
APPID
  2
GENIUS_GENDTOL_13
 70
     0
  0
APPID
  2
AD_SKETCHDIM
 70
     0
  0
APPID
  2
GENIUS_GENSCREG_15
 70
     0
  0
APPID
  2
GENIUS_GENOBJ-N-SDF_13
 70
     0
  0
APPID
  2
GENIUS_GENOBJ-N-CEN_13
 70
     0
  0
APPID
  2
ACAD_MLEADERVER
 70
     0
  0
APPID
  2
ACAD_EXEMPT_FROM_CAD_STANDARDS
 70
     0
  0
APPID
  2
ACAD_NAV_VCDISPLAY
 70
     0
  0
APPID
  2
ACAD_DSTYLE_DIMJAG
 70
     0
  0
APPID
  2
ACAD_DSTYLE_DIMTALN
 70
     0
  0
ENDTAB
  0
TABLE
  2
DIMSTYLE
 70
     2
  0
DIMSTYLE
  2
ITM
 70
     0
  3

  4

  5

  6

  7

 40
0.0
 41
2.5
 42
1.0
 43
6.0
 44
1.0
 45
0.0
 46
0.0
 47
495.0
 48
0.0
140
3.0
141
0.0
142
0.0
143
25.399999999999999
144
1.0
145
0.0
146
1.0
147
1.0
 71
     0
 72
     0
 73
     0
 74
     0
 75
     0
 76
     0
 77
     3
 78
     8
170
     0
171
     2
172
     1
173
     0
174
     0
175
     0
176
     0
177
     0
178
     0
  0
DIMSTYLE
  2
STANDARD
 70
     0
  3

  4

  5

  6

  7

 40
1.0
 41
0.18
 42
0.0625
 43
0.38
 44
0.18
 45
0.0
 46
0.0
 47
0.0
 48
0.0
140
0.18
141
0.09
142
0.0
143
25.399999999999999
144
1.0
145
0.0
146
1.0
147
0.09
 71
     0
 72
     0
 73
     1
 74
     1
 75
     0
 76
     0
 77
     0
 78
     0
170
     0
171
     2
172
     0
173
     0
174
     0
175
     0
176
     0
177
     0
178
     0
  0
ENDTAB
  0
ENDSEC
  0
SECTION
  2
BLOCKS
  0
BLOCK
  8
0
  2
$MODEL_SPACE
 70
     0
 10
0.0
 20
0.0
 30
0.0
  3
$MODEL_SPACE
  1

  0
ENDBLK
  5
21
  8
0
  0
BLOCK
 67
     1
  8
0
  2
$PAPER_SPACE
 70
     0
 10
0.0
 20
0.0
 30
0.0
  3
$PAPER_SPACE
  1

  0
ENDBLK
  5
76
 67
     1
  8
0
  0
BLOCK
  8
0
  2
ARROW1
 70
     0
 10
0.0
 20
0.0
 30
0.0
  3
ARROW1
  1

  0
SOLID
  5
18C
  8
WAKU
  6
CONTINUOUS
 62
     4
 10
-1.0
 20
0.1666666666666714
 30
0.0
 11
-1.0
 21
-0.1666666666666714
 31
0.0
 12
0.0
 22
0.0
 32
0.0
 13
0.0
 23
0.0
 33
0.0
  0
ENDBLK
  5
3534A
  8
0
  0
ENDSEC
  0
SECTION
  2
ENTITIES
  0
TEXT
  5
58002
  8
0
 62
     3
 10
0.0
 20
0.0
 30
0.0
 40
10.0
  1
EFAL44AX16
  7
STANDARD1
  0
LINE
  5
58505
  8
1
 10
107.75
 20
124.5
 30
0.0
 11
107.75
 21
69.0
 31
0.0
  0
LINE
  5
58506
  8
0
 10
110.4404761904762
 20
119.5
 30
0.0
 11
105.0595238095238
 21
119.5
 31
0.0
  0
ARC
  5
58507
  8
0
 10
105.0595238095238
 20
118.5
 30
0.0
 40
1.0000000000000031
 50
90.0
 51
180.0
  0
ARC
  5
58508
  8
0
 10
110.4404761904762
 20
118.5
 30
0.0
 40
1.000000000000002
 50
0.0
 51
90.0
  0
LINE
  5
58509
  8
0
 10
104.0595238095238
 20
118.5
 30
0.0
 11
104.0595238095238
 21
116.0
 31
0.0
  0
LINE
  5
5850A
  8
0
 10
111.4404761904761
 20
116.0
 30
0.0
 11
111.4404761904761
 21
118.5
 31
0.0
  0
LINE
  5
5850C
  8
0
 10
102.95
 20
90.199999999999989
 30
0.0
 11
102.95
 21
90.0
 31
0.0
  0
LINE
  5
5850D
  8
0
 10
112.55
 20
90.0
 30
0.0
 11
112.55
 21
90.199999999999989
 31
0.0
  0
LINE
  5
5850E
  8
0
 10
112.55
 20
90.0
 30
0.0
 11
102.95
 21
90.0
 31
0.0
  0
LINE
  5
5850F
  8
0
 10
148.34999999999999
 20
108.5
 30
0.0
 11
146.75
 21
108.5
 31
0.0
  0
ARC
  5
58510
  8
0
 10
148.35000000000281
 20
111.89999999999981
 30
0.0
 40
3.399999999997195
 50
350.93136230665692
 51
359.99683186342207
  0
ARC
  5
58511
  8
0
 10
148.34999999999999
 20
111.89999999999991
 30
0.0
 40
3.3999999999999662
 50
270.0
 51
350.93136230666181
  0
LINE
  5
58512
  8
0
 10
144.75
 20
110.5
 30
0.0
 11
146.75
 21
108.5
 31
0.0
  0
POLYLINE
  5
58514
  8
0
 66
     1
 10
0.0
 20
0.0
 30
0.0
  0
VERTEX
  5
58AD1
  8
0
 10
150.75
 20
117.0
 30
0.0
  0
VERTEX
  5
58AD2
  8
0
 10
151.0188461668757
 20
116.96318312825559
 30
0.0
  0
VERTEX
  5
58AD3
  8
0
 10
151.2499543217364
 20
116.866051774536
 30
0.0
  0
VERTEX
  5
58AD4
  8
0
 10
151.40513504363841
 20
116.7555504966173
 30
0.0
  0
VERTEX
  5
58AD5
  8
0
 10
151.5306890159026
 20
116.6249197232038
 30
0.0
  0
VERTEX
  5
58AD6
  8
0
 10
151.6295006120244
 20
116.4759161449705
 30
0.0
  0
VERTEX
  5
58AD7
  8
0
 10
151.69862182397199
 20
116.31641212853479
 30
0.0
  0
VERTEX
  5
58AD8
  8
0
 10
151.7366598624069
 20
116.1627953190828
 30
0.0
  0
VERTEX
  5
58AD9
  8
0
 10
151.74998307687949
 20
116.0058177281563
 30
0.0
  0
VERTEX
  5
58ADA
  8
0
 10
151.75
 20
116.0
 30
0.0
  0
SEQEND
  5
58ADB
  8
0
  0
LINE
  5
58515
  8
0
 10
151.75
 20
111.89999999999991
 30
0.0
 11
151.75
 21
116.0
 31
0.0
  0
ARC
  5
58516
  8
0
 10
137.7768503675799
 20
67.056068499685182
 30
0.0
 40
44.000000000001862
 50
80.881279927288276
 51
90.327965329705094
  0
POLYLINE
  5
58518
  8
3
 66
     1
 10
0.0
 20
0.0
 30
0.0
  0
VERTEX
  5
58ADC
  8
3
 10
115.298260525998
 20
105.8894752933126
 30
0.0
  0
VERTEX
  5
58ADD
  8
3
 10
117.0994887264403
 20
106.654030426517
 30
0.0
  0
VERTEX
  5
58ADE
  8
3
 10
118.91309738056781
 20
107.38882320811609
 30
0.0
  0
VERTEX
  5
58ADF
  8
3
 10
120.7445875781862
 20
108.07646931759
 30
0.0
  0
VERTEX
  5
58AE0
  8
3
 10
122.6105576646216
 20
108.70775535425349
 30
0.0
  0
VERTEX
  5
58AE1
  8
3
 10
124.4982594580602
 20
109.2727073810759
 30
0.0
  0
VERTEX
  5
58AE2
  8
3
 10
126.4052327887962
 20
109.76568470718099
 30
0.0
  0
VERTEX
  5
58AE3
  8
3
 10
128.04275165042861
 20
110.125368599396
 30
0.0
  0
VERTEX
  5
58AE4
  8
3
 10
129.6936856050917
 20
110.4285815228105
 30
0.0
  0
VERTEX
  5
58AE5
  8
3
 10
131.63283335004721
 20
110.70854880427071
 30
0.0
  0
VERTEX
  5
58AE6
  8
3
 10
133.581969724142
 20
110.9072439726787
 30
0.0
  0
VERTEX
  5
58AE7
  8
3
 10
135.55189262383749
 20
111.0237218233038
 30
0.0
  0
VERTEX
  5
58AE8
  8
3
 10
137.25927664737841
 20
111.05606749588679
 30
0.0
  0
SEQEND
  5
58AE9
  8
3
  0
ARC
  5
58519
  8
0
 10
137.77685036758021
 20
67.056068499687228
 30
0.0
 40
43.999999999999829
 50
90.490531262592853
 51
118.0451427431781
  0
LINE
  5
5851A
  8
0
 10
137.40015400231221
 20
111.05445596841579
 30
0.0
 11
137.5249924501683
 21
111.05534767093521
 31
0.0
  0
LINE
  5
5851B
  8
0
 10
101.75
 20
96.0
 30
0.0
 11
101.75
 21
90.199999999999989
 31
0.0
  0
LINE
  5
5851C
  8
0
 10
113.75
 20
90.199999999999989
 30
0.0
 11
113.75
 21
96.0
 31
0.0
  0
LINE
  5
5851D
  8
0
 10
113.75
 20
90.199999999999989
 30
0.0
 11
101.75
 21
90.199999999999989
 31
0.0
  0
POLYLINE
  5
5851E
  8
0
 66
     1
 10
0.0
 20
0.0
 30
0.0
  0
VERTEX
  5
58AEA
  8
0
 10
111.9983565125647
 20
116.13089377090481
 30
0.0
  0
VERTEX
  5
58AEB
  8
0
 10
112.26123938015979
 20
116.2785323779453
 30
0.0
  0
VERTEX
  5
58AEC
  8
0
 10
112.51469014798479
 20
116.4784892285432
 30
0.0
  0
VERTEX
  5
58AED
  8
0
 10
112.73163254642991
 20
116.7152865563239
 30
0.0
  0
VERTEX
  5
58AEE
  8
0
 10
112.9166666666666
 20
117.0
 30
0.0
  0
SEQEND
  5
58AEF
  8
0
  0
LINE
  5
58520
  8
0
 10
150.75
 20
117.0
 30
0.0
 11
112.9166666666666
 21
117.0
 31
0.0
  0
LINE
  5
58521
  8
0
 10
115.28740671586129
 20
105.8847846820799
 30
0.0
 11
115.298260525998
 21
105.8894752933126
 31
0.0
  0
POLYLINE
  5
58522
  8
3
 66
     1
 10
0.0
 20
0.0
 30
0.0
  0
VERTEX
  5
58AF0
  8
3
 10
111.9983565125647
 20
103.2417430119291
 30
0.0
  0
VERTEX
  5
58AF1
  8
3
 10
112.0054409303591
 20
103.2497173255545
 30
0.0
  0
VERTEX
  5
58AF2
  8
3
 10
112.4782328148535
 20
103.7640303602856
 30
0.0
  0
VERTEX
  5
58AF3
  8
3
 10
112.98257214342
 20
104.2688491511595
 30
0.0
  0
VERTEX
  5
58AF4
  8
3
 10
113.53775915991361
 20
104.7660876586455
 30
0.0
  0
VERTEX
  5
58AF5
  8
3
 10
114.1368540247188
 20
105.2279972286139
 30
0.0
  0
VERTEX
  5
58AF6
  8
3
 10
114.6890441658736
 20
105.58202004525801
 30
0.0
  0
VERTEX
  5
58AF7
  8
3
 10
114.9836488533081
 20
105.7417958444732
 30
0.0
  0
VERTEX
  5
58AF8
  8
3
 10
115.28740671586129
 20
105.8847846820799
 30
0.0
  0
SEQEND
  5
58AF9
  8
3
  0
ARC
  5
58523
  8
0
 10
118.5
 20
103.2417430119291
 30
0.0
 40
2.9999999999999778
 50
118.0451427431781
 51
180.0
  0
LINE
  5
58525
  8
0
 10
111.625
 20
116.0
 30
0.0
 11
100.0
 21
116.0
 31
0.0
  0
LINE
  5
58527
  8
0
 10
111.625
 20
116.0
 30
0.0
 11
111.9983565125647
 21
116.13089377090481
 31
0.0
  0
LINE
  5
58528
  8
0
 10
100.0
 20
116.0
 30
0.0
 11
100.0
 21
96.0
 31
0.0
  0
LINE
  5
58529
  8
0
 10
115.5
 20
96.0
 30
0.0
 11
115.5
 21
103.2417430119291
 31
0.0
  0
LINE
  5
5852B
  8
0
 10
115.5
 20
96.0
 30
0.0
 11
100.0
 21
96.0
 31
0.0
  0
LINE
  5
5853E
  8
1
 10
201.75
 20
124.5
 30
0.0
 11
201.75
 21
69.0
 31
0.0
  0
LINE
  5
5853F
  8
0
 10
204.4404761904762
 20
119.5
 30
0.0
 11
199.0595238099452
 21
119.5
 31
0.0
  0
ARC
  5
58540
  8
0
 10
199.0595238095238
 20
118.5
 30
0.0
 40
1.0000000000000031
 50
90.0
 51
180.0
  0
ARC
  5
58541
  8
0
 10
204.4404761904762
 20
118.5
 30
0.0
 40
1.000000000000002
 50
0.0
 51
90.0
  0
LINE
  5
58543
  8
0
 10
198.0595238095238
 20
118.5
 30
0.0
 11
198.0595238095238
 21
117.0
 31
0.0
  0
LINE
  5
58544
  8
0
 10
205.4404761904762
 20
117.0
 30
0.0
 11
205.4404761904762
 21
118.5
 31
0.0
  0
LINE
  5
58545
  8
0
 10
206.55000000000001
 20
90.0
 30
0.0
 11
196.94999999999999
 21
90.0
 31
0.0
  0
LINE
  5
58546
  8
0
 10
196.94999999999999
 20
90.199999999999989
 30
0.0
 11
196.94999999999999
 21
90.0
 31
0.0
  0
LINE
  5
58547
  8
0
 10
206.55000000000001
 20
90.0
 30
0.0
 11
206.55000000000001
 21
90.199999999999989
 31
0.0
  0
LINE
  5
58548
  8
0
 10
207.75
 20
90.199999999999989
 30
0.0
 11
195.75
 21
90.199999999999989
 31
0.0
  0
LINE
  5
58549
  8
0
 10
195.75
 20
96.0
 30
0.0
 11
195.75
 21
90.199999999999989
 31
0.0
  0
LINE
  5
5854A
  8
0
 10
207.75
 20
90.199999999999989
 30
0.0
 11
207.75
 21
96.0
 31
0.0
  0
POLYLINE
  5
5854B
  8
0
 66
     1
 10
0.0
 20
0.0
 30
0.0
  0
VERTEX
  5
58AFA
  8
0
 10
207.73823153432201
 20
117.0
 30
0.0
  0
VERTEX
  5
58AFB
  8
0
 10
207.773739162776
 20
116.8623380476473
 30
0.0
  0
VERTEX
  5
58AFC
  8
0
 10
207.81526329597031
 20
116.7327104078835
 30
0.0
  0
VERTEX
  5
58AFD
  8
0
 10
207.86451292422109
 20
116.6084331787181
 30
0.0
  0
VERTEX
  5
58AFE
  8
0
 10
207.92036315713119
 20
116.4943005842841
 30
0.0
  0
VERTEX
  5
58AFF
  8
0
 10
207.9862341250311
 20
116.3859210109073
 30
0.0
  0
VERTEX
  5
58B00
  8
0
 10
208.059314359898
 20
116.2897796803493
 30
0.0
  0
VERTEX
  5
58B01
  8
0
 10
208.1419890285419
 20
116.2037768721738
 30
0.0
  0
VERTEX
  5
58B02
  8
0
 10
208.2318181818182
 20
116.13089377090481
 30
0.0
  0
SEQEND
  5
58B03
  8
0
  0
LINE
  5
5854C
  8
0
 10
207.73823153432201
 20
117.0
 30
0.0
 11
195.76176846567799
 21
117.0
 31
0.0
  0
POLYLINE
  5
5854D
  8
0
 66
     1
 10
0.0
 20
0.0
 30
0.0
  0
VERTEX
  5
58B04
  8
0
 10
195.2681818181818
 20
116.13089377090481
 30
0.0
  0
VERTEX
  5
58B05
  8
0
 10
195.35271350344161
 20
116.198934249544
 30
0.0
  0
VERTEX
  5
58B06
  8
0
 10
195.4309565966584
 20
116.2785323779453
 30
0.0
  0
VERTEX
  5
58B07
  8
0
 10
195.5044799916198
 20
116.3724523322259
 30
0.0
  0
VERTEX
  5
58B08
  8
0
 10
195.57090620424171
 20
116.4784892285432
 30
0.0
  0
VERTEX
  5
58B09
  8
0
 10
195.62801423277079
 20
116.5917156785798
 30
0.0
  0
VERTEX
  5
58B0A
  8
0
 10
195.67844530183109
 20
116.7152865563239
 30
0.0
  0
VERTEX
  5
58B0B
  8
0
 10
195.7235548734958
 20
116.8530123596192
 30
0.0
  0
VERTEX
  5
58B0C
  8
0
 10
195.76176846567799
 20
117.0
 30
0.0
  0
SEQEND
  5
58B0D
  8
0
  0
POLYLINE
  5
5854F
  8
0
 66
     1
 10
0.0
 20
0.0
 30
0.0
  0
VERTEX
  5
58B0E
  8
0
 10
195.03830312067061
 20
116.0
 30
0.0
  0
VERTEX
  5
58B0F
  8
0
 10
195.151577547925
 20
116.0561801706165
 30
0.0
  0
VERTEX
  5
58B10
  8
0
 10
195.2681818181818
 20
116.13089377090481
 30
0.0
  0
SEQEND
  5
58B11
  8
0
  0
LINE
  5
58550
  8
0
 10
195.03830312067061
 20
116.0
 30
0.0
 11
194.0
 21
116.0
 31
0.0
  0
POLYLINE
  5
58551
  8
0
 66
     1
 10
0.0
 20
0.0
 30
0.0
  0
VERTEX
  5
58B12
  8
0
 10
208.2318181818182
 20
116.13089377090481
 30
0.0
  0
VERTEX
  5
58B13
  8
0
 10
208.3096666642916
 20
116.0791694281922
 30
0.0
  0
VERTEX
  5
58B14
  8
0
 10
208.46169687932939
 20
115.9999999999997
 30
0.0
  0
SEQEND
  5
58B15
  8
0
  0
LINE
  5
58553
  8
0
 10
209.5
 20
96.0
 30
0.0
 11
194.0
 21
96.0
 31
0.0
  0
LINE
  5
58554
  8
0
 10
194.0
 20
116.0
 30
0.0
 11
194.0
 21
96.0
 31
0.0
  0
LINE
  5
58555
  8
0
 10
209.5
 20
96.0
 30
0.0
 11
209.5
 21
116.0
 31
0.0
  0
LINE
  5
58556
  8
0
 10
209.5
 20
116.0
 30
0.0
 11
208.46169687932939
 21
116.0
 31
0.0
  0
POLYLINE
  5
58557
  8
0
 66
     1
 10
0.0
 20
0.0
 30
0.0
  0
VERTEX
  5
58B16
  8
0
 10
195.2681818181818
 20
103.2417430119291
 30
0.0
  0
VERTEX
  5
58B17
  8
0
 10
195.27281799221589
 20
103.2497173255545
 30
0.0
  0
VERTEX
  5
58B18
  8
0
 10
195.4633778223423
 20
103.59310859055449
 30
0.0
  0
VERTEX
  5
58B19
  8
0
 10
195.63575041475869
 20
103.9338972140325
 30
0.0
  0
VERTEX
  5
58B1A
  8
0
 10
195.78965139641241
 20
104.2688491511595
 30
0.0
  0
VERTEX
  5
58B1B
  8
0
 10
195.9279781437717
 20
104.60335603340179
 30
0.0
  0
VERTEX
  5
58B1C
  8
0
 10
196.04508835932049
 20
104.92489384638731
 30
0.0
  0
VERTEX
  5
58B1D
  8
0
 10
196.1386525203099
 20
105.2279972286139
 30
0.0
  0
VERTEX
  5
58B1E
  8
0
 10
196.18525785075479
 20
105.4108474851606
 30
0.0
  0
VERTEX
  5
58B1F
  8
0
 10
196.2200889657355
 20
105.58202004525801
 30
0.0
  0
VERTEX
  5
58B20
  8
0
 10
196.24230104582529
 20
105.7417958444732
 30
0.0
  0
VERTEX
  5
58B21
  8
0
 10
196.25
 20
105.8847846820799
 30
0.0
  0
SEQEND
  5
58B22
  8
0
  0
POLYLINE
  5
58559
  8
0
 66
     1
 10
0.0
 20
0.0
 30
0.0
  0
VERTEX
  5
58B23
  8
0
 10
207.25
 20
105.8847846820708
 30
0.0
  0
VERTEX
  5
58B24
  8
0
 10
207.25964446700019
 20
105.72328278064209
 30
0.0
  0
VERTEX
  5
58B25
  8
0
 10
207.287336677453
 20
105.5410751268183
 30
0.0
  0
VERTEX
  5
58B26
  8
0
 10
207.33249140996861
 20
105.33714330099281
 30
0.0
  0
VERTEX
  5
58B27
  8
0
 10
207.39305846151819
 20
105.11844147010341
 30
0.0
  0
VERTEX
  5
58B28
  8
0
 10
207.4858832350323
 20
104.8352690343274
 30
0.0
  0
VERTEX
  5
58B29
  8
0
 10
207.59780659254201
 20
104.53796731526521
 30
0.0
  0
VERTEX
  5
58B2A
  8
0
 10
207.72719541163559
 20
104.23051352039489
 30
0.0
  0
VERTEX
  5
58B2B
  8
0
 10
207.87689236265339
 20
103.907799265691
 30
0.0
  0
VERTEX
  5
58B2C
  8
0
 10
208.04362980757341
 20
103.5799143937011
 30
0.0
  0
VERTEX
  5
58B2D
  8
0
 10
208.22718200778399
 20
103.2497173255544
 30
0.0
  0
VERTEX
  5
58B2E
  8
0
 10
208.2318181818182
 20
103.2417430119291
 30
0.0
  0
SEQEND
  5
58B2F
  8
0
  0
LINE
  5
5855A
  8
0
 10
196.25
 20
105.8847846820799
 30
0.0
 11
196.25
 21
108.99396260450339
 31
0.0
  0
LINE
  5
5855C
  8
0
 10
207.25
 20
108.9946552138033
 30
0.0
 11
207.25
 21
105.8847846820708
 31
0.0
  0
POLYLINE
  5
5855D
  8
3
 66
     1
 10
0.0
 20
0.0
 30
0.0
  0
VERTEX
  5
58B30
  8
3
 10
196.54069700963061
 20
108.5
 30
0.0
  0
VERTEX
  5
58B31
  8
3
 10
196.54802738661431
 20
108.5000610759338
 30
0.0
  0
VERTEX
  5
58B32
  8
3
 10
196.65330672819391
 20
108.5120676180169
 30
0.0
  0
VERTEX
  5
58B33
  8
3
 10
196.77413198015381
 20
108.5439996438546
 30
0.0
  0
VERTEX
  5
58B34
  8
3
 10
196.91169161846821
 20
108.5952604060019
 30
0.0
  0
VERTEX
  5
58B35
  8
3
 10
197.06336597982019
 20
108.66393368095331
 30
0.0
  0
VERTEX
  5
58B36
  8
3
 10
197.26719569582929
 20
108.7696300957944
 30
0.0
  0
VERTEX
  5
58B37
  8
3
 10
197.48890393399449
 20
108.89639561780071
 30
0.0
  0
VERTEX
  5
58B38
  8
3
 10
197.7298642903927
 20
109.04366818483101
 30
0.0
  0
VERTEX
  5
58B39
  8
3
 10
197.985319627455
 20
109.2073850708928
 30
0.0
  0
VERTEX
  5
58B3A
  8
3
 10
198.3371785118583
 20
109.4418055349818
 30
0.0
  0
VERTEX
  5
58B3B
  8
3
 10
198.70798718796419
 20
109.6966159885023
 30
0.0
  0
VERTEX
  5
58B3C
  8
3
 10
199.10019471385149
 20
109.9720913398028
 30
0.0
  0
VERTEX
  5
58B3D
  8
3
 10
199.50616092225749
 20
110.2617361068546
 30
0.0
  0
VERTEX
  5
58B3E
  8
3
 10
199.77172735764159
 20
110.4530219187824
 30
0.0
  0
VERTEX
  5
58B3F
  8
3
 10
200.04051105252279
 20
110.64773990864489
 30
0.0
  0
VERTEX
  5
58B40
  8
3
 10
200.31413796078601
 20
110.8468747618406
 30
0.0
  0
VERTEX
  5
58B41
  8
3
 10
200.59001412650679
 20
111.04837275651749
 30
0.0
  0
VERTEX
  5
58B42
  8
3
 10
200.8741459916852
 20
111.2564765596107
 30
0.0
  0
VERTEX
  5
58B43
  8
3
 10
201.15966404395709
 20
111.46602147219581
 30
0.0
  0
VERTEX
  5
58B44
  8
3
 10
201.4482071859733
 20
111.67806737512829
 30
0.0
  0
VERTEX
  5
58B45
  8
3
 10
201.7372262375149
 20
111.89060534389129
 30
0.0
  0
VERTEX
  5
58B46
  8
3
 10
201.75
 20
111.89999999999991
 30
0.0
  0
SEQEND
  5
58B47
  8
3
  0
POLYLINE
  5
5855E
  8
3
 66
     1
 10
0.0
 20
0.0
 30
0.0
  0
VERTEX
  5
58B48
  8
3
 10
201.75
 20
111.89999999999991
 30
0.0
  0
VERTEX
  5
58B49
  8
3
 10
201.76277376248521
 20
111.89060534389129
 30
0.0
  0
VERTEX
  5
58B4A
  8
3
 10
202.04126323468211
 20
111.6858089434316
 30
0.0
  0
VERTEX
  5
58B4B
  8
3
 10
202.3193263986343
 20
111.48145328006579
 30
0.0
  0
VERTEX
  5
58B4C
  8
3
 10
202.59844460213051
 20
111.2765766175328
 30
0.0
  0
VERTEX
  5
58B4D
  8
3
 10
202.87628213686861
 20
111.07303081369579
 30
0.0
  0
VERTEX
  5
58B4E
  8
3
 10
203.1585496191972
 20
110.8667940457449
 30
0.0
  0
VERTEX
  5
58B4F
  8
3
 10
203.438515708963
 20
110.66297372799851
 30
0.0
  0
VERTEX
  5
58B50
  8
3
 10
203.7179023147504
 20
110.460515293673
 30
0.0
  0
VERTEX
  5
58B51
  8
3
 10
203.99383907774251
 20
110.2617361068546
 30
0.0
  0
VERTEX
  5
58B52
  8
3
 10
204.38746836414541
 20
109.9808338966703
 30
0.0
  0
VERTEX
  5
58B53
  8
3
 10
204.77238292954891
 20
109.7102758224779
 30
0.0
  0
VERTEX
  5
58B54
  8
3
 10
205.1507136550234
 20
109.450016030553
 30
0.0
  0
VERTEX
  5
58B55
  8
3
 10
205.33506844233159
 20
109.3259677548031
 30
0.0
  0
VERTEX
  5
58B56
  8
3
 10
205.51468037254489
 20
109.2073850708928
 30
0.0
  0
VERTEX
  5
58B57
  8
3
 10
205.76261281845231
 20
109.04839056509169
 30
0.0
  0
VERTEX
  5
58B58
  8
3
 10
205.99939381885409
 20
108.9033473868801
 30
0.0
  0
VERTEX
  5
58B59
  8
3
 10
206.22577787388639
 20
108.77348371356091
 30
0.0
  0
VERTEX
  5
58B5A
  8
3
 10
206.43663402017981
 20
108.66393368095331
 30
0.0
  0
VERTEX
  5
58B5B
  8
3
 10
206.58362259176511
 20
108.5972158303081
 30
0.0
  0
VERTEX
  5
58B5C
  8
3
 10
206.71891388264001
 20
108.54626450633739
 30
0.0
  0
VERTEX
  5
58B5D
  8
3
 10
206.8427466389594
 20
108.5128518299453
 30
0.0
  0
VERTEX
  5
58B5E
  8
3
 10
206.95197261338569
 20
108.5000610759338
 30
0.0
  0
VERTEX
  5
58B5F
  8
3
 10
206.95930299036939
 20
108.5
 30
0.0
  0
SEQEND
  5
58B60
  8
3
  0
POLYLINE
  5
5855F
  8
0
 66
     1
 10
0.0
 20
0.0
 30
0.0
  0
VERTEX
  5
58B61
  8
0
 10
207.2272255750517
 20
108.5
 30
0.0
  0
VERTEX
  5
58B62
  8
0
 10
207.24996094949279
 20
108.97927431414421
 30
0.0
  0
VERTEX
  5
58B63
  8
0
 10
207.25
 20
109.0
 30
0.0
  0
SEQEND
  5
58B64
  8
0
  0
LINE
  5
58560
  8
0
 10
207.25
 20
109.0
 30
0.0
 11
207.25
 21
117.0
 31
0.0
  0
LINE
  5
58561
  8
0
 10
196.25
 20
109.0
 30
0.0
 11
196.25
 21
117.0
 31
0.0
  0
POLYLINE
  5
58562
  8
0
 66
     1
 10
0.0
 20
0.0
 30
0.0
  0
VERTEX
  5
58B65
  8
0
 10
196.25
 20
109.0
 30
0.0
  0
VERTEX
  5
58B66
  8
0
 10
196.2709291604954
 20
108.5206434148879
 30
0.0
  0
VERTEX
  5
58B67
  8
0
 10
196.2727744249483
 20
108.5
 30
0.0
  0
SEQEND
  5
58B68
  8
0
  0
LINE
  5
58563
  8
0
 10
196.2727744249483
 20
108.5
 30
0.0
 11
207.2272255750517
 21
108.5
 31
0.0
  0
POLYLINE
  5
58564
  8
3
 66
     1
 10
0.0
 20
0.0
 30
0.0
  0
VERTEX
  5
58B69
  8
3
 10
198.5877223398316
 20
117.0
 30
0.0
  0
VERTEX
  5
58B6A
  8
3
 10
198.795536299292
 20
116.9902799226963
 30
0.0
  0
VERTEX
  5
58B6B
  8
3
 10
199.00990762260199
 20
116.96318312825559
 30
0.0
  0
VERTEX
  5
58B6C
  8
3
 10
199.2321470582782
 20
116.9208877426222
 30
0.0
  0
VERTEX
  5
58B6D
  8
3
 10
199.4586124770023
 20
116.866051774536
 30
0.0
  0
VERTEX
  5
58B6E
  8
3
 10
199.831704043934
 20
116.7559553089107
 30
0.0
  0
VERTEX
  5
58B6F
  8
3
 10
200.2123643092965
 20
116.6249197232038
 30
0.0
  0
VERTEX
  5
58B70
  8
3
 10
200.6039714848381
 20
116.4763111898901
 30
0.0
  0
VERTEX
  5
58B71
  8
3
 10
200.99998652056431
 20
116.31641212853479
 30
0.0
  0
VERTEX
  5
58B72
  8
3
 10
201.36716380232139
 20
116.1627953190828
 30
0.0
  0
VERTEX
  5
58B73
  8
3
 10
201.73635617211809
 20
116.0058177281563
 30
0.0
  0
VERTEX
  5
58B74
  8
3
 10
201.75
 20
116.0
 30
0.0
  0
SEQEND
  5
58B75
  8
3
  0
POLYLINE
  5
58565
  8
3
 66
     1
 10
0.0
 20
0.0
 30
0.0
  0
VERTEX
  5
58B76
  8
3
 10
201.75
 20
116.0
 30
0.0
  0
VERTEX
  5
58B77
  8
3
 10
201.76364382788191
 20
116.0058177281563
 30
0.0
  0
VERTEX
  5
58B78
  8
3
 10
202.13140171709921
 20
116.1621886683223
 30
0.0
  0
VERTEX
  5
58B79
  8
3
 10
202.50001347943569
 20
116.31641212853479
 30
0.0
  0
VERTEX
  5
58B7A
  8
3
 10
202.88423111164701
 20
116.4716672132064
 30
0.0
  0
VERTEX
  5
58B7B
  8
3
 10
203.26825044330661
 20
116.6178511627248
 30
0.0
  0
VERTEX
  5
58B7C
  8
3
 10
203.65580749454631
 20
116.7519206607578
 30
0.0
  0
VERTEX
  5
58B7D
  8
3
 10
204.04138752299761
 20
116.866051774536
 30
0.0
  0
VERTEX
  5
58B7E
  8
3
 10
204.2619928732708
 20
116.91960646409861
 30
0.0
  0
VERTEX
  5
58B7F
  8
3
 10
204.48044800733589
 20
116.9616228624366
 30
0.0
  0
VERTEX
  5
58B80
  8
3
 10
204.6982549930234
 20
116.9897173431435
 30
0.0
  0
VERTEX
  5
58B81
  8
3
 10
204.9122776601684
 20
117.0
 30
0.0
  0
SEQEND
  5
58B82
  8
3
  0
LINE
  5
58585
  8
1
 10
50.0
 20
124.5
 30
0.0
 11
50.0
 21
69.0
 31
0.0
  0
POLYLINE
  5
58586
  8
0
 66
     1
 10
0.0
 20
0.0
 30
0.0
  0
VERTEX
  5
58B83
  8
0
 10
56.481818181818198
 20
116.13089377090481
 30
0.0
  0
VERTEX
  5
58B84
  8
0
 10
56.397286496558401
 20
116.198934249544
 30
0.0
  0
VERTEX
  5
58B85
  8
0
 10
56.319043403341588
 20
116.2785323779453
 30
0.0
  0
VERTEX
  5
58B86
  8
0
 10
56.245520008380169
 20
116.3724523322259
 30
0.0
  0
VERTEX
  5
58B87
  8
0
 10
56.17909379575832
 20
116.4784892285432
 30
0.0
  0
VERTEX
  5
58B88
  8
0
 10
56.121985767229141
 20
116.5917156785798
 30
0.0
  0
VERTEX
  5
58B89
  8
0
 10
56.071554698168818
 20
116.7152865563239
 30
0.0
  0
VERTEX
  5
58B8A
  8
0
 10
56.026445126504107
 20
116.8530123596192
 30
0.0
  0
VERTEX
  5
58B8B
  8
0
 10
55.988231534321983
 20
117.0
 30
0.0
  0
SEQEND
  5
58B8C
  8
0
  0
LINE
  5
58587
  8
0
 10
46.309523809523789
 20
117.0
 30
0.0
 11
44.011768465678017
 21
117.0
 31
0.0
  0
LINE
  5
58588
  8
0
 10
55.988231534321983
 20
117.0
 30
0.0
 11
53.690476190476197
 21
117.0
 31
0.0
  0
POLYLINE
  5
58589
  8
0
 66
     1
 10
0.0
 20
0.0
 30
0.0
  0
VERTEX
  5
58B8D
  8
0
 10
44.011768465678017
 20
117.0
 30
0.0
  0
VERTEX
  5
58B8E
  8
0
 10
43.976260837223968
 20
116.8623380476473
 30
0.0
  0
VERTEX
  5
58B8F
  8
0
 10
43.93473670402966
 20
116.7327104078835
 30
0.0
  0
VERTEX
  5
58B90
  8
0
 10
43.885487075778883
 20
116.6084331787181
 30
0.0
  0
VERTEX
  5
58B91
  8
0
 10
43.829636842868773
 20
116.4943005842841
 30
0.0
  0
VERTEX
  5
58B92
  8
0
 10
43.76376587496884
 20
116.3859210109073
 30
0.0
  0
VERTEX
  5
58B93
  8
0
 10
43.690685640102032
 20
116.2897796803493
 30
0.0
  0
VERTEX
  5
58B94
  8
0
 10
43.608010971458043
 20
116.2037768721738
 30
0.0
  0
VERTEX
  5
58B95
  8
0
 10
43.518181818181802
 20
116.13089377090481
 30
0.0
  0
SEQEND
  5
58B96
  8
0
  0
LINE
  5
5858A
  8
0
 10
52.69047619005476
 20
119.5
 30
0.0
 11
47.309523809523803
 21
119.5
 31
0.0
  0
ARC
  5
5858B
  8
0
 10
47.309523809523803
 20
118.5
 30
0.0
 40
1.0000000000000031
 50
90.0
 51
180.0
  0
ARC
  5
5858C
  8
0
 10
52.690476190476197
 20
118.5
 30
0.0
 40
1.000000000000002
 50
0.0
 51
90.0
  0
LINE
  5
5858D
  8
0
 10
46.309523809523789
 20
118.5
 30
0.0
 11
46.309523809523789
 21
116.0
 31
0.0
  0
LINE
  5
5858E
  8
0
 10
53.690476190476197
 20
116.0
 30
0.0
 11
53.690476190476197
 21
118.5
 31
0.0
  0
LINE
  5
58590
  8
0
 10
45.199999999999982
 20
90.199999999999989
 30
0.0
 11
45.199999999999982
 21
90.0
 31
0.0
  0
LINE
  5
58591
  8
0
 10
54.800000000000011
 20
90.0
 30
0.0
 11
54.800000000000011
 21
90.199999999999989
 31
0.0
  0
LINE
  5
58592
  8
0
 10
54.800000000000011
 20
90.0
 30
0.0
 11
45.199999999999982
 21
90.0
 31
0.0
  0
LINE
  5
58593
  8
0
 10
44.0
 20
96.0
 30
0.0
 11
44.0
 21
90.199999999999989
 31
0.0
  0
LINE
  5
58594
  8
0
 10
56.0
 20
90.199999999999989
 30
0.0
 11
56.0
 21
96.0
 31
0.0
  0
LINE
  5
58595
  8
0
 10
56.0
 20
90.199999999999989
 30
0.0
 11
44.0
 21
90.199999999999989
 31
0.0
  0
POLYLINE
  5
58596
  8
0
 66
     1
 10
0.0
 20
0.0
 30
0.0
  0
VERTEX
  5
58B97
  8
0
 10
56.711696879329388
 20
116.0
 30
0.0
  0
VERTEX
  5
58B98
  8
0
 10
56.598422452074942
 20
116.0561801706165
 30
0.0
  0
VERTEX
  5
58B99
  8
0
 10
56.481818181818198
 20
116.13089377090481
 30
0.0
  0
SEQEND
  5
58B9A
  8
0
  0
POLYLINE
  5
58597
  8
0
 66
     1
 10
0.0
 20
0.0
 30
0.0
  0
VERTEX
  5
58B9B
  8
0
 10
43.518181818181802
 20
116.13089377090481
 30
0.0
  0
VERTEX
  5
58B9C
  8
0
 10
43.440333335708431
 20
116.0791694281922
 30
0.0
  0
VERTEX
  5
58B9D
  8
0
 10
43.288303120670612
 20
115.9999999999997
 30
0.0
  0
SEQEND
  5
58B9E
  8
0
  0
LINE
  5
58598
  8
0
 10
42.25
 20
116.0
 30
0.0
 11
42.25
 21
96.0
 31
0.0
  0
LINE
  5
58599
  8
0
 10
57.75
 20
96.0
 30
0.0
 11
57.75
 21
116.0
 31
0.0
  0
LINE
  5
5859A
  8
0
 10
57.75
 20
116.0
 30
0.0
 11
42.25
 21
116.0
 31
0.0
  0
LINE
  5
5859B
  8
0
 10
57.75
 20
96.0
 30
0.0
 11
42.25
 21
96.0
 31
0.0
  0
LINE
  5
585A7
  8
1
 10
95.0
 20
169.5
 30
0.0
 11
156.75
 21
169.5
 31
0.0
  0
LINE
  5
585A8
  8
1
 10
107.75
 20
156.75
 30
0.0
 11
107.75
 21
182.25
 31
0.0
  0
ARC
  5
585A9
  8
0
 10
107.75
 20
169.5
 30
0.0
 40
7.7499999999999991
 50
60.00000000000054
 51
299.99999999999937
  0
ARC
  5
585AA
  8
0
 10
115.2874067158406
 20
181.0
 30
0.0
 40
5.9999999999999929
 50
246.7263332223441
 51
270.0
  0
LINE
  5
585AB
  8
0
 10
146.25
 20
164.0
 30
0.0
 11
115.2874067158406
 21
164.0
 31
0.0
  0
LINE
  5
585AC
  8
0
 10
115.2874067158406
 20
175.0
 30
0.0
 11
146.25
 21
175.0
 31
0.0
  0
ARC
  5
585AD
  8
0
 10
146.25
 20
169.5
 30
0.0
 40
5.4999999999999849
 50
35.096801227584727
 51
90.0
  0
ARC
  5
585AE
  8
0
 10
146.25
 20
169.49999999999989
 30
0.0
 40
5.4999999999999512
 50
270.0
 51
324.90319877241529
  0
ARC
  5
585AF
  8
0
 10
115.2874067158406
 20
158.0
 30
0.0
 40
5.9999999999999973
 50
90.0
 51
113.2736667776559
  0
POLYLINE
  5
585B0
  8
0
 66
     1
 10
0.0
 20
0.0
 30
0.0
  0
VERTEX
  5
58B9F
  8
0
 10
150.75
 20
166.3377223398316
 30
0.0
  0
VERTEX
  5
58BA0
  8
0
 10
150.88908872961039
 20
166.545536299292
 30
0.0
  0
VERTEX
  5
58BA1
  8
0
 10
151.0188461668757
 20
166.75990762260199
 30
0.0
  0
VERTEX
  5
58BA2
  8
0
 10
151.139827866486
 20
166.98214705827809
 30
0.0
  0
VERTEX
  5
58BA3
  8
0
 10
151.2499543217364
 20
167.2086124770023
 30
0.0
  0
VERTEX
  5
58BA4
  8
0
 10
151.40462322822339
 20
167.581704043934
 30
0.0
  0
VERTEX
  5
58BA5
  8
0
 10
151.5306890159026
 20
167.96236430929639
 30
0.0
  0
VERTEX
  5
58BA6
  8
0
 10
151.62927677689439
 20
168.3539714848381
 30
0.0
  0
VERTEX
  5
58BA7
  8
0
 10
151.69862182397199
 20
168.74998652056419
 30
0.0
  0
VERTEX
  5
58BA8
  8
0
 10
151.7366598624069
 20
169.11716380232139
 30
0.0
  0
VERTEX
  5
58BA9
  8
0
 10
151.74998307687949
 20
169.48635617211801
 30
0.0
  0
VERTEX
  5
58BAA
  8
0
 10
151.75
 20
169.5
 30
0.0
  0
SEQEND
  5
58BAB
  8
0
  0
POLYLINE
  5
585B1
  8
0
 66
     1
 10
0.0
 20
0.0
 30
0.0
  0
VERTEX
  5
58BAC
  8
0
 10
151.75
 20
169.5
 30
0.0
  0
VERTEX
  5
58BAD
  8
0
 10
151.74998307687949
 20
169.51364382788191
 30
0.0
  0
VERTEX
  5
58BAE
  8
0
 10
151.73675976603619
 20
169.8814017170991
 30
0.0
  0
VERTEX
  5
58BAF
  8
0
 10
151.69862182397199
 20
170.25001347943569
 30
0.0
  0
VERTEX
  5
58BB0
  8
0
 10
151.63177663837621
 20
170.63423111164701
 30
0.0
  0
VERTEX
  5
58BB1
  8
0
 10
151.53629507229769
 20
171.01825044330661
 30
0.0
  0
VERTEX
  5
58BB2
  8
0
 10
151.4092536082006
 20
171.40580749454631
 30
0.0
  0
VERTEX
  5
58BB3
  8
0
 10
151.2499543217364
 20
171.79138752299761
 30
0.0
  0
VERTEX
  5
58BB4
  8
0
 10
151.1428408726054
 20
172.0119928732708
 30
0.0
  0
VERTEX
  5
58BB5
  8
0
 10
151.02437468986619
 20
172.23044800733589
 30
0.0
  0
VERTEX
  5
58BB6
  8
0
 10
150.89303699060349
 20
172.4482549930234
 30
0.0
  0
VERTEX
  5
58BB7
  8
0
 10
150.75
 20
172.6622776601684
 30
0.0
  0
SEQEND
  5
58BB8
  8
0
  0
POLYLINE
  5
585B3
  8
0
 66
     1
 10
0.0
 20
0.0
 30
0.0
  0
VERTEX
  5
58BB9
  8
0
 10
112.9166666666666
 20
175.48823153432201
 30
0.0
  0
VERTEX
  5
58BBA
  8
0
 10
112.8357617117296
 20
175.523739162776
 30
0.0
  0
VERTEX
  5
58BBB
  8
0
 10
112.7450383401184
 20
175.56526329597031
 30
0.0
  0
VERTEX
  5
58BBC
  8
0
 10
112.6423181231051
 20
175.61451292422109
 30
0.0
  0
VERTEX
  5
58BBD
  8
0
 10
112.531509199035
 20
175.67036315713119
 30
0.0
  0
VERTEX
  5
58BBE
  8
0
 10
112.4077027243646
 20
175.7362341250311
 30
0.0
  0
VERTEX
  5
58BBF
  8
0
 10
112.2779578318025
 20
175.809314359898
 30
0.0
  0
VERTEX
  5
58BC0
  8
0
 10
112.1396892730469
 20
175.8919890285419
 30
0.0
  0
VERTEX
  5
58BC1
  8
0
 10
111.9983565125647
 20
175.9818181818182
 30
0.0
  0
SEQEND
  5
58BC2
  8
0
  0
POLYLINE
  5
585B4
  8
0
 66
     1
 10
0.0
 20
0.0
 30
0.0
  0
VERTEX
  5
58BC3
  8
0
 10
111.9983565125647
 20
175.9818181818182
 30
0.0
  0
VERTEX
  5
58BC4
  8
0
 10
111.8771386278367
 20
176.0596666642916
 30
0.0
  0
VERTEX
  5
58BC5
  8
0
 10
111.6250000000001
 20
176.21169687932939
 30
0.0
  0
SEQEND
  5
58BC6
  8
0
  0
POLYLINE
  5
585B6
  8
0
 66
     1
 10
0.0
 20
0.0
 30
0.0
  0
VERTEX
  5
58BC7
  8
0
 10
111.625
 20
162.78830312067061
 30
0.0
  0
VERTEX
  5
58BC8
  8
0
 10
111.8148888230741
 20
162.901577547925
 30
0.0
  0
VERTEX
  5
58BC9
  8
0
 10
111.9983565125647
 20
163.0181818181818
 30
0.0
  0
SEQEND
  5
58BCA
  8
0
  0
POLYLINE
  5
585B7
  8
0
 66
     1
 10
0.0
 20
0.0
 30
0.0
  0
VERTEX
  5
58BCB
  8
0
 10
111.9983565125647
 20
163.0181818181818
 30
0.0
  0
VERTEX
  5
58BCC
  8
0
 10
112.13110539896719
 20
163.10271350344161
 30
0.0
  0
VERTEX
  5
58BCD
  8
0
 10
112.26123938015979
 20
163.1809565966584
 30
0.0
  0
VERTEX
  5
58BCE
  8
0
 10
112.3907937473315
 20
163.2544799916198
 30
0.0
  0
VERTEX
  5
58BCF
  8
0
 10
112.51469014798479
 20
163.32090620424171
 30
0.0
  0
VERTEX
  5
58BD0
  8
0
 10
112.62715771259271
 20
163.37801423277079
 30
0.0
  0
VERTEX
  5
58BD1
  8
0
 10
112.73163254642991
 20
163.42844530183109
 30
0.0
  0
VERTEX
  5
58BD2
  8
0
 10
112.82972680713689
 20
163.4735548734958
 30
0.0
  0
VERTEX
  5
58BD3
  8
0
 10
112.9166666666666
 20
163.51176846567799
 30
0.0
  0
SEQEND
  5
58BD4
  8
0
  0
LINE
  5
585B8
  8
3
 10
112.9166666666666
 20
163.51176846567799
 30
0.0
 11
112.9166666666666
 21
175.48823153432201
 31
0.0
  0
CIRCLE
  5
585BB
  8
0
 10
107.75
 20
169.5
 30
0.0
 40
3.6904761904761889
  0
LINE
  5
5864F
  8
3
 10
49.696999999999953
 20
90.199999999999989
 30
0.0
 11
49.696999999999953
 21
95.999999999999943
 31
0.0
  0
LINE
  5
58650
  8
3
 10
50.302999999999876
 20
90.199999999999989
 30
0.0
 11
50.302999999999876
 21
95.999999999999943
 31
0.0
  0
LINE
  5
58651
  8
3
 10
50.978420838150562
 20
90.199999999999989
 30
0.0
 11
50.978420838150562
 21
95.999999999999943
 31
0.0
  0
LINE
  5
58652
  8
3
 10
51.584420838150493
 20
90.199999999999989
 30
0.0
 11
51.584420838150493
 21
95.999999999999943
 31
0.0
  0
LINE
  5
58653
  8
3
 10
52.259841676301157
 20
90.199999999999989
 30
0.0
 11
52.259841676301193
 21
95.999999999999943
 31
0.0
  0
LINE
  5
58654
  8
3
 10
52.865841676301102
 20
90.199999999999989
 30
0.0
 11
52.865841676301102
 21
95.999999999999943
 31
0.0
  0
LINE
  5
58655
  8
3
 10
53.541262514451773
 20
90.199999999999989
 30
0.0
 11
53.541262514451773
 21
95.999999999999943
 31
0.0
  0
LINE
  5
58656
  8
3
 10
54.147262514451711
 20
90.199999999999989
 30
0.0
 11
54.147262514451711
 21
95.999999999999943
 31
0.0
  0
LINE
  5
58657
  8
3
 10
54.822683352602382
 20
90.199999999999989
 30
0.0
 11
54.822683352602347
 21
95.999999999999943
 31
0.0
  0
LINE
  5
58658
  8
3
 10
55.42868335260232
 20
90.199999999999989
 30
0.0
 11
55.42868335260232
 21
95.999999999999943
 31
0.0
  0
LINE
  5
58659
  8
3
 10
49.021579161849331
 20
90.199999999999989
 30
0.0
 11
49.021579161849331
 21
95.999999999999943
 31
0.0
  0
LINE
  5
5865A
  8
3
 10
48.415579161849386
 20
90.199999999999989
 30
0.0
 11
48.415579161849386
 21
95.999999999999943
 31
0.0
  0
LINE
  5
5865B
  8
3
 10
47.740158323698722
 20
90.199999999999989
 30
0.0
 11
47.740158323698751
 21
95.999999999999943
 31
0.0
  0
LINE
  5
5865C
  8
3
 10
47.134158323698777
 20
90.199999999999989
 30
0.0
 11
47.134158323698777
 21
95.999999999999943
 31
0.0
  0
LINE
  5
5865D
  8
3
 10
46.458737485548113
 20
90.199999999999989
 30
0.0
 11
46.458737485548113
 21
95.999999999999943
 31
0.0
  0
LINE
  5
5865E
  8
3
 10
45.852737485548182
 20
90.199999999999989
 30
0.0
 11
45.852737485548182
 21
95.999999999999943
 31
0.0
  0
LINE
  5
5865F
  8
3
 10
45.177316647397497
 20
90.199999999999989
 30
0.0
 11
45.177316647397483
 21
95.999999999999943
 31
0.0
  0
LINE
  5
58660
  8
3
 10
44.571316647397559
 20
90.199999999999989
 30
0.0
 11
44.571316647397559
 21
95.999999999999943
 31
0.0
  0
LINE
  5
58661
  8
3
 10
107.4469999999999
 20
90.199999999999989
 30
0.0
 11
107.4469999999999
 21
95.999999999999943
 31
0.0
  0
LINE
  5
58662
  8
3
 10
108.0529999999999
 20
90.199999999999989
 30
0.0
 11
108.0529999999999
 21
95.999999999999943
 31
0.0
  0
LINE
  5
58663
  8
3
 10
108.7284208381505
 20
90.199999999999989
 30
0.0
 11
108.7284208381505
 21
95.999999999999943
 31
0.0
  0
LINE
  5
58664
  8
3
 10
109.33442083815051
 20
90.199999999999989
 30
0.0
 11
109.33442083815051
 21
95.999999999999943
 31
0.0
  0
LINE
  5
58665
  8
3
 10
110.00984167630109
 20
90.199999999999989
 30
0.0
 11
110.00984167630121
 21
95.999999999999943
 31
0.0
  0
LINE
  5
58666
  8
3
 10
110.6158416763011
 20
90.199999999999989
 30
0.0
 11
110.6158416763011
 21
95.999999999999943
 31
0.0
  0
LINE
  5
58667
  8
3
 10
111.2912625144518
 20
90.199999999999989
 30
0.0
 11
111.2912625144518
 21
95.999999999999943
 31
0.0
  0
LINE
  5
58668
  8
3
 10
111.8972625144517
 20
90.199999999999989
 30
0.0
 11
111.8972625144517
 21
95.999999999999943
 31
0.0
  0
LINE
  5
58669
  8
3
 10
112.5726833526023
 20
90.199999999999989
 30
0.0
 11
112.5726833526023
 21
95.999999999999943
 31
0.0
  0
LINE
  5
5866A
  8
3
 10
113.17868335260231
 20
90.199999999999989
 30
0.0
 11
113.17868335260231
 21
95.999999999999943
 31
0.0
  0
LINE
  5
5866B
  8
3
 10
106.7715791618493
 20
90.199999999999989
 30
0.0
 11
106.7715791618493
 21
95.999999999999943
 31
0.0
  0
LINE
  5
5866C
  8
3
 10
106.16557916184939
 20
90.199999999999989
 30
0.0
 11
106.16557916184939
 21
95.999999999999943
 31
0.0
  0
LINE
  5
5866D
  8
3
 10
105.49015832369869
 20
90.199999999999989
 30
0.0
 11
105.49015832369869
 21
95.999999999999943
 31
0.0
  0
LINE
  5
5866E
  8
3
 10
104.8841583236988
 20
90.199999999999989
 30
0.0
 11
104.8841583236988
 21
95.999999999999943
 31
0.0
  0
LINE
  5
5866F
  8
3
 10
104.2087374855481
 20
90.199999999999989
 30
0.0
 11
104.2087374855481
 21
95.999999999999943
 31
0.0
  0
LINE
  5
58670
  8
3
 10
103.6027374855482
 20
90.199999999999989
 30
0.0
 11
103.6027374855482
 21
95.999999999999943
 31
0.0
  0
LINE
  5
58671
  8
3
 10
102.9273166473975
 20
90.199999999999989
 30
0.0
 11
102.9273166473974
 21
95.999999999999943
 31
0.0
  0
LINE
  5
58672
  8
3
 10
102.3213166473975
 20
90.199999999999989
 30
0.0
 11
102.3213166473975
 21
95.999999999999943
 31
0.0
  0
LINE
  5
58685
  8
3
 10
201.44699999999989
 20
90.199999999999989
 30
0.0
 11
201.44699999999989
 21
95.999999999999943
 31
0.0
  0
LINE
  5
58686
  8
3
 10
202.05299999999991
 20
90.199999999999989
 30
0.0
 11
202.05299999999991
 21
95.999999999999943
 31
0.0
  0
LINE
  5
58687
  8
3
 10
202.72842083815061
 20
90.199999999999989
 30
0.0
 11
202.72842083815061
 21
95.999999999999943
 31
0.0
  0
LINE
  5
58688
  8
3
 10
203.33442083815049
 20
90.199999999999989
 30
0.0
 11
203.33442083815049
 21
95.999999999999943
 31
0.0
  0
LINE
  5
58689
  8
3
 10
204.00984167630119
 20
90.199999999999989
 30
0.0
 11
204.00984167630119
 21
95.999999999999943
 31
0.0
  0
LINE
  5
5868A
  8
3
 10
204.6158416763011
 20
90.199999999999989
 30
0.0
 11
204.6158416763011
 21
95.999999999999943
 31
0.0
  0
LINE
  5
5868B
  8
3
 10
205.29126251445169
 20
90.199999999999989
 30
0.0
 11
205.29126251445169
 21
95.999999999999943
 31
0.0
  0
LINE
  5
5868C
  8
3
 10
205.89726251445171
 20
90.199999999999989
 30
0.0
 11
205.89726251445171
 21
95.999999999999943
 31
0.0
  0
LINE
  5
5868D
  8
3
 10
206.57268335260241
 20
90.199999999999989
 30
0.0
 11
206.5726833526023
 21
95.999999999999943
 31
0.0
  0
LINE
  5
5868E
  8
3
 10
207.17868335260229
 20
90.199999999999989
 30
0.0
 11
207.17868335260229
 21
95.999999999999943
 31
0.0
  0
LINE
  5
5868F
  8
3
 10
200.77157916184939
 20
90.199999999999989
 30
0.0
 11
200.77157916184939
 21
95.999999999999943
 31
0.0
  0
LINE
  5
58690
  8
3
 10
200.16557916184939
 20
90.199999999999989
 30
0.0
 11
200.16557916184939
 21
95.999999999999943
 31
0.0
  0
LINE
  5
58691
  8
3
 10
199.49015832369869
 20
90.199999999999989
 30
0.0
 11
199.49015832369869
 21
95.999999999999943
 31
0.0
  0
LINE
  5
58692
  8
3
 10
198.88415832369881
 20
90.199999999999989
 30
0.0
 11
198.88415832369881
 21
95.999999999999943
 31
0.0
  0
LINE
  5
58693
  8
3
 10
198.20873748554811
 20
90.199999999999989
 30
0.0
 11
198.20873748554811
 21
95.999999999999943
 31
0.0
  0
LINE
  5
58694
  8
3
 10
197.60273748554809
 20
90.199999999999989
 30
0.0
 11
197.60273748554809
 21
95.999999999999943
 31
0.0
  0
LINE
  5
58695
  8
3
 10
196.9273166473975
 20
90.199999999999989
 30
0.0
 11
196.9273166473975
 21
95.999999999999943
 31
0.0
  0
LINE
  5
58696
  8
3
 10
196.32131664739751
 20
90.199999999999989
 30
0.0
 11
196.32131664739751
 21
95.999999999999943
 31
0.0
  0
LINE
  5
5893A
  8
0
 10
204.13650000000001
 20
74.0
 30
0.0
 11
204.75
 21
74.613500000000002
 31
0.0
  0
LINE
  5
5893B
  8
0
 10
198.75
 20
74.613500000000002
 30
0.0
 11
199.36349999999999
 21
74.0
 31
0.0
  0
LINE
  5
5893C
  8
0
 10
204.13650000000001
 20
74.0
 30
0.0
 11
199.36349999999999
 21
74.0
 31
0.0
  0
LINE
  5
5893D
  8
0
 10
198.75
 20
90.0
 30
0.0
 11
198.75
 21
74.613500000000002
 31
0.0
  0
LINE
  5
5893E
  8
0
 10
204.75
 20
74.613500000000002
 30
0.0
 11
204.75
 21
90.0
 31
0.0
  0
LINE
  5
5893F
  8
0
 10
204.75
 20
74.613500000000002
 30
0.0
 11
198.75
 21
74.613500000000002
 31
0.0
  0
LINE
  5
58940
  8
3
 10
204.13650000000001
 20
74.0
 30
0.0
 11
204.13650000000001
 21
89.0
 31
0.0
  0
LINE
  5
58941
  8
3
 10
204.75
 20
90.0
 30
0.0
 11
204.13650000000001
 21
89.0
 31
0.0
  0
LINE
  5
58942
  8
0
 10
204.75
 20
89.0
 30
0.0
 11
198.75
 21
89.0
 31
0.0
  0
LINE
  5
58943
  8
3
 10
199.36349999999999
 20
74.0
 30
0.0
 11
199.36349999999999
 21
89.0
 31
0.0
  0
LINE
  5
58944
  8
3
 10
198.75
 20
90.0
 30
0.0
 11
199.36349999999999
 21
89.0
 31
0.0
  0
LINE
  5
58945
  8
0
 10
110.1365
 20
74.0
 30
0.0
 11
110.75
 21
74.613500000000002
 31
0.0
  0
LINE
  5
58946
  8
0
 10
104.75
 20
74.613500000000002
 30
0.0
 11
105.3634999999999
 21
74.0
 31
0.0
  0
LINE
  5
58947
  8
0
 10
110.1365
 20
74.0
 30
0.0
 11
105.3634999999999
 21
74.0
 31
0.0
  0
LINE
  5
58948
  8
0
 10
104.75
 20
90.0
 30
0.0
 11
104.75
 21
74.613500000000002
 31
0.0
  0
LINE
  5
58949
  8
0
 10
110.75
 20
74.613500000000002
 30
0.0
 11
110.75
 21
90.0
 31
0.0
  0
LINE
  5
5894A
  8
0
 10
110.75
 20
74.613500000000002
 30
0.0
 11
104.75
 21
74.613500000000002
 31
0.0
  0
LINE
  5
5894B
  8
3
 10
110.1365
 20
74.0
 30
0.0
 11
110.1365
 21
89.0
 31
0.0
  0
LINE
  5
5894C
  8
3
 10
110.75
 20
90.0
 30
0.0
 11
110.1365
 21
89.0
 31
0.0
  0
LINE
  5
5894D
  8
0
 10
110.75
 20
89.0
 30
0.0
 11
104.75
 21
89.0
 31
0.0
  0
LINE
  5
5894E
  8
3
 10
105.3634999999999
 20
74.0
 30
0.0
 11
105.3634999999999
 21
89.0
 31
0.0
  0
LINE
  5
5894F
  8
3
 10
104.75
 20
90.0
 30
0.0
 11
105.3634999999999
 21
89.0
 31
0.0
  0
LINE
  5
58950
  8
0
 10
52.386500000000012
 20
74.0
 30
0.0
 11
53.0
 21
74.613500000000002
 31
0.0
  0
LINE
  5
58951
  8
0
 10
47.0
 20
74.613500000000002
 30
0.0
 11
47.613499999999988
 21
74.0
 31
0.0
  0
LINE
  5
58952
  8
0
 10
52.386500000000012
 20
74.0
 30
0.0
 11
47.613499999999988
 21
74.0
 31
0.0
  0
LINE
  5
58953
  8
0
 10
47.0
 20
90.0
 30
0.0
 11
47.0
 21
74.613500000000002
 31
0.0
  0
LINE
  5
58954
  8
0
 10
53.0
 20
74.613500000000002
 30
0.0
 11
53.0
 21
90.0
 31
0.0
  0
LINE
  5
58955
  8
0
 10
53.0
 20
74.613500000000002
 30
0.0
 11
47.0
 21
74.613500000000002
 31
0.0
  0
LINE
  5
58956
  8
3
 10
52.386500000000012
 20
74.0
 30
0.0
 11
52.386500000000012
 21
89.0
 31
0.0
  0
LINE
  5
58957
  8
3
 10
53.0
 20
90.0
 30
0.0
 11
52.386500000000012
 21
89.0
 31
0.0
  0
LINE
  5
58958
  8
0
 10
53.0
 20
89.0
 30
0.0
 11
47.0
 21
89.0
 31
0.0
  0
LINE
  5
58959
  8
3
 10
47.613499999999988
 20
74.0
 30
0.0
 11
47.613499999999988
 21
89.0
 31
0.0
  0
LINE
  5
5895A
  8
3
 10
47.0
 20
90.0
 30
0.0
 11
47.613499999999988
 21
89.0
 31
0.0
  0
VIEWPORT
  5
1EC2F
 67
     1
  8
0
 10
261.51769911504419
 20
148.5
 30
0.0
 40
523.0353982300885
 41
297.0
 68
     1
 69
     1
1001
ACAD
1000
MVIEW
1002
{
1070
    16
1010
0.0
1020
0.0
1030
0.0
1010
0.0
1020
0.0
1030
1.0
1040
0.0
1040
297.0
1040
261.51769911504419
1040
148.5
1040
50.0
1040
0.0
1040
0.0
1070
     0
1070
   100
1070
     1
1070
     1
1070
     0
1070
     0
1070
     0
1070
     0
1040
0.0
1040
0.0
1040
0.0
1040
1.0
1040
1.0
1040
10.0
1040
10.0
1070
     0
1002
{
1002
}
1002
}
  0
ENDSEC
  0
EOF
