  0
SECTION
  2
HEADER
  9
$ACADVER
  1
AC1009
  9
$INSBASE
 10
0.0
 20
0.0
 30
0.0
  9
$EXTMIN
 10
0.0
 20
-2.960436562073669
 30
0.0
  9
$EXTMAX
 10
195.5
 20
162.25
 30
0.0
  9
$LIMMIN
 10
0.0
 20
0.0
  9
$LIMMAX
 10
390.0
 20
270.0
  9
$ORTHOMODE
 70
     1
  9
$REGENMODE
 70
     1
  9
$FILLMODE
 70
     1
  9
$QTEXTMODE
 70
     0
  9
$MIRRTEXT
 70
     1
  9
$DRAGMODE
 70
     2
  9
$LTSCALE
 40
5.0
  9
$OSMODE
 70
    37
  9
$ATTMODE
 70
     1
  9
$TEXTSIZE
 40
2.5
  9
$TRACEWID
 40
1.0
  9
$TEXTSTYLE
  7
STANDARD
  9
$CLAYER
  8
0
  9
$CELTYPE
  6
BYLAYER
  9
$CECOLOR
 62
   256
  9
$DIMSCALE
 40
1.0
  9
$DIMASZ
 40
3.0
  9
$DIMEXO
 40
1.0
  9
$DIMDLI
 40
6.0
  9
$DIMRND
 40
0.0
  9
$DIMDLE
 40
0.0
  9
$DIMEXE
 40
1.0
  9
$DIMTP
 40
495.0
  9
$DIMTM
 40
0.0
  9
$DIMTXT
 40
2.5
  9
$DIMCEN
 40
0.0
  9
$DIMTSZ
 40
0.0
  9
$DIMTOL
 70
     0
  9
$DIMLIM
 70
     0
  9
$DIMTIH
 70
     0
  9
$DIMTOH
 70
     0
  9
$DIMSE1
 70
     0
  9
$DIMSE2
 70
     0
  9
$DIMTAD
 70
     1
  9
$DIMZIN
 70
     8
  9
$DIMBLK
  1

  9
$DIMASO
 70
     0
  9
$DIMSHO
 70
     1
  9
$DIMPOST
  1

  9
$DIMAPOST
  1

  9
$DIMALT
 70
     0
  9
$DIMALTD
 70
     2
  9
$DIMALTF
 40
25.399999999999999
  9
$DIMLFAC
 40
1.0
  9
$DIMTOFL
 70
     1
  9
$DIMTVP
 40
0.0
  9
$DIMTIX
 70
     1
  9
$DIMSOXD
 70
     0
  9
$DIMSAH
 70
     0
  9
$DIMBLK1
  1

  9
$DIMBLK2
  1

  9
$DIMSTYLE
  2
ITM
  9
$DIMCLRD
 70
   256
  9
$DIMCLRE
 70
   256
  9
$DIMCLRT
 70
   256
  9
$DIMTFAC
 40
1.0
  9
$DIMGAP
 40
1.0
  9
$LUNITS
 70
     2
  9
$LUPREC
 70
     1
  9
$SKETCHINC
 40
1.0
  9
$FILLETRAD
 40
0.4
  9
$AUNITS
 70
     0
  9
$AUPREC
 70
     1
  9
$MENU
  1
.
  9
$ELEVATION
 40
0.0
  9
$PELEVATION
 40
0.0
  9
$THICKNESS
 40
0.0
  9
$LIMCHECK
 70
     0
  9
$BLIPMODE
 70
     0
  9
$CHAMFERA
 40
1.1999999999999991
  9
$CHAMFERB
 40
1.1999999999999991
  9
$SKPOLY
 70
     0
  9
$TDCREATE
 40
2453354.0921258219
  9
$TDUPDATE
 40
2457168.5538303941
  9
$TDINDWG
 40
513.88765405089998
  9
$TDUSRTIMER
 40
513.88737607639996
  9
$USRTIMER
 70
     1
  9
$ANGBASE
 50
0.0
  9
$ANGDIR
 70
     0
  9
$PDMODE
 70
     0
  9
$PDSIZE
 40
0.0
  9
$PLINEWID
 40
0.0
  9
$COORDS
 70
     1
  9
$SPLFRAME
 70
     0
  9
$SPLINETYPE
 70
     6
  9
$SPLINESEGS
 70
     8
  9
$ATTDIA
 70
     0
  9
$ATTREQ
 70
     1
  9
$HANDLING
 70
     1
  9
$HANDSEED
  5
586DD
  9
$SURFTAB1
 70
     6
  9
$SURFTAB2
 70
     6
  9
$SURFTYPE
 70
     6
  9
$SURFU
 70
     6
  9
$SURFV
 70
     6
  9
$UCSNAME
  2

  9
$UCSORG
 10
0.0
 20
0.0
 30
0.0
  9
$UCSXDIR
 10
1.0
 20
0.0
 30
0.0
  9
$UCSYDIR
 10
0.0
 20
1.0
 30
0.0
  9
$PUCSNAME
  2

  9
$PUCSORG
 10
0.0
 20
0.0
 30
0.0
  9
$PUCSXDIR
 10
1.0
 20
0.0
 30
0.0
  9
$PUCSYDIR
 10
0.0
 20
1.0
 30
0.0
  9
$USERI1
 70
     4
  9
$USERI2
 70
     1
  9
$USERI3
 70
     1
  9
$USERI4
 70
     0
  9
$USERI5
 70
     0
  9
$USERR1
 40
1.0
  9
$USERR2
 40
3.0
  9
$USERR3
 40
3.2000000000000002
  9
$USERR4
 40
3.0
  9
$USERR5
 40
10.0
  9
$WORLDVIEW
 70
     1
  9
$SHADEDGE
 70
     3
  9
$SHADEDIF
 70
    70
  9
$TILEMODE
 70
     1
  9
$MAXACTVP
 70
    16
  9
$PLIMCHECK
 70
     0
  9
$PEXTMIN
 10
0.0
 20
0.0
 30
0.0
  9
$PEXTMAX
 10
0.0
 20
0.0
 30
0.0
  9
$PLIMMIN
 10
0.0
 20
0.0
  9
$PLIMMAX
 10
12.0
 20
9.0
  9
$UNITMODE
 70
     0
  9
$VISRETAIN
 70
     0
  9
$PLINEGEN
 70
     0
  9
$PSLTSCALE
 70
     1
  0
ENDSEC
  0
SECTION
  2
TABLES
  0
TABLE
  2
VPORT
 70
     1
  0
VPORT
  2
*ACTIVE
 70
     0
 10
0.0
 20
0.0
 11
1.0
 21
1.0
 12
208.27245720408109
 22
114.67236467236459
 13
0.0
 23
0.0
 14
5.0
 24
5.0
 15
10.0
 25
10.0
 16
0.0
 26
0.0
 36
1.0
 17
0.0
 27
0.0
 37
0.0
 40
229.3447293447293
 41
1.816239316239316
 42
50.0
 43
0.0
 44
0.0
 50
0.0
 51
0.0
 71
    16
 72
   500
 73
     1
 74
     1
 75
     0
 76
     0
 77
     0
 78
     1
  0
ENDTAB
  0
TABLE
  2
LTYPE
 70
     3
  0
LTYPE
  2
CONTINUOUS
 70
     0
  3
Solid line
 72
    65
 73
     0
 40
0.0
  0
LTYPE
  2
CENTER
 70
     0
  3
____ _ ____ _ ____ _ ____ _ ____ _ ____ _ ____
 72
    65
 73
     4
 40
2.0
 49
1.25
 49
-0.25
 49
0.25
 49
-0.25
  0
LTYPE
  2
PHANTOM2
 70
     0
  3
___ _ _ ___ _ _ ___ _ _ ___ _ _
 72
    65
 73
     6
 40
1.25
 49
0.625
 49
-0.125
 49
0.125
 49
-0.125
 49
0.125
 49
-0.125
  0
ENDTAB
  0
TABLE
  2
LAYER
 70
     5
  0
LAYER
  2
0
 70
     0
 62
     7
  6
CONTINUOUS
  0
LAYER
  2
1
 70
     0
 62
     1
  6
CENTER
  0
LAYER
  2
WAKU
 70
     0
 62
     5
  6
CONTINUOUS
  0
LAYER
  2
DEFPOINTS
 70
     0
 62
     7
  6
CONTINUOUS
  0
LAYER
  2
3
 70
     0
 62
     3
  6
CONTINUOUS
  0
ENDTAB
  0
TABLE
  2
STYLE
 70
     3
  0
STYLE
  2
STANDARD
 70
     0
 40
0.0
 41
1.0
 50
0.0
 71
     0
 42
2.5
  3
ROMANS
  4
EXTFONT
  0
STYLE
  2
K
 70
     0
 40
0.0
 41
0.75
 50
0.0
 71
     0
 42
3.2000000000000002
  3
ROMANS.shx
  4
EXTFONT.shx
  0
STYLE
  2
STANDARD1
 70
     0
 40
0.0
 41
1.0
 50
0.0
 71
     0
 42
3.0
  3
txt
  4

  0
ENDTAB
  0
TABLE
  2
VIEW
 70
     2
  0
VIEW
  2
OLE1
 70
     0
 40
151.81220504325799
 10
73.676474473531471
 20
85.209442582639014
 41
295.93771616027522
 11
0.0
 21
0.0
 31
1.0
 12
0.0
 22
0.0
 32
0.0
 42
50.0
 43
0.0
 44
0.0
 50
0.0
 71
    16
  0
VIEW
  2
OLE2
 70
     0
 40
12.66566269640963
 10
177.82767580922561
 20
80.089748755761136
 41
24.690026015785861
 11
0.0
 21
0.0
 31
1.0
 12
0.0
 22
0.0
 32
0.0
 42
50.0
 43
0.0
 44
0.0
 50
0.0
 71
    16
  0
ENDTAB
  0
TABLE
  2
UCS
 70
     0
  0
ENDTAB
  0
TABLE
  2
APPID
 70
    49
  0
APPID
  2
ACAD
 70
     0
  0
APPID
  2
COMM
 70
     0
  0
APPID
  2
DCO15
 70
     0
  0
APPID
  2
GENIUS_GENOREF_13
 70
     0
  0
APPID
  2
GENIUS_GENOENT_13
 70
     0
  0
APPID
  2
GENIUS_GENBH_13
 70
     0
  0
APPID
  2
GENIUS_GENOBJ_13
 70
     0
  0
APPID
  2
GENIUS_GENODEF_13
 70
     0
  0
APPID
  2
GENIUS_GENOLIS_13
 70
     0
  0
APPID
  2
GENIUS_GENOBJ-NBEHI-BHF_13
 70
     0
  0
APPID
  2
GENIUS_GENOBJ-NBEHI-BHB_13
 70
     0
  0
APPID
  2
GENIUS_GENOBJ-F-PART_13
 70
     0
  0
APPID
  2
GENIUS_GEFSTDP_13
 70
     0
  0
APPID
  2
GENIUS_GENOBJ-N-RSSYM_13
 70
     0
  0
APPID
  2
GENIUS_GENSYMENT_13
 70
     0
  0
APPID
  2
GENIUS_GENOBJ-N-TIT_13
 70
     0
  0
APPID
  2
GENIUS_GENTITLE_13
 70
     0
  0
APPID
  2
GENIUS_GENZVEED_13
 70
     0
  0
APPID
  2
GENIUS_GENOBJ-N-LEADER_13
 70
     0
  0
APPID
  2
GENIUS_GENOBJ-N-FIL_13
 70
     0
  0
APPID
  2
GENIUS_GENOBJ-N-SEC_13
 70
     0
  0
APPID
  2
GENIUS_GENOBJ-N-CRS_13
 70
     0
  0
APPID
  2
GENIUS_GENOBJ-N-ZOO_13
 70
     0
  0
APPID
  2
GENIUS_GENZOO_13
 70
     0
  0
APPID
  2
GENIUS_GENOBJ-F-TOL_13
 70
     0
  0
APPID
  2
GENIUS_GENFIL_13
 70
     0
  0
APPID
  2
GENIUS_GENOBJ-N-CHA_13
 70
     0
  0
APPID
  2
_CALL_MAC$
 70
     0
  0
APPID
  2
ASM_BASE
 70
     0
  0
APPID
  2
ASM_EXPLO_VER_2_00
 70
     0
  0
APPID
  2
ASM_CADM_VER_12_00
 70
     0
  0
APPID
  2
ASM_BASEFORO
 70
     0
  0
APPID
  2
ASM_BASETRAVI
 70
     0
  0
APPID
  2
ASM_BASETRAVI1
 70
     0
  0
APPID
  2
ASM_GRUPPI
 70
     0
  0
APPID
  2
ASM_CADM_ALBERO
 70
     0
  0
APPID
  2
ASM_GOLE
 70
     0
  0
APPID
  2
GENIUS_GEFINERT_13
 70
     0
  0
APPID
  2
GENIUS_GENOBJ-F-INER_13
 70
     0
  0
APPID
  2
GENIUS_GENDTOL_13
 70
     0
  0
APPID
  2
AD_SKETCHDIM
 70
     0
  0
APPID
  2
GENIUS_GENSCREG_15
 70
     0
  0
APPID
  2
GENIUS_GENOBJ-N-SDF_13
 70
     0
  0
APPID
  2
GENIUS_GENOBJ-N-CEN_13
 70
     0
  0
APPID
  2
ACAD_MLEADERVER
 70
     0
  0
APPID
  2
ACAD_EXEMPT_FROM_CAD_STANDARDS
 70
     0
  0
APPID
  2
ACAD_NAV_VCDISPLAY
 70
     0
  0
APPID
  2
ACAD_DSTYLE_DIMJAG
 70
     0
  0
APPID
  2
ACAD_DSTYLE_DIMTALN
 70
     0
  0
ENDTAB
  0
TABLE
  2
DIMSTYLE
 70
     2
  0
DIMSTYLE
  2
ITM
 70
     0
  3

  4

  5

  6

  7

 40
0.0
 41
2.5
 42
1.0
 43
6.0
 44
1.0
 45
0.0
 46
0.0
 47
495.0
 48
0.0
140
3.0
141
0.0
142
0.0
143
25.399999999999999
144
1.0
145
0.0
146
1.0
147
1.0
 71
     0
 72
     0
 73
     0
 74
     0
 75
     0
 76
     0
 77
     3
 78
     8
170
     0
171
     2
172
     1
173
     0
174
     0
175
     0
176
     0
177
     0
178
     0
  0
DIMSTYLE
  2
STANDARD
 70
     0
  3

  4

  5

  6

  7

 40
1.0
 41
0.18
 42
0.0625
 43
0.38
 44
0.18
 45
0.0
 46
0.0
 47
0.0
 48
0.0
140
0.18
141
0.09
142
0.0
143
25.399999999999999
144
1.0
145
0.0
146
1.0
147
0.09
 71
     0
 72
     0
 73
     1
 74
     1
 75
     0
 76
     0
 77
     0
 78
     0
170
     0
171
     2
172
     0
173
     0
174
     0
175
     0
176
     0
177
     0
178
     0
  0
ENDTAB
  0
ENDSEC
  0
SECTION
  2
BLOCKS
  0
BLOCK
  8
0
  2
$MODEL_SPACE
 70
     0
 10
0.0
 20
0.0
 30
0.0
  3
$MODEL_SPACE
  1

  0
ENDBLK
  5
21
  8
0
  0
BLOCK
 67
     1
  8
0
  2
$PAPER_SPACE
 70
     0
 10
0.0
 20
0.0
 30
0.0
  3
$PAPER_SPACE
  1

  0
ENDBLK
  5
76
 67
     1
  8
0
  0
BLOCK
  8
0
  2
ARROW1
 70
     0
 10
0.0
 20
0.0
 30
0.0
  3
ARROW1
  1

  0
SOLID
  5
18C
  8
WAKU
  6
CONTINUOUS
 62
     4
 10
-1.0
 20
0.1666666666666714
 30
0.0
 11
-1.0
 21
-0.1666666666666714
 31
0.0
 12
0.0
 22
0.0
 32
0.0
 13
0.0
 23
0.0
 33
0.0
  0
ENDBLK
  5
3534A
  8
0
  0
ENDSEC
  0
SECTION
  2
ENTITIES
  0
TEXT
  5
58002
  8
0
 62
     3
 10
0.0
 20
0.0
 30
0.0
 40
10.0
  1
EFAL30AX10
  7
STANDARD1
  0
LINE
  5
58055
  8
1
 10
95.0
 20
149.5
 30
0.0
 11
142.74999545452991
 21
149.5
 31
0.0
  0
LINE
  5
58056
  8
1
 10
107.75
 20
136.75
 30
0.0
 11
107.75
 21
162.25
 31
0.0
  0
ARC
  5
58057
  8
0
 10
107.75
 20
149.5
 30
0.0
 40
7.7499999999999991
 50
59.999999999999858
 51
299.99999999999972
  0
POLYLINE
  5
58058
  8
0
 66
     1
 10
0.0
 20
0.0
 30
0.0
  0
VERTEX
  5
585E7
  8
0
 10
112.9166666666666
 20
155.28527057377909
 30
0.0
  0
VERTEX
  5
585E8
  8
0
 10
112.83938413514041
 20
155.34713915148549
 30
0.0
  0
VERTEX
  5
585E9
  8
0
 10
112.7537609821955
 20
155.41818181818181
 30
0.0
  0
SEQEND
  5
585EA
  8
0
  0
POLYLINE
  5
58059
  8
0
 66
     1
 10
0.0
 20
0.0
 30
0.0
  0
VERTEX
  5
585EB
  8
0
 10
112.7537609821955
 20
143.58181818181819
 30
0.0
  0
VERTEX
  5
585EC
  8
0
 10
112.83872459768619
 20
143.65232378997791
 30
0.0
  0
VERTEX
  5
585ED
  8
0
 10
112.9166666666666
 20
143.7147294262208
 30
0.0
  0
SEQEND
  5
585EE
  8
0
  0
POLYLINE
  5
5805A
  8
0
 66
     1
 10
0.0
 20
0.0
 30
0.0
  0
VERTEX
  5
585EF
  8
0
 10
112.7537609821955
 20
155.41818181818181
 30
0.0
  0
VERTEX
  5
585F0
  8
0
 10
112.6190196725573
 20
155.52952298513321
 30
0.0
  0
VERTEX
  5
585F1
  8
0
 10
112.46895510069
 20
155.64767946120091
 30
0.0
  0
VERTEX
  5
585F2
  8
0
 10
112.3344229717206
 20
155.74863904643959
 30
0.0
  0
VERTEX
  5
585F3
  8
0
 10
112.19175424702949
 20
155.85085184908249
 30
0.0
  0
VERTEX
  5
585F4
  8
0
 10
112.0380456949671
 20
155.9556235625401
 30
0.0
  0
VERTEX
  5
585F5
  8
0
 10
111.8771386278367
 20
156.05966666429151
 30
0.0
  0
VERTEX
  5
585F6
  8
0
 10
111.6250000000001
 20
156.21169687932939
 30
0.0
  0
SEQEND
  5
585F7
  8
0
  0
POLYLINE
  5
5805C
  8
0
 66
     1
 10
0.0
 20
0.0
 30
0.0
  0
VERTEX
  5
585F8
  8
0
 10
111.625
 20
142.78830312067061
 30
0.0
  0
VERTEX
  5
585F9
  8
0
 10
111.8338582964806
 20
142.913318251243
 30
0.0
  0
VERTEX
  5
585FA
  8
0
 10
112.03318020930369
 20
143.0411404029326
 30
0.0
  0
VERTEX
  5
585FB
  8
0
 10
112.2284554987576
 20
143.17499310015901
 30
0.0
  0
VERTEX
  5
585FC
  8
0
 10
112.41064481148361
 20
143.30799790526601
 30
0.0
  0
VERTEX
  5
585FD
  8
0
 10
112.59075125508549
 20
143.44775849074171
 30
0.0
  0
VERTEX
  5
585FE
  8
0
 10
112.7537609821955
 20
143.58181818181819
 30
0.0
  0
SEQEND
  5
585FF
  8
0
  0
POLYLINE
  5
5805D
  8
0
 66
     1
 10
0.0
 20
0.0
 30
0.0
  0
VERTEX
  5
58600
  8
0
 10
137.75
 20
149.5
 30
0.0
  0
VERTEX
  5
58601
  8
0
 10
137.74998363631499
 20
149.51213560452459
 30
0.0
  0
VERTEX
  5
58602
  8
0
 10
137.7262745505837
 20
149.9614825541629
 30
0.0
  0
VERTEX
  5
58603
  8
0
 10
137.6564014769404
 20
150.41303122839071
 30
0.0
  0
VERTEX
  5
58604
  8
0
 10
137.5827197688883
 20
150.7155407867628
 30
0.0
  0
VERTEX
  5
58605
  8
0
 10
137.48652347615879
 20
151.01719110067091
 30
0.0
  0
VERTEX
  5
58606
  8
0
 10
137.36518183140339
 20
151.3207906234619
 30
0.0
  0
VERTEX
  5
58607
  8
0
 10
137.2183580900429
 20
151.6218232888699
 30
0.0
  0
VERTEX
  5
58608
  8
0
 10
137.1167700367015
 20
151.8017579115251
 30
0.0
  0
VERTEX
  5
58609
  8
0
 10
137.00537239792499
 20
151.9793503489629
 30
0.0
  0
VERTEX
  5
5860A
  8
0
 10
136.88269550179459
 20
152.15584701954779
 30
0.0
  0
VERTEX
  5
5860B
  8
0
 10
136.75
 20
152.32842712474621
 30
0.0
  0
SEQEND
  5
5860C
  8
0
  0
POLYLINE
  5
5805E
  8
0
 66
     1
 10
0.0
 20
0.0
 30
0.0
  0
VERTEX
  5
5860D
  8
0
 10
136.75
 20
146.67157287525379
 30
0.0
  0
VERTEX
  5
5860E
  8
0
 10
136.87876660786469
 20
146.83878732423619
 30
0.0
  0
VERTEX
  5
5860F
  8
0
 10
136.99980917027619
 20
147.0122437445537
 30
0.0
  0
VERTEX
  5
58610
  8
0
 10
137.1137055888571
 20
147.19310183956159
 30
0.0
  0
VERTEX
  5
58611
  8
0
 10
137.2183580900429
 20
147.3781767111301
 30
0.0
  0
VERTEX
  5
58612
  8
0
 10
137.36083240235661
 20
147.66941076160279
 30
0.0
  0
VERTEX
  5
58613
  8
0
 10
137.4810304029119
 20
147.96755694081801
 30
0.0
  0
VERTEX
  5
58614
  8
0
 10
137.58010241396471
 20
148.27516814028331
 30
0.0
  0
VERTEX
  5
58615
  8
0
 10
137.6564014769404
 20
148.58696877160921
 30
0.0
  0
VERTEX
  5
58616
  8
0
 10
137.7258710144219
 20
149.0346198733746
 30
0.0
  0
VERTEX
  5
58617
  8
0
 10
137.74998363631499
 20
149.4878643954753
 30
0.0
  0
VERTEX
  5
58618
  8
0
 10
137.75
 20
149.5
 30
0.0
  0
SEQEND
  5
58619
  8
0
  0
ARC
  5
5805F
  8
0
 10
116.62764045228229
 20
159.99999999999989
 30
0.0
 40
5.9999999999999636
 50
231.79363949232359
 51
270.0
  0
LINE
  5
58060
  8
0
 10
116.62764045228229
 20
154.0
 30
0.0
 11
133.25
 21
154.0
 31
0.0
  0
LINE
  5
58061
  8
3
 10
112.9166666666666
 20
143.7147294262208
 30
0.0
 11
112.9166666666666
 21
155.28527057377909
 31
0.0
  0
ARC
  5
58062
  8
0
 10
116.62764045228229
 20
139.0
 30
0.0
 40
5.9999999999999813
 50
90.0
 51
128.20636050767641
  0
LINE
  5
58063
  8
0
 10
133.25
 20
145.0
 30
0.0
 11
116.62764045228229
 21
145.0
 31
0.0
  0
ARC
  5
58064
  8
0
 10
133.25
 20
149.5
 30
0.0
 40
4.4999999999999876
 50
270.0
 51
321.05755873101782
  0
ARC
  5
58066
  8
0
 10
133.25
 20
149.5
 30
0.0
 40
4.4999999999999707
 50
38.942441268982179
 51
90.0
  0
CIRCLE
  5
58069
  8
0
 10
107.75
 20
149.5
 30
0.0
 40
3.6904761904761889
  0
LINE
  5
580C1
  8
1
 10
50.0
 20
104.5
 30
0.0
 11
50.0
 21
55.0
 31
0.0
  0
POLYLINE
  5
580C2
  8
0
 66
     1
 10
0.0
 20
0.0
 30
0.0
  0
VERTEX
  5
5861A
  8
0
 10
55.9181818181818
 20
96.744263838880727
 30
0.0
  0
VERTEX
  5
5861B
  8
0
 10
55.847676210022087
 20
96.866935415334012
 30
0.0
  0
VERTEX
  5
5861C
  8
0
 10
55.785270573779108
 20
97.0
 30
0.0
  0
SEQEND
  5
5861D
  8
0
  0
LINE
  5
580C3
  8
0
 10
46.309523809523789
 20
97.0
 30
0.0
 11
44.214729426220877
 21
97.0
 31
0.0
  0
LINE
  5
580C4
  8
0
 10
55.785270573779108
 20
97.0
 30
0.0
 11
53.690476190476197
 21
97.0
 31
0.0
  0
POLYLINE
  5
580C5
  8
0
 66
     1
 10
0.0
 20
0.0
 30
0.0
  0
VERTEX
  5
5861E
  8
0
 10
44.214729426220877
 20
97.0
 30
0.0
  0
VERTEX
  5
5861F
  8
0
 10
44.152860848514472
 20
96.867968635948387
 30
0.0
  0
VERTEX
  5
58620
  8
0
 10
44.081818181818157
 20
96.744263838880727
 30
0.0
  0
SEQEND
  5
58621
  8
0
  0
LINE
  5
580C6
  8
0
 10
52.69047619005476
 20
99.500000000000014
 30
0.0
 11
47.309523809523803
 21
99.500000000000014
 31
0.0
  0
ARC
  5
580C7
  8
0
 10
47.309523809523817
 20
98.500000000000014
 30
0.0
 40
1.0000000000000031
 50
90.0
 51
180.0
  0
ARC
  5
580C8
  8
0
 10
52.690476190476183
 20
98.500000000000014
 30
0.0
 40
1.000000000000002
 50
0.0
 51
90.0
  0
LINE
  5
580C9
  8
0
 10
46.309523809523789
 20
98.500000000000014
 30
0.0
 11
46.309523809523789
 21
96.0
 31
0.0
  0
LINE
  5
580CA
  8
0
 10
53.690476190476197
 20
96.0
 30
0.0
 11
53.690476190476197
 21
98.500000000000014
 31
0.0
  0
LINE
  5
580CC
  8
0
 10
45.199999999999982
 20
70.199999999999989
 30
0.0
 11
45.199999999999982
 21
70.0
 31
0.0
  0
LINE
  5
580CD
  8
0
 10
54.800000000000011
 20
70.0
 30
0.0
 11
54.800000000000011
 21
70.199999999999989
 31
0.0
  0
LINE
  5
580CE
  8
0
 10
54.800000000000011
 20
70.0
 30
0.0
 11
45.199999999999982
 21
70.0
 31
0.0
  0
LINE
  5
580CF
  8
0
 10
44.0
 20
76.0
 30
0.0
 11
44.0
 21
70.199999999999989
 31
0.0
  0
LINE
  5
580D0
  8
0
 10
56.0
 20
70.199999999999989
 30
0.0
 11
56.0
 21
76.0
 31
0.0
  0
LINE
  5
580D1
  8
0
 10
56.0
 20
70.199999999999989
 30
0.0
 11
44.0
 21
70.199999999999989
 31
0.0
  0
POLYLINE
  5
580D2
  8
0
 66
     1
 10
0.0
 20
0.0
 30
0.0
  0
VERTEX
  5
58622
  8
0
 10
56.711696879329388
 20
96.0
 30
0.0
  0
VERTEX
  5
58623
  8
0
 10
56.586681748757002
 20
96.062951765671784
 30
0.0
  0
VERTEX
  5
58624
  8
0
 10
56.458859597067367
 20
96.147540559294214
 30
0.0
  0
VERTEX
  5
58625
  8
0
 10
56.32500689984095
 20
96.257185856205254
 30
0.0
  0
VERTEX
  5
58626
  8
0
 10
56.19200209473405
 20
96.388274733944357
 30
0.0
  0
VERTEX
  5
58627
  8
0
 10
56.052241509258238
 20
96.553042060797907
 30
0.0
  0
VERTEX
  5
58628
  8
0
 10
55.9181818181818
 20
96.744263838880727
 30
0.0
  0
SEQEND
  5
58629
  8
0
  0
POLYLINE
  5
580D3
  8
0
 66
     1
 10
0.0
 20
0.0
 30
0.0
  0
VERTEX
  5
5862A
  8
0
 10
44.081818181818157
 20
96.744263838880727
 30
0.0
  0
VERTEX
  5
5862B
  8
0
 10
43.970477014866788
 20
96.582873163191437
 30
0.0
  0
VERTEX
  5
5862C
  8
0
 10
43.852320538799027
 20
96.437282222452652
 30
0.0
  0
VERTEX
  5
5862D
  8
0
 10
43.751360953560379
 20
96.329628079838656
 30
0.0
  0
VERTEX
  5
5862E
  8
0
 10
43.649148150917448
 20
96.234329751786817
 30
0.0
  0
VERTEX
  5
5862F
  8
0
 10
43.544376437459903
 20
96.149937243967798
 30
0.0
  0
VERTEX
  5
58630
  8
0
 10
43.440333335708431
 20
96.079169428192245
 30
0.0
  0
VERTEX
  5
58631
  8
0
 10
43.288303120670612
 20
95.999999999999716
 30
0.0
  0
SEQEND
  5
58632
  8
0
  0
LINE
  5
580D4
  8
0
 10
42.25
 20
96.0
 30
0.0
 11
42.25
 21
76.0
 31
0.0
  0
LINE
  5
580D5
  8
0
 10
57.75
 20
76.0
 30
0.0
 11
57.75
 21
96.0
 31
0.0
  0
LINE
  5
580D6
  8
0
 10
57.75
 20
96.0
 30
0.0
 11
42.25
 21
96.0
 31
0.0
  0
LINE
  5
580D7
  8
0
 10
57.75
 20
76.0
 30
0.0
 11
42.25
 21
76.0
 31
0.0
  0
LINE
  5
58126
  8
1
 10
187.75
 20
104.5
 30
0.0
 11
187.75
 21
55.0
 31
0.0
  0
LINE
  5
58127
  8
0
 10
190.4404761904762
 20
99.500000000000014
 30
0.0
 11
185.0595238099452
 21
99.500000000000014
 31
0.0
  0
ARC
  5
58128
  8
0
 10
185.0595238095238
 20
98.500000000000014
 30
0.0
 40
1.0000000000000031
 50
90.0
 51
180.0
  0
ARC
  5
58129
  8
0
 10
190.4404761904762
 20
98.500000000000014
 30
0.0
 40
1.000000000000002
 50
0.0
 51
90.0
  0
LINE
  5
5812B
  8
0
 10
184.0595238095238
 20
98.500000000000014
 30
0.0
 11
184.0595238095238
 21
97.0
 31
0.0
  0
LINE
  5
5812C
  8
0
 10
191.4404761904762
 20
97.0
 30
0.0
 11
191.4404761904762
 21
98.500000000000014
 31
0.0
  0
LINE
  5
5812D
  8
0
 10
192.55000000000001
 20
70.0
 30
0.0
 11
182.94999999999999
 21
70.0
 31
0.0
  0
LINE
  5
5812E
  8
0
 10
182.94999999999999
 20
70.199999999999989
 30
0.0
 11
182.94999999999999
 21
70.0
 31
0.0
  0
LINE
  5
5812F
  8
0
 10
192.55000000000001
 20
70.0
 30
0.0
 11
192.55000000000001
 21
70.199999999999989
 31
0.0
  0
LINE
  5
58130
  8
0
 10
193.75
 20
70.199999999999989
 30
0.0
 11
181.75
 21
70.199999999999989
 31
0.0
  0
LINE
  5
58131
  8
0
 10
181.75
 20
76.0
 30
0.0
 11
181.75
 21
70.199999999999989
 31
0.0
  0
LINE
  5
58132
  8
0
 10
193.75
 20
70.199999999999989
 30
0.0
 11
193.75
 21
76.0
 31
0.0
  0
POLYLINE
  5
58133
  8
0
 66
     1
 10
0.0
 20
0.0
 30
0.0
  0
VERTEX
  5
58633
  8
0
 10
181.03830312067061
 20
96.0
 30
0.0
  0
VERTEX
  5
58634
  8
0
 10
181.163318251243
 20
96.062951765671784
 30
0.0
  0
VERTEX
  5
58635
  8
0
 10
181.2911404029326
 20
96.147540559294214
 30
0.0
  0
VERTEX
  5
58636
  8
0
 10
181.42499310015901
 20
96.257185856205254
 30
0.0
  0
VERTEX
  5
58637
  8
0
 10
181.55799790526589
 20
96.388274733944357
 30
0.0
  0
VERTEX
  5
58638
  8
0
 10
181.69775849074171
 20
96.553042060797907
 30
0.0
  0
VERTEX
  5
58639
  8
0
 10
181.83181818181811
 20
96.744263838880727
 30
0.0
  0
SEQEND
  5
5863A
  8
0
  0
LINE
  5
58134
  8
0
 10
181.03830312067061
 20
96.0
 30
0.0
 11
180.0
 21
96.0
 31
0.0
  0
POLYLINE
  5
58135
  8
0
 66
     1
 10
0.0
 20
0.0
 30
0.0
  0
VERTEX
  5
5863B
  8
0
 10
193.66818181818181
 20
96.744263838880727
 30
0.0
  0
VERTEX
  5
5863C
  8
0
 10
193.77952298513321
 20
96.582873163191437
 30
0.0
  0
VERTEX
  5
5863D
  8
0
 10
193.89767946120091
 20
96.437282222452652
 30
0.0
  0
VERTEX
  5
5863E
  8
0
 10
193.99863904643959
 20
96.329628079838656
 30
0.0
  0
VERTEX
  5
5863F
  8
0
 10
194.10085184908249
 20
96.234329751786817
 30
0.0
  0
VERTEX
  5
58640
  8
0
 10
194.2056235625401
 20
96.149937243967827
 30
0.0
  0
VERTEX
  5
58641
  8
0
 10
194.30966666429151
 20
96.079169428192245
 30
0.0
  0
VERTEX
  5
58642
  8
0
 10
194.46169687932939
 20
95.999999999999716
 30
0.0
  0
SEQEND
  5
58643
  8
0
  0
LINE
  5
58136
  8
0
 10
195.5
 20
76.0
 30
0.0
 11
180.0
 21
76.0
 31
0.0
  0
LINE
  5
58137
  8
0
 10
180.0
 20
96.0
 30
0.0
 11
180.0
 21
76.0
 31
0.0
  0
LINE
  5
58138
  8
0
 10
195.5
 20
76.0
 30
0.0
 11
195.5
 21
96.0
 31
0.0
  0
LINE
  5
58139
  8
0
 10
195.5
 20
96.0
 30
0.0
 11
194.46169687932939
 21
96.0
 31
0.0
  0
POLYLINE
  5
5813B
  8
0
 66
     1
 10
0.0
 20
0.0
 30
0.0
  0
VERTEX
  5
58644
  8
0
 10
192.41182809107229
 20
85.943847571678717
 30
0.0
  0
VERTEX
  5
58645
  8
0
 10
192.49173229253799
 20
85.749402332278152
 30
0.0
  0
VERTEX
  5
58646
  8
0
 10
192.58441654590641
 20
85.541110891507415
 30
0.0
  0
VERTEX
  5
58647
  8
0
 10
192.68854274054061
 20
85.321746763198774
 30
0.0
  0
VERTEX
  5
58648
  8
0
 10
192.86906449712251
 20
84.96705368785365
 30
0.0
  0
VERTEX
  5
58649
  8
0
 10
193.07228414604521
 20
84.596861857717585
 30
0.0
  0
VERTEX
  5
5864A
  8
0
 10
193.35101326176161
 20
84.128485205312174
 30
0.0
  0
VERTEX
  5
5864B
  8
0
 10
193.66271995867251
 20
83.650630317947133
 30
0.0
  0
VERTEX
  5
5864C
  8
0
 10
193.66818181818181
 20
83.642656004296455
 30
0.0
  0
SEQEND
  5
5864D
  8
0
  0
POLYLINE
  5
5813D
  8
0
 66
     1
 10
0.0
 20
0.0
 30
0.0
  0
VERTEX
  5
5864E
  8
0
 10
193.53527057377909
 20
97.0
 30
0.0
  0
VERTEX
  5
5864F
  8
0
 10
193.59713915148549
 20
96.867968635948387
 30
0.0
  0
VERTEX
  5
58650
  8
0
 10
193.66818181818181
 20
96.744263838880727
 30
0.0
  0
SEQEND
  5
58651
  8
0
  0
LINE
  5
5813E
  8
0
 10
193.53527057377909
 20
97.0
 30
0.0
 11
181.96472942622091
 21
97.0
 31
0.0
  0
POLYLINE
  5
5813F
  8
0
 66
     1
 10
0.0
 20
0.0
 30
0.0
  0
VERTEX
  5
58652
  8
0
 10
181.83181818181811
 20
83.642656004296455
 30
0.0
  0
VERTEX
  5
58653
  8
0
 10
181.8372800413417
 20
83.650630317922463
 30
0.0
  0
VERTEX
  5
58654
  8
0
 10
182.06428605707461
 20
83.994021582910619
 30
0.0
  0
VERTEX
  5
58655
  8
0
 10
182.274882118297
 20
84.334810206393797
 30
0.0
  0
VERTEX
  5
58656
  8
0
 10
182.46890438629629
 20
84.669762143526299
 30
0.0
  0
VERTEX
  5
58657
  8
0
 10
182.65056146431061
 20
85.004269025767087
 30
0.0
  0
VERTEX
  5
58658
  8
0
 10
182.81347847461811
 20
85.325806838751234
 30
0.0
  0
VERTEX
  5
58659
  8
0
 10
182.95544169731971
 20
85.628910220976678
 30
0.0
  0
VERTEX
  5
5865A
  8
0
 10
183.025876426862
 20
85.790832305212334
 30
0.0
  0
VERTEX
  5
5865B
  8
0
 10
183.08817190892759
 20
85.943847571678717
 30
0.0
  0
SEQEND
  5
5865C
  8
0
  0
POLYLINE
  5
58140
  8
0
 66
     1
 10
0.0
 20
0.0
 30
0.0
  0
VERTEX
  5
5865D
  8
0
 10
181.83181818181811
 20
96.744263838880727
 30
0.0
  0
VERTEX
  5
5865E
  8
0
 10
181.90232378997791
 20
96.866935415334012
 30
0.0
  0
VERTEX
  5
5865F
  8
0
 10
181.96472942622091
 20
97.0
 30
0.0
  0
SEQEND
  5
58660
  8
0
  0
LINE
  5
58142
  8
0
 10
192.25
 20
90.495421917079753
 30
0.0
 11
192.25
 21
86.841919170400146
 31
0.0
  0
LINE
  5
58143
  8
0
 10
183.25
 20
86.841919170400146
 30
0.0
 11
183.25
 21
90.496265941538525
 31
0.0
  0
POLYLINE
  5
58144
  8
0
 66
     1
 10
0.0
 20
0.0
 30
0.0
  0
VERTEX
  5
58661
  8
0
 10
183.08817190892759
 20
85.943847571678717
 30
0.0
  0
VERTEX
  5
58662
  8
0
 10
183.15936289714551
 20
86.157779090806429
 30
0.0
  0
VERTEX
  5
58663
  8
0
 10
183.209751731648
 20
86.379846139624306
 30
0.0
  0
VERTEX
  5
58664
  8
0
 10
183.23996829016801
 20
86.608950534871411
 30
0.0
  0
VERTEX
  5
58665
  8
0
 10
183.25
 20
86.841919170400146
 30
0.0
  0
SEQEND
  5
58666
  8
0
  0
POLYLINE
  5
58146
  8
0
 66
     1
 10
0.0
 20
0.0
 30
0.0
  0
VERTEX
  5
58667
  8
0
 10
192.25
 20
86.841919170400146
 30
0.0
  0
VERTEX
  5
58668
  8
0
 10
192.25977399643631
 20
86.611938279305306
 30
0.0
  0
VERTEX
  5
58669
  8
0
 10
192.28939993564219
 20
86.384630183998866
 30
0.0
  0
VERTEX
  5
5866A
  8
0
 10
192.33981289421979
 20
86.160753472584815
 30
0.0
  0
VERTEX
  5
5866B
  8
0
 10
192.41182809107229
 20
85.943847571678717
 30
0.0
  0
SEQEND
  5
5866C
  8
0
  0
LINE
  5
58147
  8
0
 10
192.25
 20
90.5
 30
0.0
 11
192.25
 21
97.0
 31
0.0
  0
LINE
  5
58148
  8
0
 10
183.25
 20
90.5
 30
0.0
 11
183.25
 21
97.0
 31
0.0
  0
LINE
  5
58149
  8
0
 10
183.25
 20
90.5
 30
0.0
 11
192.25
 21
90.5
 31
0.0
  0
POLYLINE
  5
5814A
  8
3
 66
     1
 10
0.0
 20
0.0
 30
0.0
  0
VERTEX
  5
5866D
  8
3
 10
187.75
 20
93.099999999999994
 30
0.0
  0
VERTEX
  5
5866E
  8
3
 10
187.76191713418879
 20
93.091648555896825
 30
0.0
  0
VERTEX
  5
5866F
  8
3
 10
188.2106874208757
 20
92.777299920516356
 30
0.0
  0
VERTEX
  5
58670
  8
3
 10
188.65978208761251
 20
92.463586689992255
 30
0.0
  0
VERTEX
  5
58671
  8
3
 10
188.88716737168019
 20
92.305379704396117
 30
0.0
  0
VERTEX
  5
58672
  8
3
 10
189.11313894596691
 20
92.148772066324213
 30
0.0
  0
VERTEX
  5
58673
  8
3
 10
189.33818641679159
 20
91.993593100138753
 30
0.0
  0
VERTEX
  5
58674
  8
3
 10
189.560950962693
 20
91.840974914294534
 30
0.0
  0
VERTEX
  5
58675
  8
3
 10
189.88289977100689
 20
91.622685893879861
 30
0.0
  0
VERTEX
  5
58676
  8
3
 10
190.1977204026752
 20
91.412789307242534
 30
0.0
  0
VERTEX
  5
58677
  8
3
 10
190.5072173757448
 20
91.211346751289511
 30
0.0
  0
VERTEX
  5
58678
  8
3
 10
190.80502485468821
 20
91.024226890352111
 30
0.0
  0
VERTEX
  5
58679
  8
3
 10
191.00823641311379
 20
90.902008763865368
 30
0.0
  0
VERTEX
  5
5867A
  8
3
 10
191.20240994778769
 20
90.791150930589595
 30
0.0
  0
VERTEX
  5
5867B
  8
3
 10
191.38822224984301
 20
90.692750708782796
 30
0.0
  0
VERTEX
  5
5867C
  8
3
 10
191.5615340166519
 20
90.610925485531936
 30
0.0
  0
VERTEX
  5
5867D
  8
3
 10
191.67528872004971
 20
90.564881585146765
 30
0.0
  0
VERTEX
  5
5867E
  8
3
 10
191.7808263770313
 20
90.530094489444053
 30
0.0
  0
VERTEX
  5
5867F
  8
3
 10
191.87837036888169
 20
90.507794851914156
 30
0.0
  0
VERTEX
  5
58680
  8
3
 10
191.96584962747809
 20
90.5
 30
0.0
  0
SEQEND
  5
58681
  8
3
  0
POLYLINE
  5
5814B
  8
3
 66
     1
 10
0.0
 20
0.0
 30
0.0
  0
VERTEX
  5
58682
  8
3
 10
183.53415037252191
 20
90.5
 30
0.0
  0
VERTEX
  5
58683
  8
3
 10
183.61891408362649
 20
90.507351498610035
 30
0.0
  0
VERTEX
  5
58684
  8
3
 10
183.71445622957069
 20
90.528767133340565
 30
0.0
  0
VERTEX
  5
58685
  8
3
 10
183.82156371188131
 20
90.563719762829464
 30
0.0
  0
VERTEX
  5
58686
  8
3
 10
183.93846598334801
 20
90.610925485531936
 30
0.0
  0
VERTEX
  5
58687
  8
3
 10
184.10600490985439
 20
90.689848079407113
 30
0.0
  0
VERTEX
  5
58688
  8
3
 10
184.28798457869601
 20
90.785855849724697
 30
0.0
  0
VERTEX
  5
58689
  8
3
 10
184.48559122799179
 20
90.898385319600465
 30
0.0
  0
VERTEX
  5
5868A
  8
3
 10
184.69497514531179
 20
91.024226890352111
 30
0.0
  0
VERTEX
  5
5868B
  8
3
 10
184.9827924854207
 20
91.204948149206587
 30
0.0
  0
VERTEX
  5
5868C
  8
3
 10
185.2860694383082
 20
91.402102244895829
 30
0.0
  0
VERTEX
  5
5868D
  8
3
 10
185.60690354350641
 20
91.615825748392609
 30
0.0
  0
VERTEX
  5
5868E
  8
3
 10
185.93904903730689
 20
91.840974914294534
 30
0.0
  0
VERTEX
  5
5868F
  8
3
 10
186.15300715463201
 20
91.987539550731327
 30
0.0
  0
VERTEX
  5
58690
  8
3
 10
186.36997394985841
 20
92.137098024645951
 30
0.0
  0
VERTEX
  5
58691
  8
3
 10
186.81306136539641
 20
92.444664667916186
 30
0.0
  0
VERTEX
  5
58692
  8
3
 10
187.27237321748839
 20
92.765445796161458
 30
0.0
  0
VERTEX
  5
58693
  8
3
 10
187.73808286581109
 20
93.091648555896825
 30
0.0
  0
VERTEX
  5
58694
  8
3
 10
187.75
 20
93.099999999999994
 30
0.0
  0
SEQEND
  5
58695
  8
3
  0
POLYLINE
  5
5814C
  8
3
 66
     1
 10
0.0
 20
0.0
 30
0.0
  0
VERTEX
  5
58696
  8
3
 10
184.92157287525379
 20
97.0
 30
0.0
  0
VERTEX
  5
58697
  8
3
 10
185.08878732423619
 20
96.991674926928795
 30
0.0
  0
VERTEX
  5
58698
  8
3
 10
185.2622437445537
 20
96.968295088516868
 30
0.0
  0
VERTEX
  5
58699
  8
3
 10
185.44310183956159
 20
96.931513953000433
 30
0.0
  0
VERTEX
  5
5869A
  8
3
 10
185.6281767111301
 20
96.883538736836897
 30
0.0
  0
VERTEX
  5
5869B
  8
3
 10
185.91941076160279
 20
96.791759923358086
 30
0.0
  0
VERTEX
  5
5869C
  8
3
 10
186.2175569408181
 20
96.682344890812857
 30
0.0
  0
VERTEX
  5
5869D
  8
3
 10
186.52516814028331
 20
96.557610959658035
 30
0.0
  0
VERTEX
  5
5869E
  8
3
 10
186.83696877160921
 20
96.422417284923313
 30
0.0
  0
VERTEX
  5
5869F
  8
3
 10
187.2846198733746
 20
96.218347803314998
 30
0.0
  0
VERTEX
  5
586A0
  8
3
 10
187.7378643954753
 20
96.005720760688178
 30
0.0
  0
VERTEX
  5
586A1
  8
3
 10
187.75
 20
96.0
 30
0.0
  0
SEQEND
  5
586A2
  8
3
  0
POLYLINE
  5
5814D
  8
3
 66
     1
 10
0.0
 20
0.0
 30
0.0
  0
VERTEX
  5
586A3
  8
3
 10
187.75
 20
96.0
 30
0.0
  0
VERTEX
  5
586A4
  8
3
 10
187.76213560452459
 20
96.005720760688178
 30
0.0
  0
VERTEX
  5
586A5
  8
3
 10
188.2114825541629
 20
96.216536375425903
 30
0.0
  0
VERTEX
  5
586A6
  8
3
 10
188.66303122839071
 20
96.422417284923313
 30
0.0
  0
VERTEX
  5
586A7
  8
3
 10
188.9655407867628
 20
96.55369466902124
 30
0.0
  0
VERTEX
  5
586A8
  8
3
 10
189.267191100671
 20
96.676411981758861
 30
0.0
  0
VERTEX
  5
586A9
  8
3
 10
189.5707906234619
 20
96.788385257542984
 30
0.0
  0
VERTEX
  5
586AA
  8
3
 10
189.8718232888699
 20
96.883538736836897
 30
0.0
  0
VERTEX
  5
586AB
  8
3
 10
190.0517579115251
 20
96.930311636054569
 30
0.0
  0
VERTEX
  5
586AC
  8
3
 10
190.2293503489629
 20
96.966842768177941
 30
0.0
  0
VERTEX
  5
586AD
  8
3
 10
190.40584701954779
 20
96.991156851261934
 30
0.0
  0
VERTEX
  5
586AE
  8
3
 10
190.57842712474621
 20
97.0
 30
0.0
  0
SEQEND
  5
586AF
  8
3
  0
LINE
  5
5818D
  8
3
 10
130.75
 20
92.5
 30
0.0
 11
130.3054871372799
 21
92.5
 31
0.0
  0
LINE
  5
58191
  8
1
 10
107.75
 20
104.5
 30
0.0
 11
107.75
 21
55.0
 31
0.0
  0
LINE
  5
58192
  8
0
 10
110.4404761904762
 20
99.500000000000014
 30
0.0
 11
105.0595238095238
 21
99.500000000000014
 31
0.0
  0
ARC
  5
58193
  8
0
 10
105.0595238095238
 20
98.500000000000014
 30
0.0
 40
1.0000000000000031
 50
90.0
 51
180.0
  0
ARC
  5
58194
  8
0
 10
110.4404761904762
 20
98.500000000000014
 30
0.0
 40
1.000000000000002
 50
0.0
 51
90.0
  0
LINE
  5
58195
  8
0
 10
104.0595238095238
 20
98.500000000000014
 30
0.0
 11
104.0595238095238
 21
96.0
 31
0.0
  0
LINE
  5
58196
  8
0
 10
111.4404761904762
 20
96.0
 30
0.0
 11
111.4404761904762
 21
98.500000000000014
 31
0.0
  0
POLYLINE
  5
58198
  8
0
 66
     1
 10
0.0
 20
0.0
 30
0.0
  0
VERTEX
  5
586B0
  8
0
 10
136.75
 20
97.0
 30
0.0
  0
VERTEX
  5
586B1
  8
0
 10
136.99980917027619
 20
96.968295088516868
 30
0.0
  0
VERTEX
  5
586B2
  8
0
 10
137.2183580900429
 20
96.883538736836897
 30
0.0
  0
VERTEX
  5
586B3
  8
0
 10
137.36131365693899
 20
96.791412085378596
 30
0.0
  0
VERTEX
  5
586B4
  8
0
 10
137.4810304029119
 20
96.682344890812857
 30
0.0
  0
VERTEX
  5
586B5
  8
0
 10
137.58033479011999
 20
96.557278341830937
 30
0.0
  0
VERTEX
  5
586B6
  8
0
 10
137.6564014769404
 20
96.422417284923313
 30
0.0
  0
VERTEX
  5
586B7
  8
0
 10
137.7258710144219
 20
96.218347803314998
 30
0.0
  0
VERTEX
  5
586B8
  8
0
 10
137.74998363631499
 20
96.005720760688178
 30
0.0
  0
VERTEX
  5
586B9
  8
0
 10
137.75
 20
96.0
 30
0.0
  0
SEQEND
  5
586BA
  8
0
  0
LINE
  5
58199
  8
0
 10
137.75
 20
93.099999999999994
 30
0.0
 11
137.75
 21
96.0
 31
0.0
  0
LINE
  5
5819B
  8
0
 10
135.14999999999989
 20
90.5
 30
0.0
 11
132.75
 21
90.5
 31
0.0
  0
ARC
  5
5819C
  8
0
 10
135.14999999999151
 20
93.100000000000435
 30
0.0
 40
2.6000000000084151
 50
350.6038475303659
 51
359.99189947489572
  0
ARC
  5
5819D
  8
0
 10
135.14999999999989
 20
93.100000000000023
 30
0.0
 40
2.6000000000000192
 50
270.0
 51
350.60384753034521
  0
ARC
  5
5819F
  8
0
 10
135.82241054251401
 20
62.931931895136977
 30
0.0
 40
30.000000002760419
 50
99.734353058847162
 51
100.4641384415275
  0
LINE
  5
581A0
  8
0
 10
132.75
 20
90.5
 30
0.0
 11
130.75
 21
92.5
 31
0.0
  0
LINE
  5
581A2
  8
0
 10
102.95
 20
70.199999999999989
 30
0.0
 11
102.95
 21
70.0
 31
0.0
  0
LINE
  5
581A3
  8
0
 10
112.55
 20
70.0
 30
0.0
 11
112.55
 21
70.199999999999989
 31
0.0
  0
LINE
  5
581A4
  8
0
 10
112.55
 20
70.0
 30
0.0
 11
102.95
 21
70.0
 31
0.0
  0
POLYLINE
  5
581A5
  8
3
 66
     1
 10
0.0
 20
0.0
 30
0.0
  0
VERTEX
  5
586BB
  8
3
 10
116.62764045228229
 20
86.841919170400146
 30
0.0
  0
VERTEX
  5
586BC
  8
3
 10
118.1932540023524
 20
87.853169203880441
 30
0.0
  0
VERTEX
  5
586BD
  8
3
 10
119.8030246030318
 20
88.792229039473511
 30
0.0
  0
VERTEX
  5
586BE
  8
3
 10
120.91191140216959
 20
89.378459218156934
 30
0.0
  0
VERTEX
  5
586BF
  8
3
 10
122.0410250552801
 20
89.925568502460607
 30
0.0
  0
VERTEX
  5
586C0
  8
3
 10
123.1888208292543
 20
90.431250190930484
 30
0.0
  0
VERTEX
  5
586C1
  8
3
 10
124.33158145782789
 20
90.885134534773613
 30
0.0
  0
VERTEX
  5
586C2
  8
3
 10
125.4907749422197
 20
91.296479060741547
 30
0.0
  0
VERTEX
  5
586C3
  8
3
 10
126.6642038662938
 20
91.663770745921795
 30
0.0
  0
VERTEX
  5
586C4
  8
3
 10
127.8666031446064
 20
91.989904657424916
 30
0.0
  0
VERTEX
  5
586C5
  8
3
 10
129.08126593457689
 20
92.268997045647268
 30
0.0
  0
VERTEX
  5
586C6
  8
3
 10
130.3054871372799
 20
92.5
 30
0.0
  0
SEQEND
  5
586C7
  8
3
  0
ARC
  5
581A6
  8
0
 10
135.8223996504191
 20
62.931955057790212
 30
0.0
 40
29.999975247108139
 50
100.4641260195185
 51
129.90905956506461
  0
LINE
  5
581A7
  8
0
 10
112.7537609821955
 20
96.744263838880727
 30
0.0
 11
112.9166666666666
 21
97.0
 31
0.0
  0
POLYLINE
  5
581A8
  8
3
 66
     1
 10
0.0
 20
0.0
 30
0.0
  0
VERTEX
  5
586C8
  8
3
 10
115.24353468977429
 20
85.943847571678717
 30
0.0
  0
VERTEX
  5
586C9
  8
3
 10
115.589198050045
 20
86.158082357886244
 30
0.0
  0
VERTEX
  5
586CA
  8
3
 10
115.9338398345844
 20
86.379846139624306
 30
0.0
  0
VERTEX
  5
586CB
  8
3
 10
116.62764045228229
 20
86.841919170400146
 30
0.0
  0
SEQEND
  5
586CC
  8
3
  0
LINE
  5
581AA
  8
0
 10
136.75
 20
97.0
 30
0.0
 11
112.9166666666666
 21
97.0
 31
0.0
  0
LINE
  5
581AB
  8
0
 10
101.75
 20
76.0
 30
0.0
 11
101.75
 21
70.199999999999989
 31
0.0
  0
LINE
  5
581AC
  8
0
 10
113.75
 20
70.199999999999989
 30
0.0
 11
113.75
 21
76.0
 31
0.0
  0
LINE
  5
581AD
  8
0
 10
113.75
 20
70.199999999999989
 30
0.0
 11
101.75
 21
70.199999999999989
 31
0.0
  0
POLYLINE
  5
581AE
  8
3
 66
     1
 10
0.0
 20
0.0
 30
0.0
  0
VERTEX
  5
586CD
  8
3
 10
112.7537609821955
 20
83.642656004296455
 30
0.0
  0
VERTEX
  5
586CE
  8
3
 10
112.76023023066
 20
83.650630317922463
 30
0.0
  0
VERTEX
  5
586CF
  8
3
 10
113.19565378909741
 20
84.164943352643206
 30
0.0
  0
VERTEX
  5
586D0
  8
3
 10
113.66739772461671
 20
84.669762143526299
 30
0.0
  0
VERTEX
  5
586D1
  8
3
 10
114.19424026173201
 20
85.167000651010142
 30
0.0
  0
VERTEX
  5
586D2
  8
3
 10
114.770778842338
 20
85.628910220976678
 30
0.0
  0
VERTEX
  5
586D3
  8
3
 10
115.24353468977429
 20
85.943847571678717
 30
0.0
  0
SEQEND
  5
586D4
  8
3
  0
ARC
  5
581AF
  8
0
 10
118.5
 20
83.642656004296455
 30
0.0
 40
2.999999999999996
 50
129.90904714300601
 51
180.0
  0
POLYLINE
  5
581B2
  8
0
 66
     1
 10
0.0
 20
0.0
 30
0.0
  0
VERTEX
  5
586D5
  8
0
 10
111.625
 20
96.0
 30
0.0
  0
VERTEX
  5
586D6
  8
0
 10
111.8338582964806
 20
96.062951765671784
 30
0.0
  0
VERTEX
  5
586D7
  8
0
 10
112.03318020930369
 20
96.147540559294214
 30
0.0
  0
VERTEX
  5
586D8
  8
0
 10
112.2284554987576
 20
96.257185856205254
 30
0.0
  0
VERTEX
  5
586D9
  8
0
 10
112.41064481148361
 20
96.388274733944357
 30
0.0
  0
VERTEX
  5
586DA
  8
0
 10
112.59075125508549
 20
96.553042060797907
 30
0.0
  0
VERTEX
  5
586DB
  8
0
 10
112.7537609821955
 20
96.744263838880727
 30
0.0
  0
SEQEND
  5
586DC
  8
0
  0
LINE
  5
581B3
  8
0
 10
111.625
 20
96.0
 30
0.0
 11
100.0
 21
96.0
 31
0.0
  0
LINE
  5
581B4
  8
0
 10
100.0
 20
96.0
 30
0.0
 11
100.0
 21
76.0
 31
0.0
  0
LINE
  5
581B5
  8
0
 10
115.5
 20
76.0
 30
0.0
 11
115.5
 21
83.642656004296455
 31
0.0
  0
LINE
  5
581B7
  8
0
 10
115.5
 20
76.0
 30
0.0
 11
100.0
 21
76.0
 31
0.0
  0
LINE
  5
58268
  8
3
 10
49.696999999999953
 20
70.199999999999989
 30
0.0
 11
49.696999999999953
 21
75.999999999999972
 31
0.0
  0
LINE
  5
58269
  8
3
 10
50.302999999999876
 20
70.199999999999989
 30
0.0
 11
50.302999999999876
 21
75.999999999999972
 31
0.0
  0
LINE
  5
5826A
  8
3
 10
50.978420838150562
 20
70.199999999999989
 30
0.0
 11
50.978420838150562
 21
75.999999999999972
 31
0.0
  0
LINE
  5
5826B
  8
3
 10
51.584420838150493
 20
70.199999999999989
 30
0.0
 11
51.584420838150493
 21
75.999999999999972
 31
0.0
  0
LINE
  5
5826C
  8
3
 10
52.259841676301157
 20
70.199999999999989
 30
0.0
 11
52.259841676301193
 21
75.999999999999972
 31
0.0
  0
LINE
  5
5826D
  8
3
 10
52.865841676301102
 20
70.199999999999989
 30
0.0
 11
52.865841676301102
 21
75.999999999999972
 31
0.0
  0
LINE
  5
5826E
  8
3
 10
53.541262514451773
 20
70.199999999999989
 30
0.0
 11
53.541262514451773
 21
75.999999999999972
 31
0.0
  0
LINE
  5
5826F
  8
3
 10
54.147262514451711
 20
70.199999999999989
 30
0.0
 11
54.147262514451711
 21
75.999999999999972
 31
0.0
  0
LINE
  5
58270
  8
3
 10
54.822683352602382
 20
70.199999999999989
 30
0.0
 11
54.822683352602347
 21
75.999999999999972
 31
0.0
  0
LINE
  5
58271
  8
3
 10
55.42868335260232
 20
70.199999999999989
 30
0.0
 11
55.42868335260232
 21
75.999999999999972
 31
0.0
  0
LINE
  5
58272
  8
3
 10
49.021579161849331
 20
70.199999999999989
 30
0.0
 11
49.021579161849331
 21
75.999999999999972
 31
0.0
  0
LINE
  5
58273
  8
3
 10
48.415579161849386
 20
70.199999999999989
 30
0.0
 11
48.415579161849386
 21
75.999999999999972
 31
0.0
  0
LINE
  5
58274
  8
3
 10
47.740158323698722
 20
70.199999999999989
 30
0.0
 11
47.740158323698751
 21
75.999999999999972
 31
0.0
  0
LINE
  5
58275
  8
3
 10
47.134158323698777
 20
70.199999999999989
 30
0.0
 11
47.134158323698777
 21
75.999999999999972
 31
0.0
  0
LINE
  5
58276
  8
3
 10
46.458737485548113
 20
70.199999999999989
 30
0.0
 11
46.458737485548113
 21
75.999999999999972
 31
0.0
  0
LINE
  5
58277
  8
3
 10
45.852737485548182
 20
70.199999999999989
 30
0.0
 11
45.852737485548182
 21
75.999999999999972
 31
0.0
  0
LINE
  5
58278
  8
3
 10
45.177316647397497
 20
70.199999999999989
 30
0.0
 11
45.177316647397483
 21
75.999999999999972
 31
0.0
  0
LINE
  5
58279
  8
3
 10
44.571316647397559
 20
70.199999999999989
 30
0.0
 11
44.571316647397559
 21
75.999999999999972
 31
0.0
  0
LINE
  5
5827A
  8
3
 10
107.4469999999999
 20
70.199999999999989
 30
0.0
 11
107.4469999999999
 21
75.999999999999972
 31
0.0
  0
LINE
  5
5827B
  8
3
 10
108.0529999999999
 20
70.199999999999989
 30
0.0
 11
108.0529999999999
 21
75.999999999999972
 31
0.0
  0
LINE
  5
5827C
  8
3
 10
108.7284208381505
 20
70.199999999999989
 30
0.0
 11
108.7284208381505
 21
75.999999999999972
 31
0.0
  0
LINE
  5
5827D
  8
3
 10
109.33442083815051
 20
70.199999999999989
 30
0.0
 11
109.33442083815051
 21
75.999999999999972
 31
0.0
  0
LINE
  5
5827E
  8
3
 10
110.00984167630109
 20
70.199999999999989
 30
0.0
 11
110.00984167630121
 21
75.999999999999972
 31
0.0
  0
LINE
  5
5827F
  8
3
 10
110.6158416763011
 20
70.199999999999989
 30
0.0
 11
110.6158416763011
 21
75.999999999999972
 31
0.0
  0
LINE
  5
58280
  8
3
 10
111.2912625144518
 20
70.199999999999989
 30
0.0
 11
111.2912625144518
 21
75.999999999999972
 31
0.0
  0
LINE
  5
58281
  8
3
 10
111.8972625144517
 20
70.199999999999989
 30
0.0
 11
111.8972625144517
 21
75.999999999999972
 31
0.0
  0
LINE
  5
58282
  8
3
 10
112.5726833526023
 20
70.199999999999989
 30
0.0
 11
112.5726833526023
 21
75.999999999999972
 31
0.0
  0
LINE
  5
58283
  8
3
 10
113.17868335260231
 20
70.199999999999989
 30
0.0
 11
113.17868335260231
 21
75.999999999999972
 31
0.0
  0
LINE
  5
58284
  8
3
 10
106.7715791618493
 20
70.199999999999989
 30
0.0
 11
106.7715791618493
 21
75.999999999999972
 31
0.0
  0
LINE
  5
58285
  8
3
 10
106.16557916184939
 20
70.199999999999989
 30
0.0
 11
106.16557916184939
 21
75.999999999999972
 31
0.0
  0
LINE
  5
58286
  8
3
 10
105.49015832369869
 20
70.199999999999989
 30
0.0
 11
105.49015832369869
 21
75.999999999999972
 31
0.0
  0
LINE
  5
58287
  8
3
 10
104.8841583236988
 20
70.199999999999989
 30
0.0
 11
104.8841583236988
 21
75.999999999999972
 31
0.0
  0
LINE
  5
58288
  8
3
 10
104.2087374855481
 20
70.199999999999989
 30
0.0
 11
104.2087374855481
 21
75.999999999999972
 31
0.0
  0
LINE
  5
58289
  8
3
 10
103.6027374855482
 20
70.199999999999989
 30
0.0
 11
103.6027374855482
 21
75.999999999999972
 31
0.0
  0
LINE
  5
5828A
  8
3
 10
102.9273166473975
 20
70.199999999999989
 30
0.0
 11
102.9273166473974
 21
75.999999999999972
 31
0.0
  0
LINE
  5
5828B
  8
3
 10
102.3213166473975
 20
70.199999999999989
 30
0.0
 11
102.3213166473975
 21
75.999999999999972
 31
0.0
  0
LINE
  5
5828C
  8
3
 10
187.44699999999989
 20
70.199999999999989
 30
0.0
 11
187.44699999999989
 21
75.999999999999972
 31
0.0
  0
LINE
  5
5828D
  8
3
 10
188.05299999999991
 20
70.199999999999989
 30
0.0
 11
188.05299999999991
 21
75.999999999999972
 31
0.0
  0
LINE
  5
5828E
  8
3
 10
188.7284208381505
 20
70.199999999999989
 30
0.0
 11
188.7284208381505
 21
75.999999999999972
 31
0.0
  0
LINE
  5
5828F
  8
3
 10
189.33442083815049
 20
70.199999999999989
 30
0.0
 11
189.33442083815049
 21
75.999999999999972
 31
0.0
  0
LINE
  5
58290
  8
3
 10
190.00984167630111
 20
70.199999999999989
 30
0.0
 11
190.00984167630119
 21
75.999999999999972
 31
0.0
  0
LINE
  5
58291
  8
3
 10
190.6158416763011
 20
70.199999999999989
 30
0.0
 11
190.6158416763011
 21
75.999999999999972
 31
0.0
  0
LINE
  5
58292
  8
3
 10
191.2912625144518
 20
70.199999999999989
 30
0.0
 11
191.2912625144518
 21
75.999999999999972
 31
0.0
  0
LINE
  5
58293
  8
3
 10
191.89726251445171
 20
70.199999999999989
 30
0.0
 11
191.89726251445171
 21
75.999999999999972
 31
0.0
  0
LINE
  5
58294
  8
3
 10
192.57268335260241
 20
70.199999999999989
 30
0.0
 11
192.5726833526023
 21
75.999999999999972
 31
0.0
  0
LINE
  5
58295
  8
3
 10
193.17868335260229
 20
70.199999999999989
 30
0.0
 11
193.17868335260229
 21
75.999999999999972
 31
0.0
  0
LINE
  5
58296
  8
3
 10
186.7715791618493
 20
70.199999999999989
 30
0.0
 11
186.7715791618493
 21
75.999999999999972
 31
0.0
  0
LINE
  5
58297
  8
3
 10
186.16557916184939
 20
70.199999999999989
 30
0.0
 11
186.16557916184939
 21
75.999999999999972
 31
0.0
  0
LINE
  5
58298
  8
3
 10
185.49015832369869
 20
70.199999999999989
 30
0.0
 11
185.49015832369869
 21
75.999999999999972
 31
0.0
  0
LINE
  5
58299
  8
3
 10
184.8841583236987
 20
70.199999999999989
 30
0.0
 11
184.8841583236987
 21
75.999999999999972
 31
0.0
  0
LINE
  5
5829A
  8
3
 10
184.20873748554811
 20
70.199999999999989
 30
0.0
 11
184.20873748554811
 21
75.999999999999972
 31
0.0
  0
LINE
  5
5829B
  8
3
 10
183.6027374855482
 20
70.199999999999989
 30
0.0
 11
183.6027374855482
 21
75.999999999999972
 31
0.0
  0
LINE
  5
5829C
  8
3
 10
182.9273166473975
 20
70.199999999999989
 30
0.0
 11
182.92731664739739
 21
75.999999999999972
 31
0.0
  0
LINE
  5
5829D
  8
3
 10
182.32131664739751
 20
70.199999999999989
 30
0.0
 11
182.32131664739751
 21
75.999999999999972
 31
0.0
  0
LINE
  5
5849D
  8
0
 10
184.75
 20
70.0
 30
0.0
 11
184.75
 21
60.613500000000002
 31
0.0
  0
LINE
  5
5849E
  8
0
 10
190.75
 20
60.613500000000002
 30
0.0
 11
190.75
 21
70.0
 31
0.0
  0
LINE
  5
5849F
  8
0
 10
190.13650000000001
 20
60.0
 30
0.0
 11
190.75
 21
60.613500000000002
 31
0.0
  0
LINE
  5
584A0
  8
0
 10
184.75
 20
60.613500000000002
 30
0.0
 11
185.36349999999999
 21
60.0
 31
0.0
  0
LINE
  5
584A1
  8
0
 10
190.13650000000001
 20
60.0
 30
0.0
 11
185.36349999999999
 21
60.0
 31
0.0
  0
LINE
  5
584A2
  8
0
 10
190.75
 20
60.613500000000002
 30
0.0
 11
184.75
 21
60.613500000000002
 31
0.0
  0
LINE
  5
584A3
  8
3
 10
190.13650000000001
 20
60.0
 30
0.0
 11
190.13650000000001
 21
69.0
 31
0.0
  0
LINE
  5
584A4
  8
3
 10
190.75
 20
70.0
 30
0.0
 11
190.13650000000001
 21
69.0
 31
0.0
  0
LINE
  5
584A5
  8
0
 10
190.75
 20
69.0
 30
0.0
 11
184.75
 21
69.0
 31
0.0
  0
LINE
  5
584A6
  8
3
 10
185.36349999999999
 20
60.0
 30
0.0
 11
185.36349999999999
 21
69.0
 31
0.0
  0
LINE
  5
584A7
  8
3
 10
184.75
 20
70.0
 30
0.0
 11
185.36349999999999
 21
69.0
 31
0.0
  0
LINE
  5
584A8
  8
0
 10
104.75
 20
70.0
 30
0.0
 11
104.75
 21
60.613500000000002
 31
0.0
  0
LINE
  5
584A9
  8
0
 10
110.75
 20
60.613500000000002
 30
0.0
 11
110.75
 21
70.0
 31
0.0
  0
LINE
  5
584AA
  8
0
 10
110.1365
 20
60.0
 30
0.0
 11
110.75
 21
60.613500000000002
 31
0.0
  0
LINE
  5
584AB
  8
0
 10
104.75
 20
60.613500000000002
 30
0.0
 11
105.3635
 21
60.0
 31
0.0
  0
LINE
  5
584AC
  8
0
 10
110.1365
 20
60.0
 30
0.0
 11
105.3635
 21
60.0
 31
0.0
  0
LINE
  5
584AD
  8
0
 10
110.75
 20
60.613500000000002
 30
0.0
 11
104.75
 21
60.613500000000002
 31
0.0
  0
LINE
  5
584AE
  8
3
 10
110.1365
 20
60.0
 30
0.0
 11
110.1365
 21
69.0
 31
0.0
  0
LINE
  5
584AF
  8
3
 10
110.75
 20
70.0
 30
0.0
 11
110.1365
 21
69.0
 31
0.0
  0
LINE
  5
584B0
  8
0
 10
110.75
 20
69.0
 30
0.0
 11
104.75
 21
69.0
 31
0.0
  0
LINE
  5
584B1
  8
3
 10
105.3635
 20
60.0
 30
0.0
 11
105.3635
 21
69.0
 31
0.0
  0
LINE
  5
584B2
  8
3
 10
104.75
 20
70.0
 30
0.0
 11
105.3635
 21
69.0
 31
0.0
  0
LINE
  5
584B3
  8
0
 10
47.0
 20
70.0
 30
0.0
 11
47.0
 21
60.613500000000002
 31
0.0
  0
LINE
  5
584B4
  8
0
 10
53.0
 20
60.613500000000002
 30
0.0
 11
53.0
 21
70.0
 31
0.0
  0
LINE
  5
584B5
  8
0
 10
52.386500000000012
 20
60.0
 30
0.0
 11
53.0
 21
60.613500000000002
 31
0.0
  0
LINE
  5
584B6
  8
0
 10
47.0
 20
60.613500000000002
 30
0.0
 11
47.613499999999988
 21
60.0
 31
0.0
  0
LINE
  5
584B7
  8
0
 10
52.386500000000012
 20
60.0
 30
0.0
 11
47.613499999999988
 21
60.0
 31
0.0
  0
LINE
  5
584B8
  8
0
 10
53.0
 20
60.613500000000002
 30
0.0
 11
47.0
 21
60.613500000000002
 31
0.0
  0
LINE
  5
584B9
  8
3
 10
52.386500000000012
 20
60.0
 30
0.0
 11
52.386500000000012
 21
69.0
 31
0.0
  0
LINE
  5
584BA
  8
3
 10
53.0
 20
70.0
 30
0.0
 11
52.386500000000012
 21
69.0
 31
0.0
  0
LINE
  5
584BB
  8
0
 10
53.0
 20
69.0
 30
0.0
 11
47.0
 21
69.0
 31
0.0
  0
LINE
  5
584BC
  8
3
 10
47.613499999999988
 20
60.0
 30
0.0
 11
47.613499999999988
 21
69.0
 31
0.0
  0
LINE
  5
584BD
  8
3
 10
47.0
 20
70.0
 30
0.0
 11
47.613499999999988
 21
69.0
 31
0.0
  0
VIEWPORT
  5
1EC2F
 67
     1
  8
0
 10
261.51769911504419
 20
148.5
 30
0.0
 40
523.0353982300885
 41
297.0
 68
     1
 69
     1
1001
ACAD
1000
MVIEW
1002
{
1070
    16
1010
0.0
1020
0.0
1030
0.0
1010
0.0
1020
0.0
1030
1.0
1040
0.0
1040
297.0
1040
261.51769911504419
1040
148.5
1040
50.0
1040
0.0
1040
0.0
1070
     0
1070
   100
1070
     1
1070
     1
1070
     0
1070
     0
1070
     0
1070
     0
1040
0.0
1040
0.0
1040
0.0
1040
1.0
1040
1.0
1040
10.0
1040
10.0
1070
     0
1002
{
1002
}
1002
}
  0
ENDSEC
  0
EOF
