  0
SECTION
  2
HEADER
  9
$ACADVER
  1
AC1009
  9
$INSBASE
 10
0.0
 20
0.0
 30
0.0
  9
$EXTMIN
 10
0.0
 20
-2.960436562073669
 30
0.0
  9
$EXTMAX
 10
544.76890574135189
 20
529.78117409562935
 30
70.0
  9
$LIMMIN
 10
0.0
 20
0.0
  9
$LIMMAX
 10
750.0
 20
540.0
  9
$ORTHOMODE
 70
     1
  9
$REGENMODE
 70
     1
  9
$FILLMODE
 70
     1
  9
$QTEXTMODE
 70
     0
  9
$MIRRTEXT
 70
     0
  9
$DRAGMODE
 70
     2
  9
$LTSCALE
 40
20.0
  9
$OSMODE
 70
  3071
  9
$ATTMODE
 70
     1
  9
$TEXTSIZE
 40
0.2
  9
$TRACEWID
 40
0.05
  9
$TEXTSTYLE
  7
STANDARD
  9
$CLAYER
  8
0
  9
$CELTYPE
  6
BYLAYER
  9
$CECOLOR
 62
   256
  9
$DIMSCALE
 40
1.0
  9
$DIMASZ
 40
3.0
  9
$DIMEXO
 40
2.0
  9
$DIMDLI
 40
0.3799999999999999
  9
$DIMRND
 40
0.0
  9
$DIMDLE
 40
0.0
  9
$DIMEXE
 40
2.0
  9
$DIMTP
 40
0.0
  9
$DIMTM
 40
0.0
  9
$DIMTXT
 40
3.0
  9
$DIMCEN
 40
0.09
  9
$DIMTSZ
 40
0.0
  9
$DIMTOL
 70
     0
  9
$DIMLIM
 70
     0
  9
$DIMTIH
 70
     0
  9
$DIMTOH
 70
     0
  9
$DIMSE1
 70
     0
  9
$DIMSE2
 70
     0
  9
$DIMTAD
 70
     1
  9
$DIMZIN
 70
     8
  9
$DIMBLK
  1

  9
$DIMASO
 70
     1
  9
$DIMSHO
 70
     0
  9
$DIMPOST
  1

  9
$DIMAPOST
  1

  9
$DIMALT
 70
     0
  9
$DIMALTD
 70
     2
  9
$DIMALTF
 40
25.399999999999999
  9
$DIMLFAC
 40
1.0
  9
$DIMTOFL
 70
     0
  9
$DIMTVP
 40
1.6000000000000001
  9
$DIMTIX
 70
     1
  9
$DIMSOXD
 70
     0
  9
$DIMSAH
 70
     0
  9
$DIMBLK1
  1

  9
$DIMBLK2
  1

  9
$DIMSTYLE
  2
STANDARD
  9
$DIMCLRD
 70
     0
  9
$DIMCLRE
 70
     0
  9
$DIMCLRT
 70
     0
  9
$DIMTFAC
 40
1.0
  9
$DIMGAP
 40
1.5
  9
$LUNITS
 70
     2
  9
$LUPREC
 70
     4
  9
$SKETCHINC
 40
0.1
  9
$FILLETRAD
 40
0.2
  9
$AUNITS
 70
     0
  9
$AUPREC
 70
     0
  9
$MENU
  1
E:\r13\win\SUPPORT\ACAD
  9
$ELEVATION
 40
0.0
  9
$PELEVATION
 40
0.0
  9
$THICKNESS
 40
0.0
  9
$LIMCHECK
 70
     0
  9
$BLIPMODE
 70
     0
  9
$CHAMFERA
 40
0.0
  9
$CHAMFERB
 40
0.0
  9
$SKPOLY
 70
     0
  9
$TDCREATE
 40
2449839.7807291672
  9
$TDUPDATE
 40
2456598.645050359
  9
$TDINDWG
 40
0.4961456481
  9
$TDUSRTIMER
 40
0.4961456481
  9
$USRTIMER
 70
     1
  9
$ANGBASE
 50
0.0
  9
$ANGDIR
 70
     0
  9
$PDMODE
 70
     0
  9
$PDSIZE
 40
0.0
  9
$PLINEWID
 40
0.0
  9
$COORDS
 70
     1
  9
$SPLFRAME
 70
     0
  9
$SPLINETYPE
 70
     6
  9
$SPLINESEGS
 70
     8
  9
$ATTDIA
 70
     0
  9
$ATTREQ
 70
     1
  9
$HANDLING
 70
     1
  9
$HANDSEED
  5
8A93
  9
$SURFTAB1
 70
     6
  9
$SURFTAB2
 70
     6
  9
$SURFTYPE
 70
     6
  9
$SURFU
 70
     6
  9
$SURFV
 70
     6
  9
$UCSNAME
  2

  9
$UCSORG
 10
0.0
 20
0.0
 30
0.0
  9
$UCSXDIR
 10
1.0
 20
0.0
 30
0.0
  9
$UCSYDIR
 10
0.0
 20
1.0
 30
0.0
  9
$PUCSNAME
  2

  9
$PUCSORG
 10
0.0
 20
0.0
 30
0.0
  9
$PUCSXDIR
 10
1.0
 20
0.0
 30
0.0
  9
$PUCSYDIR
 10
0.0
 20
1.0
 30
0.0
  9
$USERI1
 70
     0
  9
$USERI2
 70
     1
  9
$USERI3
 70
     1
  9
$USERI4
 70
     0
  9
$USERI5
 70
     0
  9
$USERR1
 40
0.0
  9
$USERR2
 40
0.0
  9
$USERR3
 40
0.0
  9
$USERR4
 40
0.0
  9
$USERR5
 40
0.0
  9
$WORLDVIEW
 70
     1
  9
$SHADEDGE
 70
     3
  9
$SHADEDIF
 70
    70
  9
$TILEMODE
 70
     1
  9
$MAXACTVP
 70
    16
  9
$PLIMCHECK
 70
     0
  9
$PEXTMIN
 10
1.0000000000000000E+020
 20
1.0000000000000000E+020
 30
1.0000000000000000E+020
  9
$PEXTMAX
 10
-1.0000000000000000E+020
 20
-1.0000000000000000E+020
 30
-1.0000000000000000E+020
  9
$PLIMMIN
 10
0.0
 20
0.0
  9
$PLIMMAX
 10
12.0
 20
9.0
  9
$UNITMODE
 70
     0
  9
$VISRETAIN
 70
     0
  9
$PLINEGEN
 70
     0
  9
$PSLTSCALE
 70
     0
  0
ENDSEC
  0
SECTION
  2
TABLES
  0
TABLE
  2
VPORT
 70
     1
  0
VPORT
  2
*ACTIVE
 70
     0
 10
0.0
 20
0.0
 11
1.0
 21
1.0
 12
374.98855678130462
 22
340.90031900923282
 13
0.0
 23
0.0
 14
20.0
 24
20.0
 15
20.0
 25
20.0
 16
0.0
 26
0.0
 36
1.0
 17
0.0
 27
0.0
 37
0.0
 40
694.00739314055488
 41
1.831871345029239
 42
50.0
 43
0.0
 44
0.0
 50
0.0
 51
0.0
 71
     0
 72
   500
 73
     1
 74
     0
 75
     0
 76
     0
 77
     0
 78
     0
  0
ENDTAB
  0
TABLE
  2
LTYPE
 70
     4
  0
LTYPE
  2
CONTINUOUS
 70
     0
  3
Solid Line
 72
    65
 73
     0
 40
0.0
  0
LTYPE
  2
CENTER
 70
     0
  3
____ _ ____ _ ____ _ ____ _ ____ _ ____ _ ____
 72
    65
 73
     4
 40
2.0
 49
1.25
 49
-0.25
 49
0.25
 49
-0.25
  0
LTYPE
  2
HIDDEN
 70
     0
  3
Hidden __ __ __ __ __ __ __ __ __ __ __ __ __ _
 72
    65
 73
     2
 40
0.375
 49
0.25
 49
-0.125
  0
LTYPE
  2
PHANTOM2
 70
     0
  3
___ _ _ ___ _ _ ___ _ _ ___ _ _
 72
    65
 73
     6
 40
1.25
 49
0.625
 49
-0.125
 49
0.125
 49
-0.125
 49
0.125
 49
-0.125
  0
ENDTAB
  0
TABLE
  2
LAYER
 70
     4
  0
LAYER
  2
0
 70
     0
 62
     7
  6
CONTINUOUS
  0
LAYER
  2
1
 70
     0
 62
     1
  6
CENTER
  0
LAYER
  2
2
 70
     0
 62
     2
  6
HIDDEN
  0
LAYER
  2
DEFPOINTS
 70
     0
 62
     7
  6
CONTINUOUS
  0
ENDTAB
  0
TABLE
  2
STYLE
 70
     2
  0
STYLE
  2
STANDARD
 70
     0
 40
0.0
 41
1.0
 50
0.0
 71
     0
 42
0.2
  3
TXT
  4
BIGFONT
  0
STYLE
  2
STANDARD1
 70
     0
 40
0.0
 41
1.0
 50
0.0
 71
     0
 42
3.0
  3
txt
  4

  0
ENDTAB
  0
TABLE
  2
VIEW
 70
     1
  0
VIEW
  2
ALL
 70
     0
 40
540.0
 10
441.98319327731087
 20
270.0
 41
0.0
 11
0.0
 21
0.0
 31
1.0
 12
0.0
 22
0.0
 32
0.0
 42
0.0
 43
0.0
 44
0.0
 50
0.0
 71
     0
  0
ENDTAB
  0
TABLE
  2
UCS
 70
     0
  0
ENDTAB
  0
TABLE
  2
APPID
 70
    11
  0
APPID
  2
ACAD
 70
     0
  0
APPID
  2
ACAD_EXEMPT_FROM_CAD_STANDARDS
 70
     0
  0
APPID
  2
ACAD_DSTYLE_DIMJAG
 70
     0
  0
APPID
  2
ACAD_DSTYLE_DIMTALN
 70
     0
  0
APPID
  2
ACAD_MLEADERVER
 70
     0
  0
APPID
  2
GENIUS_GENODEF_13
 70
     0
  0
APPID
  2
GENIUS_GENOBJ-N-FIL_13
 70
     0
  0
APPID
  2
GENIUS_GENOREF_13
 70
     0
  0
APPID
  2
ACAD_PSEXT
 70
     0
  0
APPID
  2
ACAD_DSTYLE_DIMRADIAL_EXTENSION
 70
     0
  0
APPID
  2
ACAD_NAV_VCDISPLAY
 70
     0
  0
ENDTAB
  0
TABLE
  2
DIMSTYLE
 70
     1
  0
DIMSTYLE
  2
STANDARD
 70
     0
  3

  4

  5

  6

  7

 40
1.0
 41
0.18
 42
0.0625
 43
0.38
 44
0.18
 45
0.0
 46
0.0
 47
0.0
 48
0.0
140
0.18
141
0.09
142
0.0
143
25.399999999999999
144
1.0
145
0.0
146
1.0
147
0.09
 71
     0
 72
     0
 73
     1
 74
     1
 75
     0
 76
     0
 77
     0
 78
     0
170
     0
171
     2
172
     0
173
     0
174
     0
175
     0
176
     0
177
     0
178
     0
  0
ENDTAB
  0
ENDSEC
  0
SECTION
  2
BLOCKS
  0
BLOCK
  8
0
  2
$MODEL_SPACE
 70
     0
 10
0.0
 20
0.0
 30
0.0
  3
$MODEL_SPACE
  1

  0
ENDBLK
  5
13C
  8
0
  0
BLOCK
 67
     1
  8
0
  2
$PAPER_SPACE
 70
     0
 10
0.0
 20
0.0
 30
0.0
  3
$PAPER_SPACE
  1

  0
ENDBLK
  5
13A
 67
     1
  8
0
  0
ENDSEC
  0
SECTION
  2
ENTITIES
  0
CIRCLE
  5
971
  8
0
 10
166.84956247421201
 20
495.23280827889943
 30
0.0
 40
12.0
  0
LINE
  5
97A
  8
1
 10
138.301196657482
 20
495.2328082788996
 30
0.0
 11
195.39792829094199
 21
495.23280827889869
 31
0.0
  0
CIRCLE
  5
97C
  8
0
 10
166.8495624742115
 20
425.23280827889943
 30
0.0
 40
19.5
  0
CIRCLE
  5
97D
  8
0
 10
166.8495624742115
 20
425.23280827889943
 30
0.0
 40
85.686762236859153
  0
CIRCLE
  5
97E
  8
0
 10
166.8495624742115
 20
425.23280827889943
 30
0.0
 40
88.0
  0
LINE
  5
990
  8
1
 10
166.84956247421181
 20
529.78117409562935
 30
0.0
 11
166.8495624742111
 21
320.68444246216899
 31
0.0
  0
LINE
  5
991
  8
1
 10
62.301196657481341
 20
425.23280827889948
 30
0.0
 11
271.39792829094199
 21
425.23280827889897
 31
0.0
  0
ARC
  5
8916
  8
0
 10
486.11149948922161
 20
339.83280827889888
 30
0.0
 40
2.5999999999999792
 50
183.72069766100651
 51
270.0
  0
ARC
  5
8917
  8
0
 10
486.11149948922179
 20
510.63280827889901
 30
0.0
 40
2.5999999999999801
 50
90.0
 51
176.27930233899349
  0
LINE
  5
8918
  8
0
 10
513.59553992462224
 20
513.23280827889903
 30
0.0
 11
486.11149948922179
 21
513.23280827889903
 31
0.0
  0
LINE
  5
8919
  8
0
 10
486.11149948922179
 20
337.23280827889897
 30
0.0
 11
513.59553992462202
 21
337.23280827889897
 31
0.0
  0
ARC
  5
891A
  8
0
 10
513.59553992462202
 20
338.85780827889897
 30
0.0
 40
1.625
 50
270.0
 51
0.0
  0
ARC
  5
891B
  8
0
 10
513.59553992462224
 20
511.60780827889891
 30
0.0
 40
1.625
 50
0.0
 51
90.0
  0
LINE
  5
891C
  8
0
 10
528.0205399246222
 20
447.23280827889891
 30
0.0
 11
515.22053992462202
 21
447.23280827889891
 31
0.0
  0
LINE
  5
891D
  8
0
 10
515.22053992462202
 20
403.23280827889891
 30
0.0
 11
528.0205399246222
 21
403.23280827889891
 31
0.0
  0
LINE
  5
891E
  8
0
 10
528.22053992462224
 20
442.73280827889897
 30
0.0
 11
528.0205399246222
 21
442.73280827889897
 31
0.0
  0
LINE
  5
891F
  8
0
 10
528.0205399246222
 20
407.73280827889891
 30
0.0
 11
528.22053992462224
 21
407.73280827889891
 31
0.0
  0
LINE
  5
8920
  8
0
 10
479.22053992462219
 20
405.73280827889891
 30
0.0
 11
479.22053992462219
 21
444.73280827889891
 31
0.0
  0
LINE
  5
8921
  8
0
 10
483.51697966168803
 20
339.66408701605991
 30
0.0
 11
483.51697966168803
 21
510.80152954173781
 31
0.0
  0
LINE
  5
8922
  8
0
 10
515.22053992462202
 20
338.85780827889897
 30
0.0
 11
515.22053992462202
 21
511.60780827889891
 31
0.0
  0
LINE
  5
8923
  8
0
 10
528.0205399246222
 20
403.23280827889891
 30
0.0
 11
528.0205399246222
 21
447.23280827889891
 31
0.0
  0
LINE
  5
8924
  8
0
 10
528.22053992462224
 20
407.73280827889891
 30
0.0
 11
528.22053992462224
 21
442.73280827889897
 31
0.0
  0
LINE
  5
8925
  8
0
 10
483.51697966168803
 20
510.80152954173781
 30
0.0
 11
479.22053992462219
 21
444.73280827889891
 31
0.0
  0
LINE
  5
8926
  8
0
 10
483.51697966168803
 20
339.66408701605991
 30
0.0
 11
479.22053992462219
 21
405.73280827889891
 31
0.0
  0
LINE
  5
8927
  8
2
 10
528.22053992462202
 20
433.23280827889891
 30
0.0
 11
500.22053992462202
 21
433.2328082788984
 31
0.0
  0
LINE
  5
8928
  8
2
 10
500.22053992462202
 20
417.23280827889897
 30
0.0
 11
528.22053992462202
 21
417.23280827889897
 31
0.0
  0
LINE
  5
8929
  8
2
 10
500.22053992462202
 20
407.73280827889891
 30
0.0
 11
500.22053992462202
 21
442.73280827889897
 31
0.0
  0
LINE
  5
892A
  8
2
 10
484.2205399246219
 20
405.73280827905847
 30
0.0
 11
484.2205399246219
 21
444.73280827895582
 31
0.0
  0
LINE
  5
892B
  8
2
 10
528.0205399246222
 20
407.73280827889891
 30
0.0
 11
501.2205399246219
 21
407.73280827889891
 31
0.0
  0
LINE
  5
892C
  8
2
 10
480.22053992461929
 20
405.73280827905847
 30
0.0
 11
480.22053992461929
 21
444.73280827895582
 31
0.0
  0
LINE
  5
892D
  8
2
 10
479.22053992462219
 20
405.73280827905847
 30
0.0
 11
484.2205399246219
 21
405.73280827905847
 31
0.0
  0
LINE
  5
892E
  8
2
 10
479.22053992462219
 20
444.73280827895582
 30
0.0
 11
484.2205399246219
 21
444.73280827895582
 31
0.0
  0
LINE
  5
892F
  8
2
 10
501.2205399246219
 20
407.73280827889891
 30
0.0
 11
501.2205399246219
 21
408.73280827889897
 31
0.0
  0
LINE
  5
8930
  8
2
 10
501.2205399246219
 20
408.73280827889897
 30
0.0
 11
500.22053992462202
 21
408.73280827889897
 31
0.0
  0
LINE
  5
8931
  8
2
 10
528.0205399246222
 20
442.73280827889897
 30
0.0
 11
501.2205399246219
 21
442.73280827889897
 31
0.0
  0
LINE
  5
8932
  8
2
 10
501.2205399246219
 20
442.73280827889897
 30
0.0
 11
501.2205399246219
 21
441.73280827889897
 31
0.0
  0
LINE
  5
8933
  8
2
 10
501.2205399246219
 20
441.73280827889897
 30
0.0
 11
500.22053992462202
 21
441.73280827889897
 31
0.0
  0
LINE
  5
8934
  8
2
 10
500.22053992462202
 20
407.73280827889891
 30
0.0
 11
484.2205399246219
 21
407.73280827889891
 31
0.0
  0
LINE
  5
8935
  8
2
 10
500.22053992462202
 20
442.73280827889897
 30
0.0
 11
484.2205399246219
 21
442.73280827889897
 31
0.0
  0
LINE
  5
8936
  8
1
 10
544.76890574135189
 20
425.23280827889897
 30
0.0
 11
462.6721741078922
 21
425.23280827889897
 31
0.0
  0
LINE
  5
894D
  8
0
 10
478.92053992462178
 20
502.17030827889891
 30
0.0
 11
479.22053992462202
 21
502.17030827889891
 31
0.0
  0
LINE
  5
894E
  8
0
 10
479.22053992462202
 20
488.29530827889891
 30
0.0
 11
478.92053992462178
 21
488.29530827889891
 31
0.0
  0
LINE
  5
894F
  8
0
 10
452.22053992462202
 20
504.48280827889891
 30
0.0
 11
478.92053992462178
 21
504.48280827889891
 31
0.0
  0
LINE
  5
8950
  8
0
 10
478.92053992462178
 20
485.98280827889897
 30
0.0
 11
452.22053992462202
 21
485.98280827889897
 31
0.0
  0
ARC
  5
8951
  8
0
 10
449.47053992462202
 20
485.98280827889897
 30
0.0
 40
2.75
 50
270.0
 51
0.0
  0
ARC
  5
8952
  8
0
 10
449.47053992462202
 20
504.48280827889891
 30
0.0
 40
2.75
 50
0.0
 51
90.0
  0
LINE
  5
8953
  8
0
 10
411.22053992462202
 20
507.23280827889891
 30
0.0
 11
449.47053992462202
 21
507.23280827889891
 31
0.0
  0
LINE
  5
8954
  8
0
 10
449.47053992462202
 20
483.23280827889891
 30
0.0
 11
411.22053992462202
 21
483.23280827889891
 31
0.0
  0
ARC
  5
8955
  8
0
 10
411.22053992462202
 20
495.23280827889891
 30
0.0
 40
12.000000000000011
 50
90.0
 51
270.0
  0
LINE
  5
8956
  8
0
 10
478.92053992462178
 20
485.98280827889897
 30
0.0
 11
478.92053992462178
 21
504.48280827889891
 31
0.0
  0
LINE
  5
8957
  8
0
 10
449.47053992462202
 20
483.23280827889891
 30
0.0
 11
449.47053992462202
 21
507.23280827889891
 31
0.0
  0
LINE
  5
8958
  8
0
 10
411.22053992462202
 20
483.23280827889891
 30
0.0
 11
411.22053992462202
 21
507.23280827889891
 31
0.0
  0
LINE
  5
8959
  8
1
 10
500.06534547841801
 20
495.23280827889891
 30
0.0
 11
382.67217410789198
 21
495.23280827889891
 31
0.0
  0
LINE
  5
895A
  8
0
 10
481.85424928095932
 20
485.2328082788988
 30
0.0
 11
479.22053992462202
 21
485.23280827889891
 31
0.0
  0
LINE
  5
895B
  8
0
 10
479.22053992462202
 20
505.23280827889897
 30
0.0
 11
483.15484649396518
 21
505.23280827889897
 31
0.0
  0
LINE
  5
895C
  8
0
 10
479.22053992462202
 20
485.23280827889891
 30
0.0
 11
479.22053992462202
 21
505.23280827889897
 31
0.0
  0
LINE
  5
895D
  8
0
 10
452.22053992462202
 20
485.98280827889897
 30
0.0
 11
452.22053992462202
 21
504.48280827889891
 31
0.0
  0
ARC
  5
8969
  8
0
 10
81.449562474211007
 20
114.3404757878447
 30
0.0
 40
2.5999999999999792
 50
93.720697661006497
 51
180.0
  0
ARC
  5
896A
  8
0
 10
252.24956247421119
 20
114.3404757878444
 30
0.0
 40
2.5999999999999801
 50
0.0
 51
86.279302338993475
  0
LINE
  5
896B
  8
0
 10
254.8495624742111
 20
86.856435352444123
 30
0.0
 11
254.8495624742111
 21
114.3404757878444
 31
0.0
  0
LINE
  5
896C
  8
0
 10
78.849562474211098
 20
114.3404757878445
 30
0.0
 11
78.849562474211041
 21
86.856435352444365
 31
0.0
  0
ARC
  5
896D
  8
0
 10
80.474562474211041
 20
86.856435352444365
 30
0.0
 40
1.625
 50
180.0
 51
270.0
  0
ARC
  5
896E
  8
0
 10
253.2245624742111
 20
86.856435352444123
 30
0.0
 40
1.625
 50
270.0
 51
0.0
  0
LINE
  5
896F
  8
0
 10
188.8495624742111
 20
72.431435352444169
 30
0.0
 11
188.8495624742111
 21
85.231435352444336
 31
0.0
  0
LINE
  5
8970
  8
0
 10
144.8495624742111
 20
85.231435352444336
 30
0.0
 11
144.8495624742111
 21
72.431435352444169
 31
0.0
  0
LINE
  5
8971
  8
0
 10
184.3495624742111
 20
72.231435352444123
 30
0.0
 11
184.3495624742111
 21
72.431435352444169
 31
0.0
  0
LINE
  5
8972
  8
0
 10
149.3495624742111
 20
72.431435352444169
 30
0.0
 11
149.3495624742111
 21
72.231435352444123
 31
0.0
  0
LINE
  5
8973
  8
0
 10
147.3495624742111
 20
121.23143535244409
 30
0.0
 11
186.3495624742111
 21
121.231435352444
 31
0.0
  0
LINE
  5
8974
  8
0
 10
81.280841211372035
 20
116.9349956153783
 30
0.0
 11
252.4182837370499
 21
116.9349956153782
 31
0.0
  0
LINE
  5
8975
  8
0
 10
80.474562474211041
 20
85.231435352444336
 30
0.0
 11
253.2245624742111
 21
85.231435352444336
 31
0.0
  0
LINE
  5
8976
  8
0
 10
144.8495624742111
 20
72.431435352444169
 30
0.0
 11
188.8495624742111
 21
72.431435352444169
 31
0.0
  0
LINE
  5
8977
  8
0
 10
149.3495624742111
 20
72.231435352444123
 30
0.0
 11
184.3495624742111
 21
72.231435352444123
 31
0.0
  0
LINE
  5
8978
  8
0
 10
252.4182837370499
 20
116.9349956153782
 30
0.0
 11
186.3495624742111
 21
121.231435352444
 31
0.0
  0
LINE
  5
8979
  8
0
 10
81.280841211372035
 20
116.9349956153783
 30
0.0
 11
147.3495624742111
 21
121.23143535244409
 31
0.0
  0
LINE
  5
897A
  8
2
 10
174.8495624742111
 20
72.23143535244435
 30
0.0
 11
174.84956247421059
 21
100.23143535244429
 31
0.0
  0
LINE
  5
897B
  8
2
 10
158.8495624742111
 20
100.23143535244429
 30
0.0
 11
158.8495624742111
 21
72.23143535244435
 31
0.0
  0
LINE
  5
897C
  8
2
 10
149.3495624742111
 20
100.23143535244429
 30
0.0
 11
184.3495624742111
 21
100.23143535244429
 31
0.0
  0
LINE
  5
897D
  8
2
 10
147.34956247437071
 20
116.23143535244429
 30
0.0
 11
186.34956247426791
 21
116.23143535244429
 31
0.0
  0
LINE
  5
897E
  8
2
 10
149.3495624742111
 20
72.431435352444169
 30
0.0
 11
149.3495624742111
 21
99.231435352444294
 31
0.0
  0
LINE
  5
897F
  8
2
 10
147.34956247437071
 20
120.23143535244709
 30
0.0
 11
186.34956247426791
 21
120.23143535244699
 31
0.0
  0
LINE
  5
8980
  8
2
 10
147.34956247437071
 20
121.23143535244409
 30
0.0
 11
147.34956247437071
 21
116.23143535244429
 31
0.0
  0
LINE
  5
8981
  8
2
 10
186.34956247426791
 20
121.231435352444
 30
0.0
 11
186.34956247426791
 21
116.23143535244429
 31
0.0
  0
LINE
  5
8982
  8
2
 10
149.3495624742111
 20
99.231435352444294
 30
0.0
 11
150.3495624742111
 21
99.231435352444294
 31
0.0
  0
LINE
  5
8983
  8
2
 10
150.3495624742111
 20
99.231435352444294
 30
0.0
 11
150.3495624742111
 21
100.23143535244429
 31
0.0
  0
LINE
  5
8984
  8
2
 10
184.3495624742111
 20
72.431435352444169
 30
0.0
 11
184.3495624742111
 21
99.231435352444294
 31
0.0
  0
LINE
  5
8985
  8
2
 10
184.3495624742111
 20
99.231435352444294
 30
0.0
 11
183.3495624742111
 21
99.231435352444294
 31
0.0
  0
LINE
  5
8986
  8
2
 10
183.3495624742111
 20
99.231435352444294
 30
0.0
 11
183.3495624742111
 21
100.23143535244429
 31
0.0
  0
LINE
  5
8987
  8
2
 10
149.3495624742111
 20
100.23143535244429
 30
0.0
 11
149.3495624742111
 21
116.23143535244429
 31
0.0
  0
LINE
  5
8988
  8
2
 10
184.3495624742111
 20
100.23143535244429
 30
0.0
 11
184.3495624742111
 21
116.23143535244429
 31
0.0
  0
LINE
  5
8990
  8
0
 10
159.91206247421201
 20
121.5314353524443
 30
0.0
 11
159.91206247421201
 21
121.23143535244429
 31
0.0
  0
LINE
  5
8991
  8
0
 10
157.59956247421201
 20
148.23143535244429
 30
0.0
 11
157.59956247421201
 21
121.5314353524443
 31
0.0
  0
LINE
  5
8992
  8
0
 10
176.09956247421201
 20
121.5314353524443
 30
0.0
 11
176.09956247421201
 21
148.23143535244429
 31
0.0
  0
ARC
  5
8993
  8
0
 10
176.09956247421201
 20
150.98143535244429
 30
0.0
 40
2.75
 50
270.0
 51
0.0
  0
ARC
  5
8994
  8
0
 10
157.59956247421201
 20
150.98143535244429
 30
0.0
 40
2.7499999999999938
 50
180.0
 51
270.0
  0
LINE
  5
8995
  8
0
 10
154.84956247421201
 20
189.23143535244429
 30
0.0
 11
154.84956247421201
 21
150.98143535244429
 31
0.0
  0
LINE
  5
8996
  8
0
 10
178.84956247421201
 20
150.98143535244429
 30
0.0
 11
178.84956247421201
 21
189.23143535244429
 31
0.0
  0
ARC
  5
8997
  8
0
 10
166.84956247421201
 20
189.23143535244429
 30
0.0
 40
12.000000000000011
 50
0.0
 51
180.0
  0
LINE
  5
8998
  8
0
 10
176.09956247421201
 20
121.5314353524443
 30
0.0
 11
157.59956247421201
 21
121.5314353524443
 31
0.0
  0
LINE
  5
8999
  8
0
 10
176.09956247421201
 20
148.23143535244429
 30
0.0
 11
157.59956247421201
 21
148.23143535244429
 31
0.0
  0
LINE
  5
899A
  8
0
 10
178.84956247421201
 20
150.98143535244429
 30
0.0
 11
154.84956247421201
 21
150.98143535244429
 31
0.0
  0
LINE
  5
899B
  8
0
 10
178.84956247421201
 20
189.23143535244429
 30
0.0
 11
154.84956247421201
 21
189.23143535244429
 31
0.0
  0
LINE
  5
899C
  8
0
 10
176.84956247421201
 20
121.23143535244429
 30
0.0
 11
156.84956247421201
 21
121.23143535244429
 31
0.0
  0
POINT
  5
899D
  8
0
 10
166.84956247421201
 20
201.23143535244429
 30
70.0
210
0.0
220
1.0
230
0.0
  0
LINE
  5
89A0
  8
1
 10
166.84956247421201
 20
55.68306953571436
 30
0.0
 11
166.84956247421201
 21
217.77980116917431
 31
0.0
  0
LINE
  5
89A1
  8
0
 10
173.78706247421201
 20
121.5314353524443
 30
0.0
 11
173.78706247421201
 21
121.23143535244429
 31
0.0
  0
TEXT
  5
8A2D
  8
0
 62
     3
 10
0.0
 20
0.0
 30
0.0
 40
10.0
  1
EDHN175R-RE
  7
STANDARD1
  0
ENDSEC
  0
EOF
