  0
SECTION
  2
HEADER
  9
$ACADVER
  1
AC1009
  9
$INSBASE
 10
0.0
 20
0.0
 30
0.0
  9
$EXTMIN
 10
0.0
 20
-2.960436562073669
 30
0.0
  9
$EXTMAX
 10
1033.5104913555911
 20
550.67721173947746
 30
0.0
  9
$LIMMIN
 10
0.0
 20
0.0
  9
$LIMMAX
 10
750.0
 20
540.0
  9
$ORTHOMODE
 70
     0
  9
$REGENMODE
 70
     1
  9
$FILLMODE
 70
     1
  9
$QTEXTMODE
 70
     0
  9
$MIRRTEXT
 70
     0
  9
$DRAGMODE
 70
     2
  9
$LTSCALE
 40
20.0
  9
$OSMODE
 70
  3071
  9
$ATTMODE
 70
     1
  9
$TEXTSIZE
 40
0.2
  9
$TRACEWID
 40
0.05
  9
$TEXTSTYLE
  7
STANDARD
  9
$CLAYER
  8
0
  9
$CELTYPE
  6
BYLAYER
  9
$CECOLOR
 62
   256
  9
$DIMSCALE
 40
1.0
  9
$DIMASZ
 40
3.0
  9
$DIMEXO
 40
2.0
  9
$DIMDLI
 40
0.3799999999999999
  9
$DIMRND
 40
0.0
  9
$DIMDLE
 40
0.0
  9
$DIMEXE
 40
2.0
  9
$DIMTP
 40
0.0
  9
$DIMTM
 40
0.0
  9
$DIMTXT
 40
3.0
  9
$DIMCEN
 40
0.09
  9
$DIMTSZ
 40
0.0
  9
$DIMTOL
 70
     0
  9
$DIMLIM
 70
     0
  9
$DIMTIH
 70
     0
  9
$DIMTOH
 70
     0
  9
$DIMSE1
 70
     0
  9
$DIMSE2
 70
     0
  9
$DIMTAD
 70
     1
  9
$DIMZIN
 70
     8
  9
$DIMBLK
  1

  9
$DIMASO
 70
     1
  9
$DIMSHO
 70
     0
  9
$DIMPOST
  1

  9
$DIMAPOST
  1

  9
$DIMALT
 70
     0
  9
$DIMALTD
 70
     2
  9
$DIMALTF
 40
25.399999999999999
  9
$DIMLFAC
 40
1.0
  9
$DIMTOFL
 70
     0
  9
$DIMTVP
 40
1.6000000000000001
  9
$DIMTIX
 70
     1
  9
$DIMSOXD
 70
     0
  9
$DIMSAH
 70
     0
  9
$DIMBLK1
  1

  9
$DIMBLK2
  1

  9
$DIMSTYLE
  2
STANDARD
  9
$DIMCLRD
 70
     0
  9
$DIMCLRE
 70
     0
  9
$DIMCLRT
 70
     0
  9
$DIMTFAC
 40
1.0
  9
$DIMGAP
 40
1.5
  9
$LUNITS
 70
     2
  9
$LUPREC
 70
     4
  9
$SKETCHINC
 40
0.1
  9
$FILLETRAD
 40
0.2
  9
$AUNITS
 70
     0
  9
$AUPREC
 70
     0
  9
$MENU
  1
E:\r13\win\SUPPORT\ACAD
  9
$ELEVATION
 40
0.0
  9
$PELEVATION
 40
0.0
  9
$THICKNESS
 40
0.0
  9
$LIMCHECK
 70
     0
  9
$BLIPMODE
 70
     0
  9
$CHAMFERA
 40
0.0
  9
$CHAMFERB
 40
0.0
  9
$SKPOLY
 70
     0
  9
$TDCREATE
 40
2449839.7807291672
  9
$TDUPDATE
 40
2456598.64480669
  9
$TDINDWG
 40
0.5753924884
  9
$TDUSRTIMER
 40
0.5753924884
  9
$USRTIMER
 70
     1
  9
$ANGBASE
 50
0.0
  9
$ANGDIR
 70
     0
  9
$PDMODE
 70
     0
  9
$PDSIZE
 40
0.0
  9
$PLINEWID
 40
0.0
  9
$COORDS
 70
     1
  9
$SPLFRAME
 70
     0
  9
$SPLINETYPE
 70
     6
  9
$SPLINESEGS
 70
     8
  9
$ATTDIA
 70
     0
  9
$ATTREQ
 70
     1
  9
$HANDLING
 70
     1
  9
$HANDSEED
  5
96FD
  9
$SURFTAB1
 70
     6
  9
$SURFTAB2
 70
     6
  9
$SURFTYPE
 70
     6
  9
$SURFU
 70
     6
  9
$SURFV
 70
     6
  9
$UCSNAME
  2

  9
$UCSORG
 10
0.0
 20
0.0
 30
0.0
  9
$UCSXDIR
 10
1.0
 20
0.0
 30
0.0
  9
$UCSYDIR
 10
0.0
 20
1.0
 30
0.0
  9
$PUCSNAME
  2

  9
$PUCSORG
 10
0.0
 20
0.0
 30
0.0
  9
$PUCSXDIR
 10
1.0
 20
0.0
 30
0.0
  9
$PUCSYDIR
 10
0.0
 20
1.0
 30
0.0
  9
$USERI1
 70
     0
  9
$USERI2
 70
     1
  9
$USERI3
 70
     1
  9
$USERI4
 70
     0
  9
$USERI5
 70
     0
  9
$USERR1
 40
0.0
  9
$USERR2
 40
0.0
  9
$USERR3
 40
0.0
  9
$USERR4
 40
0.0
  9
$USERR5
 40
0.0
  9
$WORLDVIEW
 70
     1
  9
$SHADEDGE
 70
     3
  9
$SHADEDIF
 70
    70
  9
$TILEMODE
 70
     1
  9
$MAXACTVP
 70
    16
  9
$PLIMCHECK
 70
     0
  9
$PEXTMIN
 10
1.0000000000000000E+020
 20
1.0000000000000000E+020
 30
1.0000000000000000E+020
  9
$PEXTMAX
 10
-1.0000000000000000E+020
 20
-1.0000000000000000E+020
 30
-1.0000000000000000E+020
  9
$PLIMMIN
 10
0.0
 20
0.0
  9
$PLIMMAX
 10
12.0
 20
9.0
  9
$UNITMODE
 70
     0
  9
$VISRETAIN
 70
     0
  9
$PLINEGEN
 70
     0
  9
$PSLTSCALE
 70
     0
  0
ENDSEC
  0
SECTION
  2
TABLES
  0
TABLE
  2
VPORT
 70
     1
  0
VPORT
  2
*ACTIVE
 70
     0
 10
0.0
 20
0.0
 11
1.0
 21
1.0
 12
516.75524808412524
 22
347.6668589020137
 13
0.0
 23
0.0
 14
20.0
 24
20.0
 15
20.0
 25
20.0
 16
0.0
 26
0.0
 36
1.0
 17
0.0
 27
0.0
 37
0.0
 40
707.69751598072764
 41
1.8318713450292401
 42
50.0
 43
0.0
 44
0.0
 50
0.0
 51
0.0
 71
     0
 72
   500
 73
     1
 74
     0
 75
     0
 76
     0
 77
     0
 78
     0
  0
ENDTAB
  0
TABLE
  2
LTYPE
 70
     4
  0
LTYPE
  2
CONTINUOUS
 70
     0
  3
Solid Line
 72
    65
 73
     0
 40
0.0
  0
LTYPE
  2
CENTER
 70
     0
  3
____ _ ____ _ ____ _ ____ _ ____ _ ____ _ ____
 72
    65
 73
     4
 40
2.0
 49
1.25
 49
-0.25
 49
0.25
 49
-0.25
  0
LTYPE
  2
HIDDEN
 70
     0
  3
Hidden __ __ __ __ __ __ __ __ __ __ __ __ __ _
 72
    65
 73
     2
 40
0.375
 49
0.25
 49
-0.125
  0
LTYPE
  2
PHANTOM2
 70
     0
  3
___ _ _ ___ _ _ ___ _ _ ___ _ _
 72
    65
 73
     6
 40
1.25
 49
0.625
 49
-0.125
 49
0.125
 49
-0.125
 49
0.125
 49
-0.125
  0
ENDTAB
  0
TABLE
  2
LAYER
 70
     4
  0
LAYER
  2
0
 70
     0
 62
     7
  6
CONTINUOUS
  0
LAYER
  2
1
 70
     0
 62
     1
  6
CENTER
  0
LAYER
  2
2
 70
     0
 62
     2
  6
HIDDEN
  0
LAYER
  2
DEFPOINTS
 70
     0
 62
     7
  6
CONTINUOUS
  0
ENDTAB
  0
TABLE
  2
STYLE
 70
     2
  0
STYLE
  2
STANDARD
 70
     0
 40
0.0
 41
1.0
 50
0.0
 71
     0
 42
0.2
  3
TXT
  4
BIGFONT
  0
STYLE
  2
STANDARD1
 70
     0
 40
0.0
 41
1.0
 50
0.0
 71
     0
 42
3.0
  3
txt
  4

  0
ENDTAB
  0
TABLE
  2
VIEW
 70
     1
  0
VIEW
  2
ALL
 70
     0
 40
540.0
 10
441.98319327731087
 20
270.0
 41
0.0
 11
0.0
 21
0.0
 31
1.0
 12
0.0
 22
0.0
 32
0.0
 42
0.0
 43
0.0
 44
0.0
 50
0.0
 71
     0
  0
ENDTAB
  0
TABLE
  2
UCS
 70
     0
  0
ENDTAB
  0
TABLE
  2
APPID
 70
    11
  0
APPID
  2
ACAD
 70
     0
  0
APPID
  2
ACAD_EXEMPT_FROM_CAD_STANDARDS
 70
     0
  0
APPID
  2
ACAD_DSTYLE_DIMJAG
 70
     0
  0
APPID
  2
ACAD_DSTYLE_DIMTALN
 70
     0
  0
APPID
  2
ACAD_MLEADERVER
 70
     0
  0
APPID
  2
GENIUS_GENODEF_13
 70
     0
  0
APPID
  2
GENIUS_GENOBJ-N-FIL_13
 70
     0
  0
APPID
  2
GENIUS_GENOREF_13
 70
     0
  0
APPID
  2
ACAD_PSEXT
 70
     0
  0
APPID
  2
ACAD_DSTYLE_DIMRADIAL_EXTENSION
 70
     0
  0
APPID
  2
ACAD_NAV_VCDISPLAY
 70
     0
  0
ENDTAB
  0
TABLE
  2
DIMSTYLE
 70
     1
  0
DIMSTYLE
  2
STANDARD
 70
     0
  3

  4

  5

  6

  7

 40
1.0
 41
0.18
 42
0.0625
 43
0.38
 44
0.18
 45
0.0
 46
0.0
 47
0.0
 48
0.0
140
0.18
141
0.09
142
0.0
143
25.399999999999999
144
1.0
145
0.0
146
1.0
147
0.09
 71
     0
 72
     0
 73
     1
 74
     1
 75
     0
 76
     0
 77
     0
 78
     0
170
     0
171
     2
172
     0
173
     0
174
     0
175
     0
176
     0
177
     0
178
     0
  0
ENDTAB
  0
ENDSEC
  0
SECTION
  2
BLOCKS
  0
BLOCK
  8
0
  2
$MODEL_SPACE
 70
     0
 10
0.0
 20
0.0
 30
0.0
  3
$MODEL_SPACE
  1

  0
ENDBLK
  5
13C
  8
0
  0
BLOCK
 67
     1
  8
0
  2
$PAPER_SPACE
 70
     0
 10
0.0
 20
0.0
 30
0.0
  3
$PAPER_SPACE
  1

  0
ENDBLK
  5
13A
 67
     1
  8
0
  0
ENDSEC
  0
SECTION
  2
ENTITIES
  0
CIRCLE
  5
971
  8
0
 10
384.04116885237107
 20
516.12884592274759
 30
0.0
 40
12.0
  0
LINE
  5
97A
  8
1
 10
355.49280303564109
 20
516.12884592274781
 30
0.0
 11
412.589534669101
 21
516.1288459227469
 31
0.0
  0
CIRCLE
  5
97C
  8
0
 10
384.04116885237067
 20
446.12884592274759
 30
0.0
 40
19.5
  0
CIRCLE
  5
97D
  8
0
 10
384.04116885237067
 20
446.12884592274759
 30
0.0
 40
85.686762236859153
  0
CIRCLE
  5
97E
  8
0
 10
384.04116885237067
 20
446.12884592274759
 30
0.0
 40
88.0
  0
LINE
  5
990
  8
1
 10
384.0411688523709
 20
550.67721173947746
 30
0.0
 11
384.04116885237022
 21
341.58048010601721
 31
0.0
  0
LINE
  5
991
  8
1
 10
279.49280303564052
 20
446.12884592274759
 30
0.0
 11
488.58953466910111
 21
446.12884592274702
 31
0.0
  0
LINE
  5
890C
  8
1
 10
727.9828403610129
 20
516.12884592274781
 30
0.0
 11
670.88610872755294
 21
516.1288459227469
 31
0.0
  0
CIRCLE
  5
890D
  8
0
 10
699.43447454428326
 20
446.12884592274759
 30
0.0
 40
19.5
  0
CIRCLE
  5
890E
  8
0
 10
699.43447454428326
 20
446.12884592274759
 30
0.0
 40
85.686762236859153
  0
CIRCLE
  5
890F
  8
0
 10
699.43447454428326
 20
446.12884592274759
 30
0.0
 40
88.0
  0
LINE
  5
8910
  8
1
 10
699.43447454428315
 20
550.67721173947746
 30
0.0
 11
699.43447454428383
 21
341.58048010601721
 31
0.0
  0
LINE
  5
8911
  8
1
 10
803.98284036101347
 20
446.12884592274759
 30
0.0
 11
594.88610872755294
 21
446.12884592274702
 31
0.0
  0
POLYLINE
  5
8AD2
  8
0
 66
     1
 10
0.0
 20
0.0
 30
0.0
  0
VERTEX
  5
95A1
  8
0
 10
377.60971078276378
 20
505.9918344128784
 30
0.0
  0
VERTEX
  5
95A2
  8
0
 10
384.61735495009589
 20
497.57442530152838
 30
0.0
  0
VERTEX
  5
95A3
  8
0
 10
394.796390565477
 20
485.34761910422043
 30
0.0
  0
VERTEX
  5
95A4
  8
0
 10
402.36527224512542
 20
476.25606535353131
 30
0.0
  0
VERTEX
  5
95A5
  8
0
 10
405.68507317844433
 20
472.26840245902332
 30
0.0
  0
VERTEX
  5
95A6
  8
0
 10
406.37682961166331
 20
471.45029597818478
 30
0.0
  0
VERTEX
  5
95A7
  8
0
 10
407.78867359237341
 20
469.85598316235428
 30
0.0
  0
VERTEX
  5
95A8
  8
0
 10
409.23880716635853
 20
468.31520261972992
 30
0.0
  0
VERTEX
  5
95A9
  8
0
 10
409.9846549291376
 20
467.55794284801158
 30
0.0
  0
VERTEX
  5
95AA
  8
0
 10
411.6747299274067
 20
465.8678678497422
 30
0.0
  0
VERTEX
  5
95AB
  8
0
 10
415.15834764613822
 20
462.38425013101079
 30
0.0
  0
VERTEX
  5
95AC
  8
0
 10
418.8777940297507
 20
458.66480374739848
 30
0.0
  0
VERTEX
  5
95AD
  8
0
 10
420.86872699193538
 20
456.67387078521358
 30
0.0
  0
VERTEX
  5
95AE
  8
0
 10
422.32871813414391
 20
455.2557272842356
 30
0.0
  0
VERTEX
  5
95AF
  8
0
 10
425.38460756977929
 20
452.53687715027968
 30
0.0
  0
VERTEX
  5
95B0
  8
0
 10
428.60976443317099
 20
449.9894983210865
 30
0.0
  0
VERTEX
  5
95B1
  8
0
 10
430.28086477959482
 20
448.78523420446209
 30
0.0
  0
VERTEX
  5
95B2
  8
0
 10
432.56889882891869
 20
447.18699704087999
 30
0.0
  0
VERTEX
  5
95B3
  8
0
 10
437.73526982861131
 20
443.57818442945802
 30
0.0
  0
VERTEX
  5
95B4
  8
0
 10
443.91399283051851
 20
439.26222386582612
 30
0.0
  0
VERTEX
  5
95B5
  8
0
 10
447.49662405312239
 20
436.75968490008472
 30
0.0
  0
VERTEX
  5
95B6
  8
0
 10
447.62112858599119
 20
436.6739356706077
 30
0.0
  0
VERTEX
  5
95B7
  8
0
 10
447.87382575071308
 20
436.50719720933103
 30
0.0
  0
VERTEX
  5
95B8
  8
0
 10
448.13115828976839
 20
436.34702502641721
 30
0.0
  0
VERTEX
  5
95B9
  8
0
 10
448.26145329914772
 20
436.2694781427229
 30
0.0
  0
VERTEX
  5
95BA
  8
0
 10
448.39277400665168
 20
436.19366195037901
 30
0.0
  0
VERTEX
  5
95BB
  8
0
 10
448.65835917140112
 20
436.04729818262268
 30
0.0
  0
VERTEX
  5
95BC
  8
0
 10
448.92760265793981
 20
435.90809811873982
 30
0.0
  0
VERTEX
  5
95BD
  8
0
 10
449.20011895477478
 20
435.77623848370388
 30
0.0
  0
VERTEX
  5
95BE
  8
0
 10
449.47550604319872
 20
435.65187269519271
 30
0.0
  0
VERTEX
  5
95BF
  8
0
 10
449.75334866361362
 20
435.53512877875869
 30
0.0
  0
VERTEX
  5
95C0
  8
0
 10
449.89305822766119
 20
435.47964768329638
 30
0.0
  0
VERTEX
  5
95C1
  8
0
 10
450.03322165725803
 20
435.42610776005552
 30
0.0
  0
VERTEX
  5
95C2
  8
0
 10
450.31469350116288
 20
435.32488246692282
 30
0.0
  0
VERTEX
  5
95C3
  8
0
 10
450.59732850409728
 20
435.23149722897978
 30
0.0
  0
VERTEX
  5
95C4
  8
0
 10
450.88067997158339
 20
435.14597039161379
 30
0.0
  0
VERTEX
  5
95C5
  8
0
 10
451.1642864474415
 20
435.06829473728811
 30
0.0
  0
VERTEX
  5
95C6
  8
0
 10
451.44767482291599
 20
434.99843561507498
 30
0.0
  0
VERTEX
  5
95C7
  8
0
 10
451.58913706129869
 20
434.9664185436543
 30
0.0
  0
VERTEX
  5
95C8
  8
0
 10
451.73036388094278
 20
434.93632943707809
 30
0.0
  0
VERTEX
  5
95C9
  8
0
 10
452.01186790400789
 20
434.88188266331912
 30
0.0
  0
VERTEX
  5
95CA
  8
0
 10
452.29214776155271
 20
434.83490196495171
 30
0.0
  0
VERTEX
  5
95CB
  8
0
 10
452.43301511867452
 20
434.81398461264928
 30
0.0
  0
VERTEX
  5
95CC
  8
0
 10
452.57460485065661
 20
434.79476303409541
 30
0.0
  0
VERTEX
  5
95CD
  8
0
 10
452.85979546645262
 20
434.76149786697817
 30
0.0
  0
VERTEX
  5
95CE
  8
0
 10
453.1474033234669
 20
434.73527632945053
 30
0.0
  0
VERTEX
  5
95CF
  8
0
 10
453.29201336318403
 20
434.72485491297471
 30
0.0
  0
VERTEX
  5
95D0
  8
0
 10
453.4371068292532
 20
434.71624963749389
 30
0.0
  0
VERTEX
  5
95D1
  8
0
 10
453.72858142250419
 20
434.70455014591079
 30
0.0
  0
VERTEX
  5
95D2
  8
0
 10
454.02150191671552
 20
434.7002914161792
 30
0.0
  0
VERTEX
  5
95D3
  8
0
 10
454.3155448545221
 20
434.70356856473978
 30
0.0
  0
VERTEX
  5
95D4
  8
0
 10
454.61039087411922
 20
434.71445889637079
 30
0.0
  0
VERTEX
  5
95D5
  8
0
 10
454.905726348634
 20
434.73302277417179
 30
0.0
  0
VERTEX
  5
95D6
  8
0
 10
455.05348000376461
 20
434.74519663832518
 30
0.0
  0
VERTEX
  5
95D7
  8
0
 10
455.20123834240673
 20
434.75930399370532
 30
0.0
  0
VERTEX
  5
95D8
  8
0
 10
455.49661005585011
 20
434.7933293574921
 30
0.0
  0
VERTEX
  5
95D9
  8
0
 10
455.79152253359757
 20
434.83510841523588
 30
0.0
  0
VERTEX
  5
95DA
  8
0
 10
456.08565687910061
 20
434.88463347337961
 30
0.0
  0
VERTEX
  5
95DB
  8
0
 10
456.3786964208179
 20
434.94187985661898
 30
0.0
  0
VERTEX
  5
95DC
  8
0
 10
456.6703288324199
 20
435.00680642015311
 30
0.0
  0
VERTEX
  5
95DD
  8
0
 10
456.8155214622447
 20
435.04213259128409
 30
0.0
  0
VERTEX
  5
95DE
  8
0
 10
456.96024820812011
 20
435.07935631404621
 30
0.0
  0
VERTEX
  5
95DF
  8
0
 10
457.24817762924232
 20
435.15946400747828
 30
0.0
  0
VERTEX
  5
95E0
  8
0
 10
457.53392078549558
 20
435.24707544034823
 30
0.0
  0
VERTEX
  5
95E1
  8
0
 10
457.8171971541571
 20
435.34210150368989
 30
0.0
  0
VERTEX
  5
95E2
  8
0
 10
458.09771475195669
 20
435.44443296449299
 30
0.0
  0
VERTEX
  5
95E3
  8
0
 10
458.37518439176802
 20
435.55394383326092
 30
0.0
  0
VERTEX
  5
95E4
  8
0
 10
458.51268715515999
 20
435.61134769523233
 30
0.0
  0
VERTEX
  5
95E5
  8
0
 10
458.64932184567641
 20
435.67049180327672
 30
0.0
  0
VERTEX
  5
95E6
  8
0
 10
458.91984991956389
 20
435.79391893013769
 30
0.0
  0
VERTEX
  5
95E7
  8
0
 10
459.18650044064242
 20
435.92405255175271
 30
0.0
  0
VERTEX
  5
95E8
  8
0
 10
459.44901615908242
 20
436.06070645185918
 30
0.0
  0
VERTEX
  5
95E9
  8
0
 10
459.70715174040407
 20
436.20368180266968
 30
0.0
  0
VERTEX
  5
95EA
  8
0
 10
459.96066878154687
 20
436.35276462774749
 30
0.0
  0
VERTEX
  5
95EB
  8
0
 10
460.08562182888039
 20
436.42952465202302
 30
0.0
  0
VERTEX
  5
95EC
  8
0
 10
460.20933266464942
 20
436.50772332281872
 30
0.0
  0
VERTEX
  5
95ED
  8
0
 10
460.4529146809453
 20
436.66830892278182
 30
0.0
  0
VERTEX
  5
95EE
  8
0
 10
460.69119437513382
 20
436.83425580566512
 30
0.0
  0
VERTEX
  5
95EF
  8
0
 10
460.92396173492767
 20
437.00528263673971
 30
0.0
  0
VERTEX
  5
95F0
  8
0
 10
461.15101922922088
 20
437.1810935504044
 30
0.0
  0
VERTEX
  5
95F1
  8
0
 10
461.37218369965132
 20
437.36137957226077
 30
0.0
  0
VERTEX
  5
95F2
  8
0
 10
461.48057738152352
 20
437.45316464492618
 30
0.0
  0
VERTEX
  5
95F3
  8
0
 10
461.58808100567529
 20
437.54651745966299
 30
0.0
  0
VERTEX
  5
95F4
  8
0
 10
461.80061670915143
 20
437.73818362136331
 30
0.0
  0
VERTEX
  5
95F5
  8
0
 10
462.00957242764991
 20
437.93636221147619
 30
0.0
  0
VERTEX
  5
95F6
  8
0
 10
462.11260330857289
 20
438.03785150196109
 30
0.0
  0
VERTEX
  5
95F7
  8
0
 10
462.21461517120252
 20
438.14091626787808
 30
0.0
  0
VERTEX
  5
95F8
  8
0
 10
462.41542333639688
 20
438.3516930545872
 30
0.0
  0
VERTEX
  5
95F9
  8
0
 10
462.61168834100232
 20
438.56852578448928
 30
0.0
  0
VERTEX
  5
95FA
  8
0
 10
462.70802464133072
 20
438.67915763186301
 30
0.0
  0
VERTEX
  5
95FB
  8
0
 10
462.80311604788488
 20
438.79123553236923
 30
0.0
  0
VERTEX
  5
95FC
  8
0
 10
462.98942797873133
 20
439.0196333428994
 30
0.0
  0
VERTEX
  5
95FD
  8
0
 10
463.170362307826
 20
439.2535225302924
 30
0.0
  0
VERTEX
  5
95FE
  8
0
 10
463.3456734109659
 20
439.49269946436891
 30
0.0
  0
VERTEX
  5
95FF
  8
0
 10
463.51512740327092
 20
439.73694837399148
 30
0.0
  0
VERTEX
  5
9600
  8
0
 10
463.67850119829973
 20
439.98603954845242
 30
0.0
  0
VERTEX
  5
9601
  8
0
 10
463.75784163982888
 20
440.11232576243532
 30
0.0
  0
VERTEX
  5
9602
  8
0
 10
463.8355840402071
 20
440.23973087664342
 30
0.0
  0
VERTEX
  5
9603
  8
0
 10
463.98617887840641
 20
440.49776960644539
 30
0.0
  0
VERTEX
  5
9604
  8
0
 10
464.13010351606948
 20
440.75989423274461
 30
0.0
  0
VERTEX
  5
9605
  8
0
 10
464.26719153400057
 20
441.02583651527402
 30
0.0
  0
VERTEX
  5
9606
  8
0
 10
464.39729298853757
 20
441.29532362795328
 30
0.0
  0
VERTEX
  5
9607
  8
0
 10
464.52029598363077
 20
441.56812893252982
 30
0.0
  0
VERTEX
  5
9608
  8
0
 10
464.57910852680982
 20
441.70571667798731
 30
0.0
  0
VERTEX
  5
9609
  8
0
 10
464.63610852714208
 20
441.84404742270988
 30
0.0
  0
VERTEX
  5
960A
  8
0
 10
464.74461576531343
 20
442.1227918692195
 30
0.0
  0
VERTEX
  5
960B
  8
0
 10
464.8457163413284
 20
442.40406425708881
 30
0.0
  0
VERTEX
  5
960C
  8
0
 10
464.93932398295033
 20
442.68755842418051
 30
0.0
  0
VERTEX
  5
960D
  8
0
 10
465.02536849948592
 20
442.9729620512644
 30
0.0
  0
VERTEX
  5
960E
  8
0
 10
465.10379653462132
 20
443.25995874095128
 30
0.0
  0
VERTEX
  5
960F
  8
0
 10
465.14014243121761
 20
443.4039550269448
 30
0.0
  0
VERTEX
  5
9610
  8
0
 10
465.17457207523989
 20
443.54823018711801
 30
0.0
  0
VERTEX
  5
9611
  8
0
 10
465.23767670947097
 20
443.83745841648368
 30
0.0
  0
VERTEX
  5
9612
  8
0
 10
465.29310917445292
 20
444.1273255290784
 30
0.0
  0
VERTEX
  5
9613
  8
0
 10
465.34088403276792
 20
444.41750675710199
 30
0.0
  0
VERTEX
  5
9614
  8
0
 10
465.38103223180133
 20
444.70766914492532
 30
0.0
  0
VERTEX
  5
9615
  8
0
 10
465.4136022710552
 20
444.99747373131072
 30
0.0
  0
VERTEX
  5
9616
  8
0
 10
465.42706566127413
 20
445.14213484295982
 30
0.0
  0
VERTEX
  5
9617
  8
0
 10
465.43866109255413
 20
445.28657783423262
 30
0.0
  0
VERTEX
  5
9618
  8
0
 10
465.45629468523867
 20
445.57463737196599
 30
0.0
  0
VERTEX
  5
9619
  8
0
 10
465.46660840681142
 20
445.8613092228469
 30
0.0
  0
VERTEX
  5
961A
  8
0
 10
465.46972701176333
 20
446.14626129962687
 30
0.0
  0
VERTEX
  5
961B
  8
0
 10
465.46573380762192
 20
446.43143554784729
 30
0.0
  0
VERTEX
  5
961C
  8
0
 10
465.45452916707188
 20
446.71829585681712
 30
0.0
  0
VERTEX
  5
961D
  8
0
 10
465.44618355179591
 20
446.8622520884353
 30
0.0
  0
VERTEX
  5
961E
  8
0
 10
465.43599069553119
 20
447.00650192631753
 30
0.0
  0
VERTEX
  5
961F
  8
0
 10
465.41001541726632
 20
447.29571038866868
 30
0.0
  0
VERTEX
  5
9620
  8
0
 10
465.37651970100268
 20
447.58557720764207
 30
0.0
  0
VERTEX
  5
9621
  8
0
 10
465.3569307514303
 20
447.73065038701941
 30
0.0
  0
VERTEX
  5
9622
  8
0
 10
465.33543890353587
 20
447.87576003320788
 30
0.0
  0
VERTEX
  5
9623
  8
0
 10
465.28672673051932
 20
448.16592051813672
 30
0.0
  0
VERTEX
  5
9624
  8
0
 10
465.23035431064221
 20
448.4557265983251
 30
0.0
  0
VERTEX
  5
9625
  8
0
 10
465.19929095636519
 20
448.60039523650198
 30
0.0
  0
VERTEX
  5
9626
  8
0
 10
465.1663090105468
 20
448.74485459224888
 30
0.0
  0
VERTEX
  5
9627
  8
0
 10
465.09459411413019
 20
449.03298691117539
 30
0.0
  0
VERTEX
  5
9628
  8
0
 10
465.01523019371319
 20
449.31980542960792
 30
0.0
  0
VERTEX
  5
9629
  8
0
 10
464.92825540737567
 20
449.6049919556126
 30
0.0
  0
VERTEX
  5
962A
  8
0
 10
464.83372520720241
 20
449.88823047686691
 30
0.0
  0
VERTEX
  5
962B
  8
0
 10
464.73171180048092
 20
450.16920931885159
 30
0.0
  0
VERTEX
  5
962C
  8
0
 10
464.67792585332489
 20
450.30875565868968
 30
0.0
  0
VERTEX
  5
962D
  8
0
 10
464.62230336699349
 20
450.44762321284111
 30
0.0
  0
VERTEX
  5
962E
  8
0
 10
464.50560303201121
 20
450.72317527510592
 30
0.0
  0
VERTEX
  5
962F
  8
0
 10
464.38172597566938
 20
450.99558233206398
 30
0.0
  0
VERTEX
  5
9630
  8
0
 10
464.2507592352685
 20
451.26465249147742
 30
0.0
  0
VERTEX
  5
9631
  8
0
 10
464.11282278373392
 20
451.53014502433638
 30
0.0
  0
VERTEX
  5
9632
  8
0
 10
463.96806990045502
 20
451.79178513127812
 30
0.0
  0
VERTEX
  5
9633
  8
0
 10
463.89318956302481
 20
451.9210763061846
 30
0.0
  0
VERTEX
  5
9634
  8
0
 10
463.81666974922422
 20
452.04930427608338
 30
0.0
  0
VERTEX
  5
9635
  8
0
 10
463.65880648324941
 20
452.30244222466712
 30
0.0
  0
VERTEX
  5
9636
  8
0
 10
463.4946781219553
 20
452.55094895741217
 30
0.0
  0
VERTEX
  5
9637
  8
0
 10
463.41032987503411
 20
452.67339072199638
 30
0.0
  0
VERTEX
  5
9638
  8
0
 10
461.25370281285132
 20
455.76081495564853
 30
0.0
  0
VERTEX
  5
9639
  8
0
 10
457.14779188031832
 20
461.6388312045446
 30
0.0
  0
VERTEX
  5
963A
  8
0
 10
453.26281936698882
 20
467.20055232687218
 30
0.0
  0
VERTEX
  5
963B
  8
0
 10
451.38478057065657
 20
469.88914999552378
 30
0.0
  0
VERTEX
  5
963C
  8
0
 10
450.20277697646441
 20
471.53028288924088
 30
0.0
  0
VERTEX
  5
963D
  8
0
 10
447.67590403254138
 20
474.7343647571285
 30
0.0
  0
VERTEX
  5
963E
  8
0
 10
444.93950285220382
 20
477.81455645725498
 30
0.0
  0
VERTEX
  5
963F
  8
0
 10
443.49614398990479
 20
479.3012877831834
 30
0.0
  0
VERTEX
  5
9640
  8
0
 10
441.63232766237593
 20
481.16510411071249
 30
0.0
  0
VERTEX
  5
9641
  8
0
 10
437.9771847718394
 20
484.8202470012489
 30
0.0
  0
VERTEX
  5
9642
  8
0
 10
434.39020411986229
 20
488.40722765322602
 30
0.0
  0
VERTEX
  5
9643
  8
0
 10
432.61207192710702
 20
490.18535984598122
 30
0.0
  0
VERTEX
  5
9644
  8
0
 10
431.86778607285481
 20
490.91861857408043
 30
0.0
  0
VERTEX
  5
9645
  8
0
 10
430.32932440840381
 20
492.36737373233012
 30
0.0
  0
VERTEX
  5
9646
  8
0
 10
428.7264000282882
 20
493.78744680679728
 30
0.0
  0
VERTEX
  5
9647
  8
0
 10
427.90161231609551
 20
494.4849415966745
 30
0.0
  0
VERTEX
  5
9648
  8
0
 10
422.72156068506018
 20
498.79742755506231
 30
0.0
  0
VERTEX
  5
9649
  8
0
 10
412.128012940443
 20
507.61674619359951
 30
0.0
  0
VERTEX
  5
964A
  8
0
 10
400.60645770624228
 20
517.20864772380685
 30
0.0
  0
VERTEX
  5
964B
  8
0
 10
394.2151435626127
 20
522.52953146460095
 30
0.0
  0
SEQEND
  5
964C
  8
0
  0
POLYLINE
  5
8AD4
  8
0
 66
     1
 10
0.0
 20
0.0
 30
0.0
  0
VERTEX
  5
964D
  8
0
 10
693.00301647467586
 20
505.99183441287818
 30
0.0
  0
VERTEX
  5
964E
  8
0
 10
700.01066064200802
 20
497.57442530152821
 30
0.0
  0
VERTEX
  5
964F
  8
0
 10
710.18969625738896
 20
485.34761910422031
 30
0.0
  0
VERTEX
  5
9650
  8
0
 10
717.75857793703744
 20
476.25606535353103
 30
0.0
  0
VERTEX
  5
9651
  8
0
 10
721.07837887035635
 20
472.26840245902298
 30
0.0
  0
VERTEX
  5
9652
  8
0
 10
721.77013530357556
 20
471.45029597818461
 30
0.0
  0
VERTEX
  5
9653
  8
0
 10
723.1819792842856
 20
469.85598316235411
 30
0.0
  0
VERTEX
  5
9654
  8
0
 10
724.63211285827072
 20
468.31520261972969
 30
0.0
  0
VERTEX
  5
9655
  8
0
 10
725.37796062104974
 20
467.55794284801141
 30
0.0
  0
VERTEX
  5
9656
  8
0
 10
727.06803561931895
 20
465.86786784974208
 30
0.0
  0
VERTEX
  5
9657
  8
0
 10
730.55165333805041
 20
462.38425013101062
 30
0.0
  0
VERTEX
  5
9658
  8
0
 10
734.27109972166284
 20
458.66480374739831
 30
0.0
  0
VERTEX
  5
9659
  8
0
 10
736.26203268384756
 20
456.67387078521352
 30
0.0
  0
VERTEX
  5
965A
  8
0
 10
737.72202382605599
 20
455.25572728423549
 30
0.0
  0
VERTEX
  5
965B
  8
0
 10
740.77791326169142
 20
452.53687715027939
 30
0.0
  0
VERTEX
  5
965C
  8
0
 10
744.00307012508313
 20
449.98949832108627
 30
0.0
  0
VERTEX
  5
965D
  8
0
 10
745.67417047150695
 20
448.7852342044618
 30
0.0
  0
VERTEX
  5
965E
  8
0
 10
747.96220452083094
 20
447.1869970408797
 30
0.0
  0
VERTEX
  5
965F
  8
0
 10
753.12857552052344
 20
443.57818442945768
 30
0.0
  0
VERTEX
  5
9660
  8
0
 10
759.30729852243064
 20
439.26222386582589
 30
0.0
  0
VERTEX
  5
9661
  8
0
 10
762.88992974503446
 20
436.75968490008449
 30
0.0
  0
VERTEX
  5
9662
  8
0
 10
763.01443427790343
 20
436.67393567060748
 30
0.0
  0
VERTEX
  5
9663
  8
0
 10
763.26713144262533
 20
436.5071972093308
 30
0.0
  0
VERTEX
  5
9664
  8
0
 10
763.52446398168047
 20
436.34702502641687
 30
0.0
  0
VERTEX
  5
9665
  8
0
 10
763.65475899105979
 20
436.26947814272268
 30
0.0
  0
VERTEX
  5
9666
  8
0
 10
763.78607969856387
 20
436.19366195037873
 30
0.0
  0
VERTEX
  5
9667
  8
0
 10
764.05166486331325
 20
436.04729818262251
 30
0.0
  0
VERTEX
  5
9668
  8
0
 10
764.32090834985195
 20
435.90809811873959
 30
0.0
  0
VERTEX
  5
9669
  8
0
 10
764.59342464668691
 20
435.77623848370371
 30
0.0
  0
VERTEX
  5
966A
  8
0
 10
764.86881173511085
 20
435.65187269519248
 30
0.0
  0
VERTEX
  5
966B
  8
0
 10
765.14665435552581
 20
435.53512877875841
 30
0.0
  0
VERTEX
  5
966C
  8
0
 10
765.28636391957332
 20
435.47964768329609
 30
0.0
  0
VERTEX
  5
966D
  8
0
 10
765.42652734917021
 20
435.42610776005517
 30
0.0
  0
VERTEX
  5
966E
  8
0
 10
765.70799919307512
 20
435.32488246692259
 30
0.0
  0
VERTEX
  5
966F
  8
0
 10
765.99063419600941
 20
435.23149722897961
 30
0.0
  0
VERTEX
  5
9670
  8
0
 10
766.27398566349564
 20
435.1459703916135
 30
0.0
  0
VERTEX
  5
9671
  8
0
 10
766.55759213935369
 20
435.06829473728789
 30
0.0
  0
VERTEX
  5
9672
  8
0
 10
766.84098051482806
 20
434.99843561507481
 30
0.0
  0
VERTEX
  5
9673
  8
0
 10
766.98244275321076
 20
434.96641854365402
 30
0.0
  0
VERTEX
  5
9674
  8
0
 10
767.12366957285485
 20
434.93632943707792
 30
0.0
  0
VERTEX
  5
9675
  8
0
 10
767.40517359592002
 20
434.88188266331889
 30
0.0
  0
VERTEX
  5
9676
  8
0
 10
767.6854534534649
 20
434.83490196495148
 30
0.0
  0
VERTEX
  5
9677
  8
0
 10
767.82632081058671
 20
434.81398461264922
 30
0.0
  0
VERTEX
  5
9678
  8
0
 10
767.96791054256869
 20
434.79476303409518
 30
0.0
  0
VERTEX
  5
9679
  8
0
 10
768.25310115836464
 20
434.761497866978
 30
0.0
  0
VERTEX
  5
967A
  8
0
 10
768.54070901537898
 20
434.7352763294503
 30
0.0
  0
VERTEX
  5
967B
  8
0
 10
768.68531905509622
 20
434.72485491297442
 30
0.0
  0
VERTEX
  5
967C
  8
0
 10
768.83041252116527
 20
434.7162496374936
 30
0.0
  0
VERTEX
  5
967D
  8
0
 10
769.12188711441638
 20
434.7045501459105
 30
0.0
  0
VERTEX
  5
967E
  8
0
 10
769.41480760862771
 20
434.70029141617891
 30
0.0
  0
VERTEX
  5
967F
  8
0
 10
769.70885054643429
 20
434.70356856473961
 30
0.0
  0
VERTEX
  5
9680
  8
0
 10
770.00369656603129
 20
434.71445889637062
 30
0.0
  0
VERTEX
  5
9681
  8
0
 10
770.29903204054608
 20
434.7330227741715
 30
0.0
  0
VERTEX
  5
9682
  8
0
 10
770.44678569567668
 20
434.74519663832513
 30
0.0
  0
VERTEX
  5
9683
  8
0
 10
770.5945440343188
 20
434.75930399370498
 30
0.0
  0
VERTEX
  5
9684
  8
0
 10
770.8899157477623
 20
434.79332935749198
 30
0.0
  0
VERTEX
  5
9685
  8
0
 10
771.1848282255097
 20
434.83510841523571
 30
0.0
  0
VERTEX
  5
9686
  8
0
 10
771.47896257101274
 20
434.88463347337932
 30
0.0
  0
VERTEX
  5
9687
  8
0
 10
771.77200211272998
 20
434.94187985661881
 30
0.0
  0
VERTEX
  5
9688
  8
0
 10
772.06363452433197
 20
435.00680642015283
 30
0.0
  0
VERTEX
  5
9689
  8
0
 10
772.20882715415689
 20
435.04213259128392
 30
0.0
  0
VERTEX
  5
968A
  8
0
 10
772.35355390003224
 20
435.07935631404592
 30
0.0
  0
VERTEX
  5
968B
  8
0
 10
772.64148332115451
 20
435.15946400747822
 30
0.0
  0
VERTEX
  5
968C
  8
0
 10
772.92722647740777
 20
435.247075440348
 30
0.0
  0
VERTEX
  5
968D
  8
0
 10
773.21050284606929
 20
435.34210150368972
 30
0.0
  0
VERTEX
  5
968E
  8
0
 10
773.49102044386893
 20
435.44443296449288
 30
0.0
  0
VERTEX
  5
968F
  8
0
 10
773.76849008368015
 20
435.55394383326069
 30
0.0
  0
VERTEX
  5
9690
  8
0
 10
773.90599284707207
 20
435.61134769523198
 30
0.0
  0
VERTEX
  5
9691
  8
0
 10
774.04262753758849
 20
435.67049180327649
 30
0.0
  0
VERTEX
  5
9692
  8
0
 10
774.31315561147608
 20
435.79391893013741
 30
0.0
  0
VERTEX
  5
9693
  8
0
 10
774.57980613255461
 20
435.92405255175248
 30
0.0
  0
VERTEX
  5
9694
  8
0
 10
774.84232185099449
 20
436.06070645185901
 30
0.0
  0
VERTEX
  5
9695
  8
0
 10
775.10045743231615
 20
436.20368180266951
 30
0.0
  0
VERTEX
  5
9696
  8
0
 10
775.35397447345895
 20
436.35276462774732
 30
0.0
  0
VERTEX
  5
9697
  8
0
 10
775.47892752079258
 20
436.42952465202268
 30
0.0
  0
VERTEX
  5
9698
  8
0
 10
775.60263835656156
 20
436.50772332281838
 30
0.0
  0
VERTEX
  5
9699
  8
0
 10
775.84622037285749
 20
436.66830892278148
 30
0.0
  0
VERTEX
  5
969A
  8
0
 10
776.08450006704595
 20
436.8342558056649
 30
0.0
  0
VERTEX
  5
969B
  8
0
 10
776.31726742683975
 20
437.00528263673959
 30
0.0
  0
VERTEX
  5
969C
  8
0
 10
776.54432492113312
 20
437.18109355040428
 30
0.0
  0
VERTEX
  5
969D
  8
0
 10
776.76548939156351
 20
437.36137957226049
 30
0.0
  0
VERTEX
  5
969E
  8
0
 10
776.87388307343565
 20
437.45316464492601
 30
0.0
  0
VERTEX
  5
969F
  8
0
 10
776.98138669758748
 20
437.54651745966271
 30
0.0
  0
VERTEX
  5
96A0
  8
0
 10
777.19392240106345
 20
437.73818362136302
 30
0.0
  0
VERTEX
  5
96A1
  8
0
 10
777.40287811956205
 20
437.93636221147591
 30
0.0
  0
VERTEX
  5
96A2
  8
0
 10
777.50590900048508
 20
438.0378515019608
 30
0.0
  0
VERTEX
  5
96A3
  8
0
 10
777.60792086311471
 20
438.1409162678778
 30
0.0
  0
VERTEX
  5
96A4
  8
0
 10
777.80872902830913
 20
438.35169305458697
 30
0.0
  0
VERTEX
  5
96A5
  8
0
 10
778.00499403291451
 20
438.568525784489
 30
0.0
  0
VERTEX
  5
96A6
  8
0
 10
778.10133033324291
 20
438.67915763186278
 30
0.0
  0
VERTEX
  5
96A7
  8
0
 10
778.19642173979707
 20
438.791235532369
 30
0.0
  0
VERTEX
  5
96A8
  8
0
 10
778.38273367064335
 20
439.01963334289911
 30
0.0
  0
VERTEX
  5
96A9
  8
0
 10
778.56366799973819
 20
439.25352253029217
 30
0.0
  0
VERTEX
  5
96AA
  8
0
 10
778.73897910287803
 20
439.49269946436868
 30
0.0
  0
VERTEX
  5
96AB
  8
0
 10
778.90843309518311
 20
439.73694837399142
 30
0.0
  0
VERTEX
  5
96AC
  8
0
 10
779.07180689021175
 20
439.9860395484522
 30
0.0
  0
VERTEX
  5
96AD
  8
0
 10
779.15114733174096
 20
440.11232576243509
 30
0.0
  0
VERTEX
  5
96AE
  8
0
 10
779.22888973211923
 20
440.23973087664308
 30
0.0
  0
VERTEX
  5
96AF
  8
0
 10
779.37948457031848
 20
440.4977696064451
 30
0.0
  0
VERTEX
  5
96B0
  8
0
 10
779.52340920798167
 20
440.75989423274427
 30
0.0
  0
VERTEX
  5
96B1
  8
0
 10
779.66049722591265
 20
441.0258365152738
 30
0.0
  0
VERTEX
  5
96B2
  8
0
 10
779.79059868044965
 20
441.29532362795311
 30
0.0
  0
VERTEX
  5
96B3
  8
0
 10
779.91360167554285
 20
441.56812893252959
 30
0.0
  0
VERTEX
  5
96B4
  8
0
 10
779.97241421872195
 20
441.70571667798703
 30
0.0
  0
VERTEX
  5
96B5
  8
0
 10
780.02941421905416
 20
441.84404742270971
 30
0.0
  0
VERTEX
  5
96B6
  8
0
 10
780.13792145722562
 20
442.12279186921933
 30
0.0
  0
VERTEX
  5
96B7
  8
0
 10
780.23902203324053
 20
442.40406425708858
 30
0.0
  0
VERTEX
  5
96B8
  8
0
 10
780.33262967486235
 20
442.68755842418028
 30
0.0
  0
VERTEX
  5
96B9
  8
0
 10
780.41867419139805
 20
442.97296205126429
 30
0.0
  0
VERTEX
  5
96BA
  8
0
 10
780.49710222653346
 20
443.25995874095099
 30
0.0
  0
VERTEX
  5
96BB
  8
0
 10
780.5334481231298
 20
443.40395502694469
 30
0.0
  0
VERTEX
  5
96BC
  8
0
 10
780.56787776715203
 20
443.54823018711778
 30
0.0
  0
VERTEX
  5
96BD
  8
0
 10
780.63098240138311
 20
443.83745841648351
 30
0.0
  0
VERTEX
  5
96BE
  8
0
 10
780.686414866365
 20
444.12732552907818
 30
0.0
  0
VERTEX
  5
96BF
  8
0
 10
780.73418972468005
 20
444.41750675710182
 30
0.0
  0
VERTEX
  5
96C0
  8
0
 10
780.77433792371335
 20
444.70766914492509
 30
0.0
  0
VERTEX
  5
96C1
  8
0
 10
780.80690796296744
 20
444.99747373131038
 30
0.0
  0
VERTEX
  5
96C2
  8
0
 10
780.82037135318615
 20
445.14213484295971
 30
0.0
  0
VERTEX
  5
96C3
  8
0
 10
780.83196678446632
 20
445.28657783423228
 30
0.0
  0
VERTEX
  5
96C4
  8
0
 10
780.84960037715086
 20
445.57463737196571
 30
0.0
  0
VERTEX
  5
96C5
  8
0
 10
780.85991409872361
 20
445.86130922284673
 30
0.0
  0
VERTEX
  5
96C6
  8
0
 10
780.86303270367534
 20
446.14626129962681
 30
0.0
  0
VERTEX
  5
96C7
  8
0
 10
780.85903949953411
 20
446.431435547847
 30
0.0
  0
VERTEX
  5
96C8
  8
0
 10
780.84783485898402
 20
446.71829585681689
 30
0.0
  0
VERTEX
  5
96C9
  8
0
 10
780.83948924370804
 20
446.86225208843501
 30
0.0
  0
VERTEX
  5
96CA
  8
0
 10
780.82929638744338
 20
447.00650192631718
 30
0.0
  0
VERTEX
  5
96CB
  8
0
 10
780.80332110917846
 20
447.29571038866851
 30
0.0
  0
VERTEX
  5
96CC
  8
0
 10
780.76982539291487
 20
447.58557720764179
 30
0.0
  0
VERTEX
  5
96CD
  8
0
 10
780.75023644334249
 20
447.7306503870193
 30
0.0
  0
VERTEX
  5
96CE
  8
0
 10
780.72874459544801
 20
447.87576003320771
 30
0.0
  0
VERTEX
  5
96CF
  8
0
 10
780.6800324224314
 20
448.16592051813649
 30
0.0
  0
VERTEX
  5
96D0
  8
0
 10
780.6236600025544
 20
448.45572659832482
 30
0.0
  0
VERTEX
  5
96D1
  8
0
 10
780.59259664827744
 20
448.60039523650192
 30
0.0
  0
VERTEX
  5
96D2
  8
0
 10
780.55961470245904
 20
448.7448545922486
 30
0.0
  0
VERTEX
  5
96D3
  8
0
 10
780.48789980604238
 20
449.0329869111751
 30
0.0
  0
VERTEX
  5
96D4
  8
0
 10
780.40853588562527
 20
449.31980542960758
 30
0.0
  0
VERTEX
  5
96D5
  8
0
 10
780.32156109928781
 20
449.60499195561232
 30
0.0
  0
VERTEX
  5
96D6
  8
0
 10
780.22703089911454
 20
449.88823047686662
 30
0.0
  0
VERTEX
  5
96D7
  8
0
 10
780.125017492393
 20
450.16920931885141
 30
0.0
  0
VERTEX
  5
96D8
  8
0
 10
780.07123154523697
 20
450.30875565868951
 30
0.0
  0
VERTEX
  5
96D9
  8
0
 10
780.01560905890562
 20
450.44762321284099
 30
0.0
  0
VERTEX
  5
96DA
  8
0
 10
779.89890872392345
 20
450.72317527510569
 30
0.0
  0
VERTEX
  5
96DB
  8
0
 10
779.77503166758163
 20
450.9955823320638
 30
0.0
  0
VERTEX
  5
96DC
  8
0
 10
779.64406492718069
 20
451.26465249147719
 30
0.0
  0
VERTEX
  5
96DD
  8
0
 10
779.50612847564605
 20
451.53014502433621
 30
0.0
  0
VERTEX
  5
96DE
  8
0
 10
779.36137559236715
 20
451.791785131278
 30
0.0
  0
VERTEX
  5
96DF
  8
0
 10
779.28649525493688
 20
451.92107630618437
 30
0.0
  0
VERTEX
  5
96E0
  8
0
 10
779.20997544113629
 20
452.04930427608309
 30
0.0
  0
VERTEX
  5
96E1
  8
0
 10
779.05211217516148
 20
452.302442224667
 30
0.0
  0
VERTEX
  5
96E2
  8
0
 10
778.88798381386744
 20
452.55094895741189
 30
0.0
  0
VERTEX
  5
96E3
  8
0
 10
778.80363556694624
 20
452.6733907219961
 30
0.0
  0
VERTEX
  5
96E4
  8
0
 10
776.64700850476345
 20
455.7608149556483
 30
0.0
  0
VERTEX
  5
96E5
  8
0
 10
772.54109757223046
 20
461.63883120454437
 30
0.0
  0
VERTEX
  5
96E6
  8
0
 10
768.65612505890101
 20
467.20055232687213
 30
0.0
  0
VERTEX
  5
96E7
  8
0
 10
766.77808626256865
 20
469.88914999552361
 30
0.0
  0
VERTEX
  5
96E8
  8
0
 10
765.59608266837665
 20
471.5302828892406
 30
0.0
  0
VERTEX
  5
96E9
  8
0
 10
763.06920972445346
 20
474.73436475712828
 30
0.0
  0
VERTEX
  5
96EA
  8
0
 10
760.33280854411589
 20
477.81455645725492
 30
0.0
  0
VERTEX
  5
96EB
  8
0
 10
758.88944968181693
 20
479.30128778318328
 30
0.0
  0
VERTEX
  5
96EC
  8
0
 10
757.02563335428795
 20
481.16510411071221
 30
0.0
  0
VERTEX
  5
96ED
  8
0
 10
753.37049046375148
 20
484.82024700124867
 30
0.0
  0
VERTEX
  5
96EE
  8
0
 10
749.78350981177448
 20
488.40722765322579
 30
0.0
  0
VERTEX
  5
96EF
  8
0
 10
748.0053776190191
 20
490.18535984598088
 30
0.0
  0
VERTEX
  5
96F0
  8
0
 10
747.261091764767
 20
490.91861857408009
 30
0.0
  0
VERTEX
  5
96F1
  8
0
 10
745.722630100316
 20
492.3673737323299
 30
0.0
  0
VERTEX
  5
96F2
  8
0
 10
744.11970572020027
 20
493.78744680679699
 30
0.0
  0
VERTEX
  5
96F3
  8
0
 10
743.29491800800758
 20
494.48494159667422
 30
0.0
  0
VERTEX
  5
96F4
  8
0
 10
738.11486637697237
 20
498.79742755506197
 30
0.0
  0
VERTEX
  5
96F5
  8
0
 10
727.52131863235525
 20
507.61674619359928
 30
0.0
  0
VERTEX
  5
96F6
  8
0
 10
715.99976339815453
 20
517.20864772380673
 30
0.0
  0
VERTEX
  5
96F7
  8
0
 10
709.60844925452466
 20
522.52953146460072
 30
0.0
  0
SEQEND
  5
96F8
  8
0
  0
LINE
  5
8B3E
  8
1
 10
372.19281871285688
 20
527.97719606226065
 30
0.0
 11
465.48544616868361
 21
434.68456860643403
 31
0.0
  0
LINE
  5
8BE2
  8
1
 10
687.58612440476963
 20
527.97719606226065
 30
0.0
 11
780.87875186059637
 21
434.68456860643403
 31
0.0
  0
ARC
  5
8CD4
  8
0
 10
699.43447454428315
 20
516.12884592274725
 30
0.0
 40
9.2000000000000028
 50
337.49498217113779
 51
292.50501782886289
  0
ARC
  5
8CD5
  8
0
 10
699.43447454428315
 20
516.12884592274713
 30
0.0
 40
5.316822470773106
 50
354.05569888337681
 51
275.94430111662967
  0
ARC
  5
8CD6
  8
0
 10
699.43447454428315
 20
516.12884592274713
 30
0.0
 40
5.9474478823671664
 50
349.28202190628139
 51
280.71797809371861
  0
ARC
  5
8CD8
  8
0
 10
698.6213017459188
 20
520.26542059268854
 30
0.0
 40
1.0
 50
45.000000000004611
 51
134.99999999999531
  0
LINE
  5
8CD9
  8
0
 10
707.81368990134581
 20
512.48724599963839
 30
0.0
 11
699.32840852710524
 21
520.9725273738751
 31
0.0
  0
ARC
  5
8CDA
  8
0
 10
695.29789987434185
 20
516.94201872111182
 30
0.0
 40
1.0
 50
134.99999999999531
 51
225.00000000000449
  0
LINE
  5
8CDB
  8
0
 10
697.91419496473213
 20
520.9725273738751
 30
0.0
 11
694.59079309315553
 21
517.64912550229826
 31
0.0
  0
LINE
  5
8CDC
  8
0
 10
694.59079309315553
 20
516.23491193992527
 30
0.0
 11
703.07607446739212
 21
507.74963056568481
 31
0.0
  0
ARC
  5
8CDE
  8
0
 10
699.43447454428315
 20
516.12884592274713
 30
0.0
 40
9.9999999999999964
 50
346.78833061705228
 51
283.21166938294772
  0
ARC
  5
90CC
  8
0
 10
178.38960289765279
 20
516.12884592274759
 30
0.0
 40
12.000000000000011
 50
270.0
 51
90.0
  0
LINE
  5
90CD
  8
0
 10
141.38960289765279
 20
504.12884592274759
 30
0.0
 11
178.38960289765279
 21
504.12884592274759
 31
0.0
  0
LINE
  5
90CE
  8
0
 10
178.38960289765279
 20
528.12884592274747
 30
0.0
 11
141.38960289765279
 21
528.12884592274747
 31
0.0
  0
ARC
  5
90CF
  8
0
 10
141.38960289765279
 20
523.12884592274747
 30
0.0
 40
4.9999999999999849
 50
90.0
 51
156.42182152179939
  0
ARC
  5
90D0
  8
0
 10
141.38960289765279
 20
509.12884592274759
 30
0.0
 40
4.9999999999999742
 50
203.57817847820041
 51
270.0
  0
LINE
  5
90D2
  8
0
 10
113.357530347332
 20
507.1288459227473
 30
0.0
 11
136.80702720269699
 21
507.12884592274747
 31
0.0
  0
LINE
  5
90D3
  8
0
 10
136.80702720269699
 20
525.12884592274759
 30
0.0
 11
112.1869928556266
 21
525.12884592274759
 31
0.0
  0
LINE
  5
90E1
  8
0
 10
178.38960289765279
 20
528.12884592274747
 30
0.0
 11
178.38960289765279
 21
504.12884592274759
 31
0.0
  0
LINE
  5
90E2
  8
0
 10
141.38960289765279
 20
528.12884592274747
 30
0.0
 11
141.38960289765279
 21
504.12884592274759
 31
0.0
  0
LINE
  5
90E3
  8
0
 10
136.80702720269699
 20
525.12884592274759
 30
0.0
 11
136.80702720269699
 21
507.12884592274747
 31
0.0
  0
LINE
  5
90F2
  8
1
 10
95.45622518186542
 20
516.12884592274759
 30
0.0
 11
206.69320754304101
 21
516.12884592274759
 31
0.0
  0
ARC
  5
9121
  8
0
 10
109.1653099997199
 20
531.52884592274768
 30
0.0
 40
2.5999999999999792
 50
3.7206976610065121
 51
90.0
  0
ARC
  5
9122
  8
0
 10
109.1653099997198
 20
360.72884592274761
 30
0.0
 40
2.5999999999999801
 50
270.0
 51
356.27930233899349
  0
LINE
  5
9123
  8
0
 10
81.681269564319464
 20
358.12884592274759
 30
0.0
 11
109.1653099997198
 21
358.12884592274759
 31
0.0
  0
LINE
  5
9124
  8
0
 10
109.1653099997198
 20
534.12884592274759
 30
0.0
 11
81.681269564319564
 21
534.12884592274759
 31
0.0
  0
ARC
  5
9125
  8
0
 10
81.681269564319564
 20
532.50384592274747
 30
0.0
 40
1.625
 50
90.0
 51
180.0
  0
ARC
  5
9126
  8
0
 10
81.681269564319464
 20
359.7538459227477
 30
0.0
 40
1.625
 50
180.0
 51
270.0
  0
LINE
  5
9129
  8
0
 10
67.256269564319496
 20
424.12884592274759
 30
0.0
 11
80.056269564319564
 21
424.12884592274759
 31
0.0
  0
LINE
  5
912C
  8
0
 10
80.056269564319564
 20
468.12884592274759
 30
0.0
 11
67.256269564319496
 21
468.12884592274759
 31
0.0
  0
LINE
  5
912D
  8
0
 10
67.05626956431945
 20
428.62884592274759
 30
0.0
 11
67.256269564319496
 21
428.62884592274759
 31
0.0
  0
LINE
  5
912E
  8
0
 10
67.256269564319496
 20
463.62884592274759
 30
0.0
 11
67.05626956431945
 21
463.62884592274759
 31
0.0
  0
LINE
  5
913A
  8
0
 10
116.05626956431939
 20
465.62884592274759
 30
0.0
 11
116.05626956431939
 21
426.62884592274759
 31
0.0
  0
LINE
  5
913B
  8
0
 10
111.7598298272536
 20
531.69756718558665
 30
0.0
 11
111.7598298272536
 21
360.56012465990869
 31
0.0
  0
LINE
  5
913E
  8
0
 10
80.056269564319564
 20
532.50384592274747
 30
0.0
 11
80.056269564319564
 21
359.7538459227477
 31
0.0
  0
LINE
  5
9140
  8
0
 10
67.256269564319496
 20
468.12884592274759
 30
0.0
 11
67.256269564319496
 21
424.12884592274759
 31
0.0
  0
LINE
  5
9141
  8
0
 10
67.05626956431945
 20
463.62884592274759
 30
0.0
 11
67.05626956431945
 21
428.62884592274759
 31
0.0
  0
LINE
  5
922F
  8
0
 10
111.7598298272536
 20
360.56012465990869
 30
0.0
 11
116.05626956431939
 21
426.62884592274759
 31
0.0
  0
LINE
  5
9231
  8
0
 10
111.7598298272536
 20
531.69756718558665
 30
0.0
 11
116.05626956431939
 21
465.62884592274759
 31
0.0
  0
LINE
  5
9273
  8
1
 10
132.35987420970761
 20
446.12884592274759
 30
0.0
 11
50.50790374758958
 21
446.12884592274759
 31
0.0
  0
LINE
  5
9274
  8
2
 10
67.056269564319564
 20
438.12884592274759
 30
0.0
 11
95.056269564319564
 21
438.1288459227481
 31
0.0
  0
LINE
  5
9275
  8
2
 10
95.056269564319564
 20
454.12884592274759
 30
0.0
 11
67.056269564319564
 21
454.12884592274759
 31
0.0
  0
LINE
  5
9276
  8
2
 10
95.056269564319564
 20
463.62884592274759
 30
0.0
 11
95.056269564319564
 21
428.62884592274759
 31
0.0
  0
LINE
  5
9277
  8
2
 10
111.05626956431951
 20
465.62884592258803
 30
0.0
 11
111.05626956431951
 21
426.6288459226908
 31
0.0
  0
LINE
  5
9278
  8
2
 10
67.256269564319382
 20
463.62884592274759
 30
0.0
 11
94.056269564319564
 21
463.62884592274759
 31
0.0
  0
LINE
  5
9279
  8
2
 10
115.05626956432231
 20
465.62884592258803
 30
0.0
 11
115.05626956432231
 21
426.6288459226908
 31
0.0
  0
LINE
  5
927A
  8
2
 10
116.05626956431939
 20
465.62884592258808
 30
0.0
 11
111.05626956431951
 21
465.62884592258803
 31
0.0
  0
LINE
  5
927B
  8
2
 10
116.05626956431939
 20
426.6288459226908
 30
0.0
 11
111.05626956431951
 21
426.6288459226908
 31
0.0
  0
LINE
  5
927C
  8
2
 10
94.056269564319564
 20
463.62884592274759
 30
0.0
 11
94.056269564319564
 21
462.62884592274759
 31
0.0
  0
LINE
  5
927D
  8
2
 10
94.056269564319564
 20
462.62884592274759
 30
0.0
 11
95.056269564319564
 21
462.62884592274759
 31
0.0
  0
LINE
  5
927E
  8
2
 10
67.256269564319382
 20
428.62884592274759
 30
0.0
 11
94.056269564319564
 21
428.62884592274759
 31
0.0
  0
LINE
  5
927F
  8
2
 10
94.056269564319564
 20
428.62884592274759
 30
0.0
 11
94.056269564319564
 21
429.62884592274759
 31
0.0
  0
LINE
  5
9280
  8
2
 10
94.056269564319564
 20
429.62884592274759
 30
0.0
 11
95.056269564319564
 21
429.62884592274759
 31
0.0
  0
LINE
  5
9281
  8
2
 10
95.056269564319564
 20
463.62884592274759
 30
0.0
 11
111.05626956431951
 21
463.62884592274759
 31
0.0
  0
LINE
  5
9282
  8
2
 10
95.056269564319564
 20
428.62884592274759
 30
0.0
 11
111.05626956431951
 21
428.62884592274759
 31
0.0
  0
ARC
  5
92C5
  8
0
 10
384.04116885237022
 20
235.903586397157
 30
0.0
 40
12.000000000000011
 50
0.0
 51
180.0
  0
LINE
  5
92C6
  8
0
 10
396.04116885237022
 20
198.903586397157
 30
0.0
 11
396.04116885237022
 21
235.903586397157
 31
0.0
  0
LINE
  5
92C7
  8
0
 10
372.04116885237022
 20
235.903586397157
 30
0.0
 11
372.04116885237022
 21
198.903586397157
 31
0.0
  0
ARC
  5
92C8
  8
0
 10
377.04116885237022
 20
198.903586397157
 30
0.0
 40
4.9999999999999849
 50
180.0
 51
246.42182152179959
  0
ARC
  5
92C9
  8
0
 10
391.04116885237022
 20
198.903586397157
 30
0.0
 40
4.9999999999999742
 50
293.57817847820041
 51
0.0
  0
LINE
  5
92CA
  8
0
 10
393.04116885237039
 20
173.5702530638236
 30
0.0
 11
393.04116885237022
 21
194.32101070220119
 31
0.0
  0
LINE
  5
92CB
  8
0
 10
375.04116885237022
 20
194.32101070220119
 30
0.0
 11
375.04116885237022
 21
173.5702530638236
 31
0.0
  0
LINE
  5
92CC
  8
0
 10
372.04116885237022
 20
235.903586397157
 30
0.0
 11
396.04116885237022
 21
235.903586397157
 31
0.0
  0
LINE
  5
92CD
  8
0
 10
372.04116885237022
 20
198.903586397157
 30
0.0
 11
396.04116885237022
 21
198.903586397157
 31
0.0
  0
LINE
  5
92CE
  8
0
 10
375.04116885237022
 20
194.32101070220119
 30
0.0
 11
393.04116885237022
 21
194.32101070220119
 31
0.0
  0
ARC
  5
92D0
  8
0
 10
298.64116885237019
 20
166.67929349922409
 30
0.0
 40
2.5999999999999792
 50
93.720697661006497
 51
180.0
  0
ARC
  5
92D1
  8
0
 10
469.44116885237031
 20
166.679293499224
 30
0.0
 40
2.5999999999999801
 50
0.0
 51
86.279302338993475
  0
LINE
  5
92D2
  8
0
 10
472.04116885237022
 20
139.1952530638236
 30
0.0
 11
472.04116885237022
 21
166.679293499224
 31
0.0
  0
LINE
  5
92D3
  8
0
 10
296.04116885237022
 20
166.679293499224
 30
0.0
 11
296.04116885237022
 21
139.19525306382371
 31
0.0
  0
ARC
  5
92D4
  8
0
 10
297.66616885237028
 20
139.19525306382371
 30
0.0
 40
1.625
 50
180.0
 51
270.0
  0
ARC
  5
92D5
  8
0
 10
470.41616885237022
 20
139.1952530638236
 30
0.0
 40
1.625
 50
270.0
 51
0.0
  0
LINE
  5
92D6
  8
0
 10
406.04116885237022
 20
124.7702530638237
 30
0.0
 11
406.04116885237022
 21
137.57025306382371
 31
0.0
  0
LINE
  5
92D7
  8
0
 10
362.04116885237022
 20
137.57025306382371
 30
0.0
 11
362.04116885237022
 21
124.7702530638237
 31
0.0
  0
LINE
  5
92D8
  8
0
 10
401.54116885237022
 20
124.5702530638236
 30
0.0
 11
401.54116885237022
 21
124.7702530638237
 31
0.0
  0
LINE
  5
92D9
  8
0
 10
366.54116885237022
 20
124.7702530638237
 30
0.0
 11
366.54116885237022
 21
124.5702530638236
 31
0.0
  0
LINE
  5
92DA
  8
0
 10
364.54116885237022
 20
173.5702530638236
 30
0.0
 11
403.54116885237011
 21
173.5702530638236
 31
0.0
  0
LINE
  5
92DB
  8
0
 10
298.47244758953121
 20
169.27381332675779
 30
0.0
 11
469.60989011520911
 21
169.27381332675779
 31
0.0
  0
LINE
  5
92DC
  8
0
 10
297.66616885237028
 20
137.57025306382371
 30
0.0
 11
470.41616885237022
 21
137.57025306382371
 31
0.0
  0
LINE
  5
92DD
  8
0
 10
362.04116885237022
 20
124.7702530638237
 30
0.0
 11
406.04116885237022
 21
124.7702530638237
 31
0.0
  0
LINE
  5
92DE
  8
0
 10
366.54116885237022
 20
124.5702530638236
 30
0.0
 11
401.54116885237022
 21
124.5702530638236
 31
0.0
  0
LINE
  5
92DF
  8
0
 10
469.60989011520911
 20
169.27381332675779
 30
0.0
 11
403.54116885237011
 21
173.5702530638236
 31
0.0
  0
LINE
  5
92E0
  8
0
 10
298.47244758953121
 20
169.27381332675779
 30
0.0
 11
364.54116885237022
 21
173.5702530638236
 31
0.0
  0
LINE
  5
92E2
  8
2
 10
392.04116885237022
 20
124.5702530638237
 30
0.0
 11
392.04116885236982
 21
152.57025306382371
 31
0.0
  0
LINE
  5
92E3
  8
2
 10
376.04116885237022
 20
152.57025306382371
 30
0.0
 11
376.04116885237022
 21
124.5702530638237
 31
0.0
  0
LINE
  5
92E4
  8
2
 10
366.54116885237022
 20
152.57025306382371
 30
0.0
 11
401.54116885237022
 21
152.57025306382371
 31
0.0
  0
LINE
  5
92E5
  8
2
 10
364.54116885252978
 20
168.5702530638238
 30
0.0
 11
403.54116885242701
 21
168.5702530638238
 31
0.0
  0
LINE
  5
92E6
  8
2
 10
366.54116885237022
 20
124.7702530638236
 30
0.0
 11
366.54116885237022
 21
151.57025306382371
 31
0.0
  0
LINE
  5
92E7
  8
2
 10
364.54116885252978
 20
172.5702530638265
 30
0.0
 11
403.54116885242701
 21
172.5702530638265
 31
0.0
  0
LINE
  5
92E8
  8
2
 10
364.54116885252978
 20
173.5702530638236
 30
0.0
 11
364.54116885252978
 21
168.5702530638238
 31
0.0
  0
LINE
  5
92E9
  8
2
 10
403.54116885242701
 20
173.5702530638236
 30
0.0
 11
403.54116885242701
 21
168.5702530638238
 31
0.0
  0
LINE
  5
92EA
  8
2
 10
366.54116885237022
 20
151.57025306382371
 30
0.0
 11
367.54116885237022
 21
151.57025306382371
 31
0.0
  0
LINE
  5
92EB
  8
2
 10
367.54116885237022
 20
151.57025306382371
 30
0.0
 11
367.54116885237022
 21
152.57025306382371
 31
0.0
  0
LINE
  5
92EC
  8
2
 10
401.54116885237022
 20
124.7702530638236
 30
0.0
 11
401.54116885237022
 21
151.57025306382371
 31
0.0
  0
LINE
  5
92ED
  8
2
 10
401.54116885237022
 20
151.57025306382371
 30
0.0
 11
400.54116885237022
 21
151.57025306382371
 31
0.0
  0
LINE
  5
92EE
  8
2
 10
400.54116885237022
 20
151.57025306382371
 30
0.0
 11
400.54116885237022
 21
152.57025306382371
 31
0.0
  0
LINE
  5
92EF
  8
2
 10
366.54116885237022
 20
152.57025306382371
 30
0.0
 11
366.54116885237022
 21
168.5702530638238
 31
0.0
  0
LINE
  5
92F0
  8
2
 10
401.54116885237022
 20
152.57025306382371
 30
0.0
 11
401.54116885237022
 21
168.5702530638238
 31
0.0
  0
LINE
  5
92FD
  8
1
 10
384.04116885237022
 20
108.0218872470938
 30
0.0
 11
384.04116885237022
 21
270.11861888055381
 31
0.0
  0
ARC
  5
9303
  8
0
 10
614.03447454428374
 20
166.6792934992252
 30
0.0
 40
2.5999999999999792
 50
93.720697661006497
 51
180.0
  0
ARC
  5
9304
  8
0
 10
784.83447454428381
 20
166.679293499225
 30
0.0
 40
2.5999999999999801
 50
0.0
 51
86.279302338993475
  0
LINE
  5
9305
  8
0
 10
787.43447454428383
 20
139.19525306382459
 30
0.0
 11
787.43447454428383
 21
166.679293499225
 31
0.0
  0
LINE
  5
9306
  8
0
 10
611.43447454428383
 20
166.679293499225
 30
0.0
 11
611.43447454428383
 21
139.19525306382479
 31
0.0
  0
ARC
  5
9307
  8
0
 10
613.05947454428383
 20
139.19525306382479
 30
0.0
 40
1.625
 50
180.0
 51
270.0
  0
ARC
  5
9308
  8
0
 10
785.80947454428383
 20
139.19525306382459
 30
0.0
 40
1.625
 50
270.0
 51
0.0
  0
LINE
  5
9309
  8
0
 10
721.43447454428383
 20
124.7702530638247
 30
0.0
 11
721.43447454428383
 21
137.57025306382479
 31
0.0
  0
LINE
  5
930A
  8
0
 10
677.43447454428383
 20
137.57025306382479
 30
0.0
 11
677.43447454428383
 21
124.7702530638247
 31
0.0
  0
LINE
  5
930B
  8
0
 10
716.93447454428383
 20
124.57025306382459
 30
0.0
 11
716.93447454428383
 21
124.7702530638247
 31
0.0
  0
LINE
  5
930C
  8
0
 10
681.93447454428383
 20
124.7702530638247
 30
0.0
 11
681.93447454428383
 21
124.57025306382459
 31
0.0
  0
LINE
  5
930D
  8
0
 10
679.93447454428383
 20
173.57025306382459
 30
0.0
 11
718.93447454428383
 21
173.57025306382459
 31
0.0
  0
LINE
  5
930E
  8
0
 10
613.86575328144465
 20
169.27381332675881
 30
0.0
 11
785.00319580712278
 21
169.27381332675881
 31
0.0
  0
LINE
  5
930F
  8
0
 10
613.05947454428383
 20
137.57025306382479
 30
0.0
 11
785.80947454428383
 21
137.57025306382479
 31
0.0
  0
LINE
  5
9310
  8
0
 10
677.43447454428383
 20
124.7702530638247
 30
0.0
 11
721.43447454428383
 21
124.7702530638247
 31
0.0
  0
LINE
  5
9311
  8
0
 10
681.93447454428383
 20
124.57025306382459
 30
0.0
 11
716.93447454428383
 21
124.57025306382459
 31
0.0
  0
LINE
  5
9312
  8
0
 10
785.00319580712278
 20
169.27381332675881
 30
0.0
 11
718.93447454428383
 21
173.57025306382459
 31
0.0
  0
LINE
  5
9313
  8
0
 10
613.86575328144465
 20
169.27381332675881
 30
0.0
 11
679.93447454428383
 21
173.57025306382459
 31
0.0
  0
LINE
  5
9314
  8
2
 10
707.43447454428383
 20
124.57025306382479
 30
0.0
 11
707.43447454428326
 21
152.57025306382479
 31
0.0
  0
LINE
  5
9315
  8
2
 10
691.43447454428383
 20
152.57025306382479
 30
0.0
 11
691.43447454428383
 21
124.57025306382479
 31
0.0
  0
LINE
  5
9316
  8
2
 10
681.93447454428383
 20
152.57025306382479
 30
0.0
 11
716.93447454428383
 21
152.57025306382479
 31
0.0
  0
LINE
  5
9317
  8
2
 10
679.93447454444345
 20
168.57025306382479
 30
0.0
 11
718.93447454434056
 21
168.57025306382479
 31
0.0
  0
LINE
  5
9318
  8
2
 10
681.93447454428383
 20
124.7702530638246
 30
0.0
 11
681.93447454428383
 21
151.57025306382479
 31
0.0
  0
LINE
  5
9319
  8
2
 10
679.93447454444345
 20
172.57025306382749
 30
0.0
 11
718.93447454434056
 21
172.57025306382749
 31
0.0
  0
LINE
  5
931A
  8
2
 10
679.93447454444345
 20
173.57025306382459
 30
0.0
 11
679.93447454444345
 21
168.57025306382479
 31
0.0
  0
LINE
  5
931B
  8
2
 10
718.93447454434056
 20
173.57025306382459
 30
0.0
 11
718.93447454434056
 21
168.57025306382479
 31
0.0
  0
LINE
  5
931C
  8
2
 10
681.93447454428383
 20
151.57025306382479
 30
0.0
 11
682.93447454428383
 21
151.57025306382479
 31
0.0
  0
LINE
  5
931D
  8
2
 10
682.93447454428383
 20
151.57025306382479
 30
0.0
 11
682.93447454428383
 21
152.57025306382479
 31
0.0
  0
LINE
  5
931E
  8
2
 10
716.93447454428383
 20
124.7702530638246
 30
0.0
 11
716.93447454428383
 21
151.57025306382479
 31
0.0
  0
LINE
  5
931F
  8
2
 10
716.93447454428383
 20
151.57025306382479
 30
0.0
 11
715.93447454428383
 21
151.57025306382479
 31
0.0
  0
LINE
  5
9320
  8
2
 10
715.93447454428383
 20
151.57025306382479
 30
0.0
 11
715.93447454428383
 21
152.57025306382479
 31
0.0
  0
LINE
  5
9321
  8
2
 10
681.93447454428383
 20
152.57025306382479
 30
0.0
 11
681.93447454428383
 21
168.57025306382479
 31
0.0
  0
LINE
  5
9322
  8
2
 10
716.93447454428383
 20
152.57025306382479
 30
0.0
 11
716.93447454428383
 21
168.57025306382479
 31
0.0
  0
LINE
  5
9323
  8
1
 10
699.43447454428383
 20
108.0218872470948
 30
0.0
 11
699.43447454428383
 21
190.11861888055449
 31
0.0
  0
ARC
  5
9325
  8
0
 10
974.85308510346056
 20
360.72884592274761
 30
0.0
 40
2.5999999999999792
 50
183.72069766100651
 51
270.0
  0
ARC
  5
9326
  8
0
 10
974.85308510346078
 20
531.52884592274768
 30
0.0
 40
2.5999999999999801
 50
90.0
 51
176.27930233899349
  0
LINE
  5
9327
  8
0
 10
1002.337125538861
 20
534.12884592274759
 30
0.0
 11
974.85308510346078
 21
534.12884592274759
 31
0.0
  0
LINE
  5
9328
  8
0
 10
974.85308510346078
 20
358.12884592274759
 30
0.0
 11
1002.337125538861
 21
358.12884592274759
 31
0.0
  0
ARC
  5
9329
  8
0
 10
1002.337125538861
 20
359.7538459227477
 30
0.0
 40
1.625
 50
270.0
 51
0.0
  0
ARC
  5
932A
  8
0
 10
1002.337125538861
 20
532.50384592274747
 30
0.0
 40
1.625
 50
0.0
 51
90.0
  0
LINE
  5
932B
  8
0
 10
1016.762125538861
 20
468.12884592274759
 30
0.0
 11
1003.962125538861
 21
468.12884592274759
 31
0.0
  0
LINE
  5
932C
  8
0
 10
1003.962125538861
 20
424.12884592274759
 30
0.0
 11
1016.762125538861
 21
424.12884592274759
 31
0.0
  0
LINE
  5
932D
  8
0
 10
1016.962125538861
 20
463.62884592274759
 30
0.0
 11
1016.762125538861
 21
463.62884592274759
 31
0.0
  0
LINE
  5
932E
  8
0
 10
1016.762125538861
 20
428.62884592274759
 30
0.0
 11
1016.962125538861
 21
428.62884592274759
 31
0.0
  0
LINE
  5
932F
  8
0
 10
967.96212553886119
 20
426.62884592274759
 30
0.0
 11
967.96212553886119
 21
465.62884592274759
 31
0.0
  0
LINE
  5
9330
  8
0
 10
972.25856527592714
 20
360.56012465990858
 30
0.0
 11
972.25856527592714
 21
531.69756718558642
 31
0.0
  0
LINE
  5
9331
  8
0
 10
1003.962125538861
 20
359.7538459227477
 30
0.0
 11
1003.962125538861
 21
532.50384592274747
 31
0.0
  0
LINE
  5
9332
  8
0
 10
1016.762125538861
 20
424.12884592274759
 30
0.0
 11
1016.762125538861
 21
468.12884592274759
 31
0.0
  0
LINE
  5
9333
  8
0
 10
1016.962125538861
 20
428.62884592274759
 30
0.0
 11
1016.962125538861
 21
463.62884592274759
 31
0.0
  0
LINE
  5
9334
  8
0
 10
972.25856527592714
 20
531.69756718558642
 30
0.0
 11
967.96212553886119
 21
465.62884592274759
 31
0.0
  0
LINE
  5
9335
  8
0
 10
972.25856527592714
 20
360.56012465990858
 30
0.0
 11
967.96212553886119
 21
426.62884592274759
 31
0.0
  0
LINE
  5
9336
  8
2
 10
1016.962125538861
 20
454.12884592274759
 30
0.0
 11
988.96212553886107
 21
454.12884592274708
 31
0.0
  0
LINE
  5
9337
  8
2
 10
988.96212553886107
 20
438.12884592274759
 30
0.0
 11
1016.962125538861
 21
438.12884592274759
 31
0.0
  0
LINE
  5
9338
  8
2
 10
988.96212553886107
 20
428.62884592274759
 30
0.0
 11
988.96212553886107
 21
463.62884592274759
 31
0.0
  0
LINE
  5
9339
  8
2
 10
972.96212553886107
 20
426.6288459229072
 30
0.0
 11
972.96212553886107
 21
465.62884592280437
 31
0.0
  0
LINE
  5
933A
  8
2
 10
1016.762125538861
 20
428.62884592274759
 30
0.0
 11
989.96212553886107
 21
428.62884592274759
 31
0.0
  0
LINE
  5
933B
  8
2
 10
968.96212553885834
 20
426.6288459229072
 30
0.0
 11
968.96212553885834
 21
465.62884592280437
 31
0.0
  0
LINE
  5
933C
  8
2
 10
967.96212553886119
 20
426.6288459229072
 30
0.0
 11
972.96212553886107
 21
426.6288459229072
 31
0.0
  0
LINE
  5
933D
  8
2
 10
967.96212553886119
 20
465.62884592280437
 30
0.0
 11
972.96212553886107
 21
465.62884592280437
 31
0.0
  0
LINE
  5
933E
  8
2
 10
989.96212553886107
 20
428.62884592274759
 30
0.0
 11
989.96212553886107
 21
429.62884592274759
 31
0.0
  0
LINE
  5
933F
  8
2
 10
989.96212553886107
 20
429.62884592274759
 30
0.0
 11
988.96212553886107
 21
429.62884592274759
 31
0.0
  0
LINE
  5
9340
  8
2
 10
1016.762125538861
 20
463.62884592274759
 30
0.0
 11
989.96212553886107
 21
463.62884592274759
 31
0.0
  0
LINE
  5
9341
  8
2
 10
989.96212553886107
 20
463.62884592274759
 30
0.0
 11
989.96212553886107
 21
462.62884592274759
 31
0.0
  0
LINE
  5
9342
  8
2
 10
989.96212553886107
 20
462.62884592274759
 30
0.0
 11
988.96212553886107
 21
462.62884592274759
 31
0.0
  0
LINE
  5
9343
  8
2
 10
988.96212553886107
 20
428.62884592274759
 30
0.0
 11
972.96212553886107
 21
428.62884592274759
 31
0.0
  0
LINE
  5
9344
  8
2
 10
988.96212553886107
 20
463.62884592274759
 30
0.0
 11
972.96212553886107
 21
463.62884592274759
 31
0.0
  0
LINE
  5
9345
  8
1
 10
1033.5104913555911
 20
446.12884592274759
 30
0.0
 11
951.41375972213143
 21
446.12884592274759
 31
0.0
  0
LINE
  5
9403
  8
0
 10
701.68532096092019
 20
506.35887705921277
 30
0.0
 11
705.48204214311284
 21
501.67031686716678
 31
0.0
  0
LINE
  5
9404
  8
0
 10
713.89300359986373
 20
510.08127832391762
 30
0.0
 11
709.20444340781762
 21
513.8779995061102
 31
0.0
  0
ARC
  5
9406
  8
0
 10
758.83144416395317
 20
456.73187630307677
 30
0.0
 40
12.0
 50
225.0000000000079
 51
45.000000000007837
  0
LINE
  5
9407
  8
0
 10
724.18321188581228
 20
474.40954583274078
 30
0.0
 11
750.34616278971464
 21
448.24659492883848
 31
0.0
  0
LINE
  5
9408
  8
0
 10
767.31672553819192
 20
465.21715767731541
 30
0.0
 11
741.15377463428956
 21
491.38010858121788
 31
0.0
  0
ARC
  5
9409
  8
0
 10
737.61824072835668
 20
487.84457467528517
 30
0.0
 40
5.0000000000000098
 50
45.000000000007837
 51
111.42182152179571
  0
ARC
  5
940A
  8
0
 10
727.71874579174516
 20
477.94507973867348
 30
0.0
 40
5.0000000000000018
 50
158.5781784782026
 51
225.0000000000079
  0
LINE
  5
940B
  8
0
 10
704.52564336882654
 20
498.3097550368459
 30
0.0
 11
723.06416188016817
 21
479.77123652550409
 31
0.0
  0
LINE
  5
940C
  8
0
 10
735.79208394152613
 20
492.49915858686211
 30
0.0
 11
717.25356543018427
 21
511.03767709820391
 31
0.0
  0
ARC
  5
940D
  8
0
 10
717.11214407394687
 20
510.89625574196651
 30
0.0
 40
0.1999999999999993
 50
45.000000000007837
 51
134.99999999999099
  0
LINE
  5
940E
  8
0
 10
704.98526277659755
 20
500.46643071946511
 30
0.0
 11
705.69236955778422
 21
499.75932393827833
 31
0.0
  0
LINE
  5
940F
  8
0
 10
715.80399652875178
 20
509.87095090924589
 30
0.0
 11
715.09688974756534
 21
510.5780576904325
 31
0.0
  0
ARC
  5
9410
  8
0
 10
714.25554695893845
 20
510.30240032675482
 30
0.0
 40
0.3999999999999928
 50
231.00000000000989
 51
314.99999999999102
  0
ARC
  5
9411
  8
0
 10
705.26092014027518
 20
501.30777350809171
 30
0.0
 40
0.3999999999999915
 50
314.99999999999102
 51
38.999999999995502
  0
LINE
  5
9412
  8
0
 10
705.48204214311284
 20
501.67031686716678
 30
0.0
 11
705.57177852485813
 21
501.55950166451169
 31
0.0
  0
LINE
  5
9413
  8
0
 10
714.00381880251871
 20
509.9915419421722
 30
0.0
 11
713.89300359986373
 21
510.08127832391762
 31
0.0
  0
LINE
  5
9414
  8
0
 10
767.31672553819192
 20
465.21715767731541
 30
0.0
 11
750.34616278971464
 21
448.24659492883848
 31
0.0
  0
LINE
  5
9415
  8
0
 10
741.15377463428956
 20
491.38010858121788
 30
0.0
 11
724.18321188581228
 21
474.40954583274078
 31
0.0
  0
LINE
  5
9416
  8
0
 10
735.7920839415259
 20
492.49915858686228
 30
0.0
 11
723.06416188016817
 21
479.77123652550409
 31
0.0
  0
LINE
  5
9417
  8
0
 10
716.97072271770935
 20
511.0376770982038
 30
0.0
 11
704.52564336882631
 21
498.59259774932082
 31
0.0
  0
LINE
  5
9418
  8
0
 10
715.09688974756534
 20
510.5780576904325
 30
0.0
 11
704.98526277659755
 21
500.46643071946511
 31
0.0
  0
LINE
  5
941A
  8
0
 10
709.20444340781762
 20
513.8779995061102
 30
0.0
 11
701.68532096092019
 21
506.35887705921277
 31
0.0
  0
ARC
  5
941C
  8
0
 10
699.43447454428315
 20
516.12884592274713
 30
0.0
 40
11.42757451039741
 50
45.000000000001201
 51
224.99999999999781
  0
LINE
  5
941E
  8
0
 10
693.00301647467586
 20
505.99183441287818
 30
0.0
 11
691.3539591154663
 21
508.04833049393079
 31
0.0
  0
LINE
  5
941F
  8
0
 10
709.60844925452466
 20
522.52953146460072
 30
0.0
 11
707.51498997309955
 21
524.20936135156376
 31
0.0
  0
TEXT
  5
953F
  8
0
 62
     3
 10
0.0
 20
0.0
 30
0.0
 40
10.0
  1
EDHN175F-OG
  7
STANDARD1
  0
ENDSEC
  0
EOF
