  0
SECTION
  2
HEADER
  9
$ACADVER
  1
AC1009
  9
$INSBASE
 10
0.0
 20
0.0
 30
0.0
  9
$EXTMIN
 10
0.0
 20
-2.960436562073669
 30
0.0
  9
$EXTMAX
 10
877.44336412300538
 20
515.53477169961877
 30
0.0
  9
$LIMMIN
 10
0.0
 20
0.0
  9
$LIMMAX
 10
750.0
 20
540.0
  9
$ORTHOMODE
 70
     1
  9
$REGENMODE
 70
     1
  9
$FILLMODE
 70
     1
  9
$QTEXTMODE
 70
     0
  9
$MIRRTEXT
 70
     0
  9
$DRAGMODE
 70
     2
  9
$LTSCALE
 40
20.0
  9
$OSMODE
 70
  3071
  9
$ATTMODE
 70
     1
  9
$TEXTSIZE
 40
0.2
  9
$TRACEWID
 40
0.05
  9
$TEXTSTYLE
  7
STANDARD
  9
$CLAYER
  8
0
  9
$CELTYPE
  6
BYLAYER
  9
$CECOLOR
 62
     6
  9
$DIMSCALE
 40
1.0
  9
$DIMASZ
 40
3.0
  9
$DIMEXO
 40
2.0
  9
$DIMDLI
 40
0.3799999999999999
  9
$DIMRND
 40
0.0
  9
$DIMDLE
 40
0.0
  9
$DIMEXE
 40
2.0
  9
$DIMTP
 40
0.0
  9
$DIMTM
 40
0.0
  9
$DIMTXT
 40
3.0
  9
$DIMCEN
 40
0.09
  9
$DIMTSZ
 40
0.0
  9
$DIMTOL
 70
     0
  9
$DIMLIM
 70
     0
  9
$DIMTIH
 70
     0
  9
$DIMTOH
 70
     0
  9
$DIMSE1
 70
     0
  9
$DIMSE2
 70
     0
  9
$DIMTAD
 70
     1
  9
$DIMZIN
 70
     8
  9
$DIMBLK
  1

  9
$DIMASO
 70
     1
  9
$DIMSHO
 70
     0
  9
$DIMPOST
  1

  9
$DIMAPOST
  1

  9
$DIMALT
 70
     0
  9
$DIMALTD
 70
     2
  9
$DIMALTF
 40
25.399999999999999
  9
$DIMLFAC
 40
1.0
  9
$DIMTOFL
 70
     0
  9
$DIMTVP
 40
1.6000000000000001
  9
$DIMTIX
 70
     1
  9
$DIMSOXD
 70
     0
  9
$DIMSAH
 70
     0
  9
$DIMBLK1
  1

  9
$DIMBLK2
  1

  9
$DIMSTYLE
  2
STANDARD
  9
$DIMCLRD
 70
     0
  9
$DIMCLRE
 70
     0
  9
$DIMCLRT
 70
     0
  9
$DIMTFAC
 40
1.0
  9
$DIMGAP
 40
1.5
  9
$LUNITS
 70
     2
  9
$LUPREC
 70
     4
  9
$SKETCHINC
 40
0.1
  9
$FILLETRAD
 40
0.2
  9
$AUNITS
 70
     0
  9
$AUPREC
 70
     0
  9
$MENU
  1
E:\r13\win\SUPPORT\ACAD
  9
$ELEVATION
 40
0.0
  9
$PELEVATION
 40
0.0
  9
$THICKNESS
 40
0.0
  9
$LIMCHECK
 70
     0
  9
$BLIPMODE
 70
     0
  9
$CHAMFERA
 40
0.0
  9
$CHAMFERB
 40
0.0
  9
$SKPOLY
 70
     0
  9
$TDCREATE
 40
2449839.7807291672
  9
$TDUPDATE
 40
2456598.6443546992
  9
$TDINDWG
 40
0.7588162963
  9
$TDUSRTIMER
 40
0.7588162963
  9
$USRTIMER
 70
     1
  9
$ANGBASE
 50
0.0
  9
$ANGDIR
 70
     0
  9
$PDMODE
 70
     0
  9
$PDSIZE
 40
0.0
  9
$PLINEWID
 40
0.0
  9
$COORDS
 70
     1
  9
$SPLFRAME
 70
     0
  9
$SPLINETYPE
 70
     6
  9
$SPLINESEGS
 70
     8
  9
$ATTDIA
 70
     0
  9
$ATTREQ
 70
     1
  9
$HANDLING
 70
     1
  9
$HANDSEED
  5
97F9
  9
$SURFTAB1
 70
     6
  9
$SURFTAB2
 70
     6
  9
$SURFTYPE
 70
     6
  9
$SURFU
 70
     6
  9
$SURFV
 70
     6
  9
$UCSNAME
  2

  9
$UCSORG
 10
0.0
 20
0.0
 30
0.0
  9
$UCSXDIR
 10
1.0
 20
0.0
 30
0.0
  9
$UCSYDIR
 10
0.0
 20
1.0
 30
0.0
  9
$PUCSNAME
  2

  9
$PUCSORG
 10
0.0
 20
0.0
 30
0.0
  9
$PUCSXDIR
 10
1.0
 20
0.0
 30
0.0
  9
$PUCSYDIR
 10
0.0
 20
1.0
 30
0.0
  9
$USERI1
 70
     0
  9
$USERI2
 70
     1
  9
$USERI3
 70
     1
  9
$USERI4
 70
     0
  9
$USERI5
 70
     0
  9
$USERR1
 40
0.0
  9
$USERR2
 40
0.0
  9
$USERR3
 40
0.0
  9
$USERR4
 40
0.0
  9
$USERR5
 40
0.0
  9
$WORLDVIEW
 70
     1
  9
$SHADEDGE
 70
     3
  9
$SHADEDIF
 70
    70
  9
$TILEMODE
 70
     1
  9
$MAXACTVP
 70
    16
  9
$PLIMCHECK
 70
     0
  9
$PEXTMIN
 10
1.0000000000000000E+020
 20
1.0000000000000000E+020
 30
1.0000000000000000E+020
  9
$PEXTMAX
 10
-1.0000000000000000E+020
 20
-1.0000000000000000E+020
 30
-1.0000000000000000E+020
  9
$PLIMMIN
 10
0.0
 20
0.0
  9
$PLIMMAX
 10
12.0
 20
9.0
  9
$UNITMODE
 70
     0
  9
$VISRETAIN
 70
     0
  9
$PLINEGEN
 70
     0
  9
$PSLTSCALE
 70
     0
  0
ENDSEC
  0
SECTION
  2
TABLES
  0
TABLE
  2
VPORT
 70
     1
  0
VPORT
  2
*ACTIVE
 70
     0
 10
0.0
 20
0.0
 11
1.0
 21
1.0
 12
438.72168410445971
 22
340.90031900923282
 13
0.0
 23
0.0
 14
20.0
 24
20.0
 15
20.0
 25
20.0
 16
0.0
 26
0.0
 36
1.0
 17
0.0
 27
0.0
 37
0.0
 40
694.00739314055488
 41
1.831871345029239
 42
50.0
 43
0.0
 44
0.0
 50
0.0
 51
0.0
 71
     0
 72
   500
 73
     1
 74
     0
 75
     0
 76
     0
 77
     0
 78
     0
  0
ENDTAB
  0
TABLE
  2
LTYPE
 70
     4
  0
LTYPE
  2
CONTINUOUS
 70
     0
  3
Solid Line
 72
    65
 73
     0
 40
0.0
  0
LTYPE
  2
CENTER
 70
     0
  3
____ _ ____ _ ____ _ ____ _ ____ _ ____ _ ____
 72
    65
 73
     4
 40
2.0
 49
1.25
 49
-0.25
 49
0.25
 49
-0.25
  0
LTYPE
  2
HIDDEN
 70
     0
  3
Hidden __ __ __ __ __ __ __ __ __ __ __ __ __ _
 72
    65
 73
     2
 40
0.375
 49
0.25
 49
-0.125
  0
LTYPE
  2
PHANTOM2
 70
     0
  3
___ _ _ ___ _ _ ___ _ _ ___ _ _
 72
    65
 73
     6
 40
1.25
 49
0.625
 49
-0.125
 49
0.125
 49
-0.125
 49
0.125
 49
-0.125
  0
ENDTAB
  0
TABLE
  2
LAYER
 70
     4
  0
LAYER
  2
0
 70
     0
 62
     7
  6
CONTINUOUS
  0
LAYER
  2
1
 70
     0
 62
     1
  6
CENTER
  0
LAYER
  2
2
 70
     0
 62
     2
  6
HIDDEN
  0
LAYER
  2
DEFPOINTS
 70
     0
 62
     7
  6
CONTINUOUS
  0
ENDTAB
  0
TABLE
  2
STYLE
 70
     2
  0
STYLE
  2
STANDARD
 70
     0
 40
0.0
 41
1.0
 50
0.0
 71
     0
 42
0.2
  3
TXT
  4
BIGFONT
  0
STYLE
  2
STANDARD1
 70
     0
 40
0.0
 41
1.0
 50
0.0
 71
     0
 42
3.0
  3
txt
  4

  0
ENDTAB
  0
TABLE
  2
VIEW
 70
     1
  0
VIEW
  2
ALL
 70
     0
 40
540.0
 10
441.98319327731087
 20
270.0
 41
0.0
 11
0.0
 21
0.0
 31
1.0
 12
0.0
 22
0.0
 32
0.0
 42
0.0
 43
0.0
 44
0.0
 50
0.0
 71
     0
  0
ENDTAB
  0
TABLE
  2
UCS
 70
     0
  0
ENDTAB
  0
TABLE
  2
APPID
 70
    11
  0
APPID
  2
ACAD
 70
     0
  0
APPID
  2
ACAD_EXEMPT_FROM_CAD_STANDARDS
 70
     0
  0
APPID
  2
ACAD_DSTYLE_DIMJAG
 70
     0
  0
APPID
  2
ACAD_DSTYLE_DIMTALN
 70
     0
  0
APPID
  2
ACAD_MLEADERVER
 70
     0
  0
APPID
  2
GENIUS_GENODEF_13
 70
     0
  0
APPID
  2
GENIUS_GENOBJ-N-FIL_13
 70
     0
  0
APPID
  2
GENIUS_GENOREF_13
 70
     0
  0
APPID
  2
ACAD_PSEXT
 70
     0
  0
APPID
  2
ACAD_DSTYLE_DIMRADIAL_EXTENSION
 70
     0
  0
APPID
  2
ACAD_NAV_VCDISPLAY
 70
     0
  0
ENDTAB
  0
TABLE
  2
DIMSTYLE
 70
     1
  0
DIMSTYLE
  2
STANDARD
 70
     0
  3

  4

  5

  6

  7

 40
1.0
 41
0.18
 42
0.0625
 43
0.38
 44
0.18
 45
0.0
 46
0.0
 47
0.0
 48
0.0
140
0.18
141
0.09
142
0.0
143
25.399999999999999
144
1.0
145
0.0
146
1.0
147
0.09
 71
     0
 72
     0
 73
     1
 74
     1
 75
     0
 76
     0
 77
     0
 78
     0
170
     0
171
     2
172
     0
173
     0
174
     0
175
     0
176
     0
177
     0
178
     0
  0
ENDTAB
  0
ENDSEC
  0
SECTION
  2
BLOCKS
  0
BLOCK
  8
0
  2
$MODEL_SPACE
 70
     0
 10
0.0
 20
0.0
 30
0.0
  3
$MODEL_SPACE
  1

  0
ENDBLK
  5
13C
  8
0
  0
BLOCK
 67
     1
  8
0
  2
$PAPER_SPACE
 70
     0
 10
0.0
 20
0.0
 30
0.0
  3
$PAPER_SPACE
  1

  0
ENDBLK
  5
13A
 67
     1
  8
0
  0
ENDSEC
  0
SECTION
  2
ENTITIES
  0
CIRCLE
  5
7E4
  8
0
 10
320.8898732818588
 20
483.65281554532072
 30
0.0
 40
11.0
  0
LINE
  5
7ED
  8
1
 10
295.00791712756057
 20
483.65281554532072
 30
0.0
 11
346.77182943615708
 21
483.65281554532072
 31
0.0
  0
CIRCLE
  5
7EF
  8
0
 10
320.8898732818588
 20
425.65281554532072
 30
0.0
 40
17.00000000000011
  0
CIRCLE
  5
7F0
  8
0
 10
320.8898732818588
 20
425.65281554532072
 30
0.0
 40
72.847949055462564
  0
CIRCLE
  5
7F1
  8
0
 10
320.8898732818588
 20
425.65281554532072
 30
0.0
 40
75.0
  0
LINE
  5
805
  8
1
 10
320.8898732818588
 20
515.53477169961877
 30
0.0
 11
320.8898732818588
 21
335.7708593910225
 31
0.0
  0
LINE
  5
806
  8
1
 10
231.00791712756069
 20
425.65281554532072
 30
0.0
 11
410.77182943615702
 21
425.65281554532072
 31
0.0
  0
ARC
  5
8D15
  8
0
 10
824.80159144794823
 20
498.25281554532057
 30
0.0
 40
2.400000000000023
 50
90.0
 51
176.05481377095811
  0
ARC
  5
8D16
  8
0
 10
824.80159144794823
 20
353.0528155453207
 30
0.0
 40
2.4000000000000341
 50
183.94518622904181
 51
270.0
  0
LINE
  5
8D17
  8
0
 10
849.06140796870704
 20
350.65281554532072
 30
0.0
 11
824.80159144794823
 21
350.65281554532072
 31
0.0
  0
LINE
  5
8D18
  8
0
 10
824.80159144794823
 20
500.65281554532072
 30
0.0
 11
849.06140796870704
 21
500.65281554532072
 31
0.0
  0
ARC
  5
8D19
  8
0
 10
849.06140796870704
 20
499.15281554532061
 30
0.0
 40
1.500000000000014
 50
0.0
 51
90.000000853773628
  0
ARC
  5
8D1A
  8
0
 10
849.06140796870704
 20
352.15281554532072
 30
0.0
 40
1.500000000000014
 50
269.99999914622629
 51
0.0
  0
LINE
  5
8D1D
  8
0
 10
862.36140796870711
 20
406.65281554532061
 30
0.0
 11
850.56140796870716
 21
406.65281554532061
 31
0.0
  0
LINE
  5
8D20
  8
0
 10
850.56140796870716
 20
444.65281554532061
 30
0.0
 11
862.36140796870711
 21
444.65281554532061
 31
0.0
  0
LINE
  5
8D21
  8
0
 10
862.56140796870704
 20
412.65281554532061
 30
0.0
 11
862.36140796870711
 21
412.65281554532061
 31
0.0
  0
LINE
  5
8D22
  8
0
 10
862.36140796870711
 20
438.65281554532061
 30
0.0
 11
862.56140796870704
 21
438.65281554532061
 31
0.0
  0
LINE
  5
8D2B
  8
0
 10
822.40727865973304
 20
352.88769052544382
 30
0.0
 11
818.56140796870716
 21
408.65281554532072
 31
0.0
  0
LINE
  5
8D31
  8
0
 10
824.80159144794823
 20
500.65281554532072
 30
0.0
 11
824.80159144794823
 21
350.65281554532072
 31
0.0
  0
LINE
  5
8D33
  8
0
 10
850.56140796870716
 20
499.15281554532061
 30
0.0
 11
850.56140796870716
 21
352.15281554532072
 31
0.0
  0
LINE
  5
8D35
  8
0
 10
862.36140796870711
 20
444.65281554532061
 30
0.0
 11
862.36140796870711
 21
406.65281554532061
 31
0.0
  0
LINE
  5
8D36
  8
0
 10
862.56140796870704
 20
438.65281554532061
 30
0.0
 11
862.56140796870704
 21
412.65281554532061
 31
0.0
  0
LINE
  5
8D50
  8
0
 10
818.56140796870716
 20
442.65281554532061
 30
0.0
 11
818.56140796870716
 21
408.65281554532072
 31
0.0
  0
LINE
  5
8D69
  8
1
 10
803.8844098060971
 20
425.65281554532072
 30
0.0
 11
877.44336412300538
 21
425.65281554532072
 31
0.0
  0
LINE
  5
8D6A
  8
2
 10
832.56140796870704
 20
410.6528308762513
 30
0.0
 11
832.56140796870704
 21
440.65282760076929
 31
0.0
  0
LINE
  5
8D6B
  8
2
 10
822.56140796870704
 20
408.6528155453201
 30
0.0
 11
822.56140796870704
 21
442.65281554539609
 31
0.0
  0
LINE
  5
8D6C
  8
2
 10
862.56140796870704
 20
418.65281554532038
 30
0.0
 11
832.56140796870704
 21
418.65281554532112
 31
0.0
  0
LINE
  5
8D6D
  8
2
 10
832.56140796870704
 20
432.65281554532061
 30
0.0
 11
862.56140796870704
 21
432.65281554532061
 31
0.0
  0
LINE
  5
8D6E
  8
2
 10
862.36140796870711
 20
438.65281554532061
 30
0.0
 11
834.56526473047154
 21
438.65281554532061
 31
0.0
  0
LINE
  5
8D6F
  8
2
 10
819.56140796870397
 20
442.65281554539632
 30
0.0
 11
819.56140796870397
 21
408.65281554532072
 31
0.0
  0
LINE
  5
8D70
  8
2
 10
834.56507830089981
 20
437.65281554532072
 30
0.0
 11
834.56526473047154
 21
438.65281554532061
 31
0.0
  0
LINE
  5
8D71
  8
2
 10
832.56122153913554
 20
437.65281554532038
 30
0.0
 11
834.56507830089981
 21
437.65281554532038
 31
0.0
  0
LINE
  5
8D72
  8
2
 10
862.36140796870711
 20
412.65281554532061
 30
0.0
 11
834.56526473047154
 21
412.65281554532061
 31
0.0
  0
LINE
  5
8D73
  8
2
 10
834.56507830089981
 20
413.65281554532061
 30
0.0
 11
834.56526473047154
 21
412.65281554532061
 31
0.0
  0
LINE
  5
8D74
  8
2
 10
832.56122153913554
 20
413.65281554532078
 30
0.0
 11
834.56507830089981
 21
413.65281554532078
 31
0.0
  0
LINE
  5
8D75
  8
2
 10
818.56140796871227
 20
442.65281554539638
 30
0.0
 11
822.56140796870704
 21
442.65281554539632
 31
0.0
  0
LINE
  5
8D76
  8
2
 10
818.56140796870716
 20
408.65281554532078
 30
0.0
 11
822.56140796870704
 21
408.65281554532038
 31
0.0
  0
LINE
  5
8D77
  8
2
 10
832.56140796870704
 20
440.65282760076929
 30
0.0
 11
822.56143127270525
 21
440.65289322385661
 31
0.0
  0
LINE
  5
8D78
  8
2
 10
832.56140796870704
 20
410.6528308762513
 30
0.0
 11
822.56119823574079
 21
410.65289322476173
 31
0.0
  0
LINE
  5
8DB8
  8
0
 10
822.40727865973304
 20
498.4179405651974
 30
0.0
 11
818.56140796870716
 21
442.65281554532061
 31
0.0
  0
ARC
  5
8E7C
  8
0
 10
150.18141326834819
 20
483.65281554532072
 30
0.0
 40
11.000000000000011
 50
270.0000008537736
 51
90.0
  0
LINE
  5
8E7D
  8
0
 10
127.18141326834819
 20
472.65281554532061
 30
0.0
 11
150.18141326834819
 21
472.65281554532061
 31
0.0
  0
LINE
  5
8E7E
  8
0
 10
150.18141326834819
 20
494.65281554532061
 30
0.0
 11
127.18141326834819
 21
494.65281554532061
 31
0.0
  0
ARC
  5
8E7F
  8
0
 10
127.18141326834819
 20
489.65281554532061
 30
0.0
 40
4.999999999999992
 50
90.0
 51
143.1301023541514
  0
ARC
  5
8E80
  8
0
 10
127.18141326834809
 20
477.65281554532049
 30
0.0
 40
4.9999999999999307
 50
216.86989764584851
 51
270.0
  0
LINE
  5
8E81
  8
0
 10
96.381413268348183
 20
474.65281554532061
 30
0.0
 11
123.18141326834819
 21
474.65281554532061
 31
0.0
  0
LINE
  5
8E82
  8
0
 10
123.18141326834819
 20
492.65281554532061
 30
0.0
 11
96.381413268348183
 21
492.65281554532061
 31
0.0
  0
ARC
  5
8E83
  8
0
 10
96.381413268348183
 20
492.45281554532068
 30
0.0
 40
0.2000000000000028
 50
90.0
 51
180.0
  0
ARC
  5
8E84
  8
0
 10
96.381413268348183
 20
474.8528155453206
 30
0.0
 40
0.2000000000000028
 50
180.0
 51
270.0
  0
LINE
  5
8E85
  8
0
 10
95.181413268348251
 20
476.50281554532057
 30
0.0
 11
96.181413268348251
 21
476.50281554532057
 31
0.0
  0
LINE
  5
8E86
  8
0
 10
96.181413268348251
 20
490.80281554532058
 30
0.0
 11
95.181413268348251
 21
490.80281554532058
 31
0.0
  0
ARC
  5
8E87
  8
0
 10
94.781413268348274
 20
490.01297716303981
 30
0.0
 40
0.3999999999999964
 50
275.99999999999523
 51
0.0
  0
ARC
  5
8E88
  8
0
 10
94.781413268348274
 20
477.29265392760141
 30
0.0
 40
0.3999999999999915
 50
0.0
 51
84.000000000004789
  0
LINE
  5
8E89
  8
0
 10
150.18141326834819
 20
494.65281554532061
 30
0.0
 11
150.18141326834819
 21
472.65281554532061
 31
0.0
  0
LINE
  5
8E8A
  8
0
 10
127.18141326834819
 20
494.65281554532061
 30
0.0
 11
127.18141326834819
 21
472.65281554532061
 31
0.0
  0
LINE
  5
8E8B
  8
0
 10
123.18141326834819
 20
492.65281554532061
 30
0.0
 11
123.18141326834819
 21
474.65281554532061
 31
0.0
  0
LINE
  5
8E8C
  8
0
 10
96.181413268348251
 20
492.45281554532068
 30
0.0
 11
96.181413268348251
 21
474.8528155453206
 31
0.0
  0
LINE
  5
8E8D
  8
0
 10
95.181413268348251
 20
490.80281554532058
 30
0.0
 11
95.181413268348251
 21
476.50281554532057
 31
0.0
  0
ARC
  5
8E8E
  8
0
 10
90.607896455773698
 20
498.25281554532057
 30
0.0
 40
2.400000000000023
 50
3.94518622904185
 51
90.0
  0
ARC
  5
8E8F
  8
0
 10
90.607896455773698
 20
353.0528155453207
 30
0.0
 40
2.4000000000000341
 50
270.0
 51
356.05481377095822
  0
LINE
  5
8E90
  8
0
 10
66.34807993501488
 20
350.65281554532072
 30
0.0
 11
90.607896455773698
 21
350.65281554532072
 31
0.0
  0
LINE
  5
8E91
  8
0
 10
90.607896455773698
 20
500.65281554532072
 30
0.0
 11
66.34807993501488
 21
500.65281554532072
 31
0.0
  0
ARC
  5
8E92
  8
0
 10
66.34807993501488
 20
499.15281554532061
 30
0.0
 40
1.500000000000014
 50
89.999999146226358
 51
180.0
  0
ARC
  5
8E93
  8
0
 10
66.34807993501488
 20
352.15281554532072
 30
0.0
 40
1.500000000000014
 50
180.0
 51
270.0000008537736
  0
LINE
  5
8E94
  8
0
 10
53.048079935014918
 20
406.65281554532061
 30
0.0
 11
64.84807993501488
 21
406.65281554532061
 31
0.0
  0
LINE
  5
8E95
  8
0
 10
64.84807993501488
 20
444.65281554532061
 30
0.0
 11
53.048079935014918
 21
444.65281554532061
 31
0.0
  0
LINE
  5
8E96
  8
0
 10
52.848079935014873
 20
412.65281554532061
 30
0.0
 11
53.048079935014918
 21
412.65281554532061
 31
0.0
  0
LINE
  5
8E97
  8
0
 10
53.048079935014918
 20
438.65281554532061
 30
0.0
 11
52.848079935014873
 21
438.65281554532061
 31
0.0
  0
LINE
  5
8E98
  8
0
 10
93.002209243988887
 20
352.88769052544382
 30
0.0
 11
96.84807993501488
 21
408.65281554532072
 31
0.0
  0
LINE
  5
8E9A
  8
0
 10
90.607896455773698
 20
500.65281554532072
 30
0.0
 11
90.607896455773698
 21
350.65281554532072
 31
0.0
  0
LINE
  5
8E9B
  8
0
 10
64.84807993501488
 20
499.15281554532061
 30
0.0
 11
64.84807993501488
 21
352.15281554532072
 31
0.0
  0
LINE
  5
8E9C
  8
0
 10
53.048079935014918
 20
444.65281554532061
 30
0.0
 11
53.048079935014918
 21
406.65281554532061
 31
0.0
  0
LINE
  5
8E9D
  8
0
 10
52.848079935014873
 20
438.65281554532061
 30
0.0
 11
52.848079935014873
 21
412.65281554532061
 31
0.0
  0
LINE
  5
8E9E
  8
0
 10
96.84807993501488
 20
442.65281554532061
 30
0.0
 11
96.84807993501488
 21
408.65281554532072
 31
0.0
  0
LINE
  5
8E9F
  8
1
 10
111.5250780976249
 20
425.65281554532072
 30
0.0
 11
37.966123780716657
 21
425.65281554532072
 31
0.0
  0
LINE
  5
8EA0
  8
2
 10
82.848079935014866
 20
410.6528308762513
 30
0.0
 11
82.848079935014866
 21
440.65282760076929
 31
0.0
  0
LINE
  5
8EA1
  8
2
 10
92.848079935014866
 20
408.6528155453201
 30
0.0
 11
92.848079935014866
 21
442.65281554539609
 31
0.0
  0
LINE
  5
8EA2
  8
2
 10
52.848079935014873
 20
418.65281554532038
 30
0.0
 11
82.848079935014866
 21
418.65281554532112
 31
0.0
  0
LINE
  5
8EA3
  8
2
 10
82.848079935014866
 20
432.65281554532061
 30
0.0
 11
52.848079935014873
 21
432.65281554532061
 31
0.0
  0
LINE
  5
8EA4
  8
2
 10
53.048079935014918
 20
438.65281554532061
 30
0.0
 11
80.844223173250484
 21
438.65281554532061
 31
0.0
  0
LINE
  5
8EA5
  8
2
 10
95.848079935018063
 20
442.65281554539632
 30
0.0
 11
95.848079935018063
 21
408.65281554532072
 31
0.0
  0
LINE
  5
8EA6
  8
2
 10
80.844409602822111
 20
437.65281554532072
 30
0.0
 11
80.844223173250484
 21
438.65281554532061
 31
0.0
  0
LINE
  5
8EA7
  8
2
 10
82.848266364586493
 20
437.65281554532038
 30
0.0
 11
80.844409602822111
 21
437.65281554532038
 31
0.0
  0
LINE
  5
8EA8
  8
2
 10
53.048079935014918
 20
412.65281554532061
 30
0.0
 11
80.844223173250484
 21
412.65281554532061
 31
0.0
  0
LINE
  5
8EA9
  8
2
 10
80.844409602822111
 20
413.65281554532061
 30
0.0
 11
80.844223173250484
 21
412.65281554532061
 31
0.0
  0
LINE
  5
8EAA
  8
2
 10
82.848266364586493
 20
413.65281554532078
 30
0.0
 11
80.844409602822111
 21
413.65281554532078
 31
0.0
  0
LINE
  5
8EAB
  8
2
 10
96.848079935009665
 20
442.65281554539638
 30
0.0
 11
92.848079935014866
 21
442.65281554539632
 31
0.0
  0
LINE
  5
8EAC
  8
2
 10
96.84807993501488
 20
408.65281554532078
 30
0.0
 11
92.848079935014866
 21
408.65281554532038
 31
0.0
  0
LINE
  5
8EAD
  8
2
 10
82.848079935014866
 20
440.65282760076929
 30
0.0
 11
92.848056631016675
 21
440.65289322385661
 31
0.0
  0
LINE
  5
8EAE
  8
2
 10
82.848079935014866
 20
410.6528308762513
 30
0.0
 11
92.848289667981248
 21
410.65289322476173
 31
0.0
  0
LINE
  5
8EAF
  8
0
 10
93.002209243988887
 20
498.4179405651974
 30
0.0
 11
96.84807993501488
 21
442.65281554532061
 31
0.0
  0
LINE
  5
8EB0
  8
1
 10
75.059273634808847
 20
483.65281554532072
 30
0.0
 11
176.7300360893131
 21
483.65281554532072
 31
0.0
  0
LINE
  5
8EB1
  8
0
 10
94.681413268348408
 20
489.60026342768771
 30
0.0
 11
94.823224653655302
 21
489.6151684048923
 31
0.0
  0
LINE
  5
8EB2
  8
0
 10
94.68141326834899
 20
477.70536766295351
 30
0.0
 11
94.823224653655302
 21
477.69046268574903
 31
0.0
  0
LINE
  5
8EB6
  8
1
 10
566.66034579996563
 20
483.65281554532072
 30
0.0
 11
618.42425810856196
 21
483.65281554532072
 31
0.0
  0
CIRCLE
  5
8EB7
  8
0
 10
592.54230195426385
 20
425.65281554532072
 30
0.0
 40
17.00000000000011
  0
CIRCLE
  5
8EB8
  8
0
 10
592.54230195426385
 20
425.65281554532072
 30
0.0
 40
72.847949055462564
  0
CIRCLE
  5
8EB9
  8
0
 10
592.54230195426385
 20
425.65281554532072
 30
0.0
 40
75.0
  0
LINE
  5
8EBA
  8
1
 10
592.54230195426385
 20
515.53477169961877
 30
0.0
 11
592.54230195426385
 21
335.7708593910225
 31
0.0
  0
LINE
  5
8EBB
  8
1
 10
502.66034579996563
 20
425.65281554532072
 30
0.0
 11
682.42425810856196
 21
425.65281554532072
 31
0.0
  0
ARC
  5
8EC4
  8
0
 10
320.8898733638153
 20
254.6683946623551
 30
0.0
 40
11.000000000000011
 50
0.0000008537736463
 51
180.0
  0
LINE
  5
8EC5
  8
0
 10
331.8898733638153
 20
231.6683946623551
 30
0.0
 11
331.8898733638153
 21
254.6683946623551
 31
0.0
  0
LINE
  5
8EC6
  8
0
 10
309.8898733638153
 20
254.6683946623551
 30
0.0
 11
309.8898733638153
 21
231.6683946623551
 31
0.0
  0
ARC
  5
8EC7
  8
0
 10
314.8898733638153
 20
231.6683946623551
 30
0.0
 40
4.999999999999992
 50
180.0
 51
233.13010235415209
  0
ARC
  5
8EC8
  8
0
 10
326.88987336381541
 20
231.66839466235501
 30
0.0
 40
4.9999999999999307
 50
306.8698976458474
 51
0.0
  0
LINE
  5
8EC9
  8
0
 10
329.8898733638153
 20
201.33506132902181
 30
0.0
 11
329.8898733638153
 21
227.6683946623551
 31
0.0
  0
LINE
  5
8ECA
  8
0
 10
311.8898733638153
 20
227.6683946623551
 30
0.0
 11
311.8898733638153
 21
201.33506132902181
 31
0.0
  0
LINE
  5
8ED1
  8
0
 10
309.8898733638153
 20
254.6683946623551
 30
0.0
 11
331.8898733638153
 21
254.6683946623551
 31
0.0
  0
LINE
  5
8ED2
  8
0
 10
309.8898733638153
 20
231.6683946623551
 30
0.0
 11
331.8898733638153
 21
231.6683946623551
 31
0.0
  0
LINE
  5
8ED3
  8
0
 10
311.8898733638153
 20
227.6683946623551
 30
0.0
 11
329.8898733638153
 21
227.6683946623551
 31
0.0
  0
ARC
  5
8ED6
  8
0
 10
248.28987328185889
 20
195.09487784978049
 30
0.0
 40
2.400000000000023
 50
93.94518622904188
 51
180.0
  0
ARC
  5
8ED7
  8
0
 10
393.48987328185882
 20
195.09487784978049
 30
0.0
 40
2.4000000000000341
 50
0.0
 51
86.054813770958106
  0
LINE
  5
8ED8
  8
0
 10
395.88987328185891
 20
170.8350613290217
 30
0.0
 11
395.88987328185891
 21
195.09487784978049
 31
0.0
  0
LINE
  5
8ED9
  8
0
 10
245.8898732818588
 20
195.09487784978049
 30
0.0
 11
245.8898732818588
 21
170.8350613290217
 31
0.0
  0
ARC
  5
8EDA
  8
0
 10
247.38987328185891
 20
170.8350613290217
 30
0.0
 40
1.500000000000014
 50
179.99999914622629
 51
270.0
  0
ARC
  5
8EDB
  8
0
 10
394.38987328185891
 20
170.8350613290217
 30
0.0
 40
1.500000000000014
 50
270.0
 51
0.0000008537736463
  0
LINE
  5
8EDC
  8
0
 10
339.8898732818588
 20
157.5350613290218
 30
0.0
 11
339.8898732818588
 21
169.3350613290217
 31
0.0
  0
LINE
  5
8EDD
  8
0
 10
301.88987328185891
 20
169.3350613290217
 30
0.0
 11
301.88987328185891
 21
157.5350613290218
 31
0.0
  0
LINE
  5
8EDE
  8
0
 10
333.8898732818588
 20
157.3350613290217
 30
0.0
 11
333.8898732818588
 21
157.5350613290218
 31
0.0
  0
LINE
  5
8EDF
  8
0
 10
307.88987328185891
 20
157.5350613290218
 30
0.0
 11
307.88987328185891
 21
157.3350613290217
 31
0.0
  0
LINE
  5
8EE0
  8
0
 10
393.6549983017357
 20
197.4891906379957
 30
0.0
 11
337.8898732818588
 21
201.33506132902181
 31
0.0
  0
LINE
  5
8EE2
  8
0
 10
245.8898732818588
 20
195.09487784978049
 30
0.0
 11
395.88987328185891
 21
195.09487784978049
 31
0.0
  0
LINE
  5
8EE3
  8
0
 10
247.38987328185891
 20
169.3350613290217
 30
0.0
 11
394.38987328185891
 21
169.3350613290217
 31
0.0
  0
LINE
  5
8EE4
  8
0
 10
301.88987328185891
 20
157.5350613290218
 30
0.0
 11
339.8898732818588
 21
157.5350613290218
 31
0.0
  0
LINE
  5
8EE5
  8
0
 10
307.88987328185891
 20
157.3350613290217
 30
0.0
 11
333.8898732818588
 21
157.3350613290217
 31
0.0
  0
LINE
  5
8EE6
  8
0
 10
303.88987328185891
 20
201.33506132902181
 30
0.0
 11
337.8898732818588
 21
201.33506132902181
 31
0.0
  0
LINE
  5
8EE8
  8
2
 10
335.88985795092822
 20
187.3350613290217
 30
0.0
 11
305.88986122641018
 21
187.3350613290217
 31
0.0
  0
LINE
  5
8EE9
  8
2
 10
337.88987328185931
 20
197.3350613290217
 30
0.0
 11
303.88987328178342
 21
197.3350613290217
 31
0.0
  0
LINE
  5
8EEA
  8
2
 10
327.88987328185908
 20
157.3350613290217
 30
0.0
 11
327.8898732818584
 21
187.3350613290217
 31
0.0
  0
LINE
  5
8EEB
  8
2
 10
313.88987328185891
 20
187.3350613290217
 30
0.0
 11
313.88987328185891
 21
157.3350613290217
 31
0.0
  0
LINE
  5
8EEC
  8
2
 10
307.88987328185891
 20
157.5350613290218
 30
0.0
 11
307.88987328185891
 21
185.3312045672574
 31
0.0
  0
LINE
  5
8EED
  8
2
 10
303.88987328178308
 20
200.33506132902491
 30
0.0
 11
337.8898732818588
 21
200.33506132902491
 31
0.0
  0
LINE
  5
8EEE
  8
2
 10
308.8898732818588
 20
185.33139099682899
 30
0.0
 11
307.88987328185891
 21
185.3312045672574
 31
0.0
  0
LINE
  5
8EEF
  8
2
 10
308.88987328185908
 20
187.3352477585934
 30
0.0
 11
308.88987328185908
 21
185.33139099682899
 31
0.0
  0
LINE
  5
8EF0
  8
2
 10
333.8898732818588
 20
157.5350613290218
 30
0.0
 11
333.8898732818588
 21
185.3312045672574
 31
0.0
  0
LINE
  5
8EF1
  8
2
 10
332.88987328185891
 20
185.33139099682899
 30
0.0
 11
333.8898732818588
 21
185.3312045672574
 31
0.0
  0
LINE
  5
8EF2
  8
2
 10
332.88987328185863
 20
187.3352477585934
 30
0.0
 11
332.88987328185863
 21
185.33139099682899
 31
0.0
  0
LINE
  5
8EF3
  8
2
 10
303.88987328178303
 20
201.3350613290165
 30
0.0
 11
303.88987328178308
 21
197.3350613290217
 31
0.0
  0
LINE
  5
8EF4
  8
2
 10
337.88987328185868
 20
201.33506132902181
 30
0.0
 11
337.88987328185908
 21
197.3350613290217
 31
0.0
  0
LINE
  5
8EF5
  8
2
 10
305.88986122641018
 20
187.3350613290217
 30
0.0
 11
305.88979560332291
 21
197.33503802502349
 31
0.0
  0
LINE
  5
8EF6
  8
2
 10
335.88985795092822
 20
187.3350613290217
 30
0.0
 11
335.88979560241768
 21
197.3352710619881
 31
0.0
  0
LINE
  5
8EF7
  8
0
 10
248.12474826198209
 20
197.4891906379957
 30
0.0
 11
303.88987328185891
 21
201.33506132902181
 31
0.0
  0
LINE
  5
8EFB
  8
1
 10
320.88987328185891
 20
142.4531051747235
 30
0.0
 11
320.88987328185891
 21
281.21701748331998
 31
0.0
  0
ARC
  5
8F03
  8
0
 10
665.14230195426364
 20
195.09487784978049
 30
0.0
 40
2.400000000000023
 50
0.0
 51
86.054813770958106
  0
ARC
  5
8F04
  8
0
 10
519.94230195426394
 20
195.09487784978049
 30
0.0
 40
2.4000000000000341
 50
93.94518622904188
 51
180.0
  0
LINE
  5
8F05
  8
0
 10
517.54230195426385
 20
170.8350613290217
 30
0.0
 11
517.54230195426385
 21
195.09487784978049
 31
0.0
  0
LINE
  5
8F06
  8
0
 10
667.54230195426373
 20
195.09487784978049
 30
0.0
 11
667.54230195426373
 21
170.8350613290217
 31
0.0
  0
ARC
  5
8F07
  8
0
 10
666.04230195426373
 20
170.8350613290217
 30
0.0
 40
1.500000000000014
 50
270.0
 51
0.0000008537736463
  0
ARC
  5
8F08
  8
0
 10
519.04230195426385
 20
170.8350613290217
 30
0.0
 40
1.500000000000014
 50
179.99999914622629
 51
270.0
  0
LINE
  5
8F09
  8
0
 10
573.54230195426373
 20
157.5350613290218
 30
0.0
 11
573.54230195426385
 21
169.3350613290217
 31
0.0
  0
LINE
  5
8F0A
  8
0
 10
611.54230195426385
 20
169.3350613290217
 30
0.0
 11
611.54230195426373
 21
157.5350613290218
 31
0.0
  0
LINE
  5
8F0B
  8
0
 10
579.54230195426373
 20
157.3350613290217
 30
0.0
 11
579.54230195426373
 21
157.5350613290218
 31
0.0
  0
LINE
  5
8F0C
  8
0
 10
605.54230195426373
 20
157.5350613290218
 30
0.0
 11
605.54230195426373
 21
157.3350613290217
 31
0.0
  0
LINE
  5
8F0D
  8
0
 10
519.77717693438694
 20
197.4891906379957
 30
0.0
 11
575.54230195426385
 21
201.33506132902181
 31
0.0
  0
LINE
  5
8F0E
  8
0
 10
667.54230195426373
 20
195.09487784978049
 30
0.0
 11
517.54230195426385
 21
195.09487784978049
 31
0.0
  0
LINE
  5
8F0F
  8
0
 10
666.04230195426373
 20
169.3350613290217
 30
0.0
 11
519.04230195426385
 21
169.3350613290217
 31
0.0
  0
LINE
  5
8F10
  8
0
 10
611.54230195426373
 20
157.5350613290218
 30
0.0
 11
573.54230195426373
 21
157.5350613290218
 31
0.0
  0
LINE
  5
8F11
  8
0
 10
605.54230195426373
 20
157.3350613290217
 30
0.0
 11
579.54230195426373
 21
157.3350613290217
 31
0.0
  0
LINE
  5
8F12
  8
0
 10
609.54230195426385
 20
201.33506132902181
 30
0.0
 11
575.54230195426385
 21
201.33506132902181
 31
0.0
  0
LINE
  5
8F13
  8
1
 10
592.54230195426385
 20
216.01205949163179
 30
0.0
 11
592.54230195426373
 21
142.4531051747235
 31
0.0
  0
LINE
  5
8F14
  8
2
 10
577.54231728519449
 20
187.3350613290217
 30
0.0
 11
607.54231400971253
 21
187.3350613290217
 31
0.0
  0
LINE
  5
8F15
  8
2
 10
575.54230195426328
 20
197.3350613290217
 30
0.0
 11
609.54230195433934
 21
197.3350613290217
 31
0.0
  0
LINE
  5
8F16
  8
2
 10
585.54230195426351
 20
157.3350613290217
 30
0.0
 11
585.5423019542643
 21
187.3350613290217
 31
0.0
  0
LINE
  5
8F17
  8
2
 10
599.54230195426385
 20
187.3350613290217
 30
0.0
 11
599.54230195426373
 21
157.3350613290217
 31
0.0
  0
LINE
  5
8F18
  8
2
 10
605.54230195426373
 20
157.5350613290218
 30
0.0
 11
605.54230195426385
 21
185.3312045672574
 31
0.0
  0
LINE
  5
8F19
  8
2
 10
609.54230195433945
 20
200.33506132902491
 30
0.0
 11
575.54230195426385
 21
200.33506132902491
 31
0.0
  0
LINE
  5
8F1A
  8
2
 10
604.54230195426385
 20
185.33139099682899
 30
0.0
 11
605.54230195426385
 21
185.3312045672574
 31
0.0
  0
LINE
  5
8F1B
  8
2
 10
604.54230195426362
 20
187.3352477585934
 30
0.0
 11
604.54230195426362
 21
185.33139099682899
 31
0.0
  0
LINE
  5
8F1C
  8
2
 10
579.54230195426373
 20
157.5350613290218
 30
0.0
 11
579.54230195426385
 21
185.3312045672574
 31
0.0
  0
LINE
  5
8F1D
  8
2
 10
580.54230195426385
 20
185.33139099682899
 30
0.0
 11
579.54230195426385
 21
185.3312045672574
 31
0.0
  0
LINE
  5
8F1E
  8
2
 10
580.54230195426396
 20
187.3352477585934
 30
0.0
 11
580.54230195426396
 21
185.33139099682899
 31
0.0
  0
LINE
  5
8F1F
  8
2
 10
609.54230195433956
 20
201.3350613290165
 30
0.0
 11
609.54230195433945
 21
197.3350613290217
 31
0.0
  0
LINE
  5
8F20
  8
2
 10
575.54230195426385
 20
201.33506132902181
 30
0.0
 11
575.54230195426362
 21
197.3350613290217
 31
0.0
  0
LINE
  5
8F21
  8
2
 10
607.54231400971253
 20
187.3350613290217
 30
0.0
 11
607.54237963279979
 21
197.33503802502349
 31
0.0
  0
LINE
  5
8F22
  8
2
 10
577.54231728519449
 20
187.3350613290217
 30
0.0
 11
577.54237963370485
 21
197.3352710619881
 31
0.0
  0
LINE
  5
8F23
  8
0
 10
665.30742697414064
 20
197.4891906379957
 30
0.0
 11
609.54230195426385
 21
201.33506132902181
 31
0.0
  0
POLYLINE
  5
918F
  8
0
 66
     1
 10
0.0
 20
0.0
 30
0.0
  0
VERTEX
  5
9675
  8
0
 10
632.56952978544996
 20
462.01036402498431
 30
0.0
  0
VERTEX
  5
9676
  8
0
 10
631.96537472763453
 20
462.60574748657251
 30
0.0
  0
VERTEX
  5
9677
  8
0
 10
630.71599372866297
 20
463.78367716657181
 30
0.0
  0
VERTEX
  5
9678
  8
0
 10
629.41363811036695
 20
464.94018280727789
 30
0.0
  0
VERTEX
  5
9679
  8
0
 10
628.74333147696552
 20
465.50886354199088
 30
0.0
  0
SEQEND
  5
967A
  8
0
  0
POLYLINE
  5
9190
  8
0
 66
     1
 10
0.0
 20
0.0
 30
0.0
  0
VERTEX
  5
967B
  8
0
 10
641.68715028111023
 20
452.89274352932432
 30
0.0
  0
VERTEX
  5
967C
  8
0
 10
640.12483831336056
 20
454.45505549707377
 30
0.0
  0
VERTEX
  5
967D
  8
0
 10
637.06246690089495
 20
457.51742690953949
 30
0.0
  0
VERTEX
  5
967E
  8
0
 10
634.0584604131634
 20
460.5214333972711
 30
0.0
  0
VERTEX
  5
967F
  8
0
 10
632.56952978544996
 20
462.01036402498431
 30
0.0
  0
SEQEND
  5
9680
  8
0
  0
POLYLINE
  5
9191
  8
0
 66
     1
 10
0.0
 20
0.0
 30
0.0
  0
VERTEX
  5
9681
  8
0
 10
648.12037354372217
 20
445.24119239602823
 30
0.0
  0
VERTEX
  5
9682
  8
0
 10
647.15479069751223
 20
446.57385010500332
 30
0.0
  0
VERTEX
  5
9683
  8
0
 10
645.09287162837654
 20
449.17731760863978
 30
0.0
  0
VERTEX
  5
9684
  8
0
 10
642.86265722152132
 20
451.68253443839308
 30
0.0
  0
VERTEX
  5
9685
  8
0
 10
641.68715028111035
 20
452.89274352932432
 30
0.0
  0
SEQEND
  5
9686
  8
0
  0
POLYLINE
  5
9192
  8
0
 66
     1
 10
0.0
 20
0.0
 30
0.0
  0
VERTEX
  5
9687
  8
0
 10
658.1382430309709
 20
430.99380505618029
 30
0.0
  0
VERTEX
  5
9688
  8
0
 10
656.33995186485663
 20
433.55132996964301
 30
0.0
  0
VERTEX
  5
9689
  8
0
 10
652.9184079781412
 20
438.41744058491628
 30
0.0
  0
VERTEX
  5
968A
  8
0
 10
649.68341558519364
 20
443.01823816193121
 30
0.0
  0
VERTEX
  5
968B
  8
0
 10
648.12037354372217
 20
445.24119239602823
 30
0.0
  0
SEQEND
  5
968C
  8
0
  0
POLYLINE
  5
9193
  8
0
 66
     1
 10
0.0
 20
0.0
 30
0.0
  0
VERTEX
  5
968D
  8
0
 10
645.20131244340416
 20
418.0568744686135
 30
0.0
  0
VERTEX
  5
968E
  8
0
 10
645.30240355323929
 20
417.98678955117867
 30
0.0
  0
VERTEX
  5
968F
  8
0
 10
645.50762320144042
 20
417.85047617486322
 30
0.0
  0
VERTEX
  5
9690
  8
0
 10
645.71666467707655
 20
417.7194861896881
 30
0.0
  0
VERTEX
  5
9691
  8
0
 10
645.82252996106422
 20
417.65605106660001
 30
0.0
  0
VERTEX
  5
9692
  8
0
 10
645.9292429034499
 20
417.59402059882729
 30
0.0
  0
VERTEX
  5
9693
  8
0
 10
646.14508819771993
 20
417.47424592862222
 30
0.0
  0
VERTEX
  5
9694
  8
0
 10
646.36396126791146
 20
417.36029126711128
 30
0.0
  0
VERTEX
  5
9695
  8
0
 10
646.58555330805154
 20
417.25230187372802
 30
0.0
  0
VERTEX
  5
9696
  8
0
 10
646.80953911812571
 20
417.15040580424932
 30
0.0
  0
VERTEX
  5
9697
  8
0
 10
647.03558223789355
 20
417.05471071770091
 30
0.0
  0
VERTEX
  5
9698
  8
0
 10
647.14926772711385
 20
417.00921626438958
 30
0.0
  0
VERTEX
  5
9699
  8
0
 10
647.26333764520723
 20
416.96530250326703
 30
0.0
  0
VERTEX
  5
969A
  8
0
 10
647.49245460742156
 20
416.88224424369611
 30
0.0
  0
VERTEX
  5
969B
  8
0
 10
647.72257911493136
 20
416.80557569860758
 30
0.0
  0
VERTEX
  5
969C
  8
0
 10
647.95334981980068
 20
416.73531496268089
 30
0.0
  0
VERTEX
  5
969D
  8
0
 10
648.18439326991063
 20
416.67145949892262
 30
0.0
  0
VERTEX
  5
969E
  8
0
 10
648.41532599503853
 20
416.61398469919919
 30
0.0
  0
VERTEX
  5
969F
  8
0
 10
648.5306289711317
 20
416.58762599380782
 30
0.0
  0
VERTEX
  5
96A0
  8
0
 10
648.64575739221573
 20
416.56284257945953
 30
0.0
  0
VERTEX
  5
96A1
  8
0
 10
648.87529265889953
 20
416.51796087734198
 30
0.0
  0
VERTEX
  5
96A2
  8
0
 10
649.10362841542826
 20
416.47922801128732
 30
0.0
  0
VERTEX
  5
96A3
  8
0
 10
649.21811245265098
 20
416.4620042666719
 30
0.0
  0
VERTEX
  5
96A4
  8
0
 10
649.33319615767675
 20
416.44615746713731
 30
0.0
  0
VERTEX
  5
96A5
  8
0
 10
649.5650352053143
 20
416.41867024121581
 30
0.0
  0
VERTEX
  5
96A6
  8
0
 10
649.79888705088365
 20
416.39690802215739
 30
0.0
  0
VERTEX
  5
96A7
  8
0
 10
649.91648565378409
 20
416.3882138941986
 30
0.0
  0
VERTEX
  5
96A8
  8
0
 10
650.03448849530366
 20
416.380997207647
 30
0.0
  0
VERTEX
  5
96A9
  8
0
 10
650.2715735739971
 20
416.3710486908883
 30
0.0
  0
VERTEX
  5
96AA
  8
0
 10
650.50987548597368
 20
416.36715787770902
 30
0.0
  0
VERTEX
  5
96AB
  8
0
 10
650.74912853076012
 20
416.36940493481899
 30
0.0
  0
VERTEX
  5
96AC
  8
0
 10
650.989070055041
 20
416.37785527262679
 30
0.0
  0
VERTEX
  5
96AD
  8
0
 10
651.22944211889831
 20
416.39256024700069
 30
0.0
  0
VERTEX
  5
96AE
  8
0
 10
651.34970966037247
 20
416.40227055640059
 30
0.0
  0
VERTEX
  5
96AF
  8
0
 10
651.46998852335196
 20
416.41355759754953
 30
0.0
  0
VERTEX
  5
96B0
  8
0
 10
651.71045004729979
 20
416.4408711344671
 30
0.0
  0
VERTEX
  5
96B1
  8
0
 10
651.95056543282408
 20
416.4745104855138
 30
0.0
  0
VERTEX
  5
96B2
  8
0
 10
652.19007321720483
 20
416.51447107485188
 30
0.0
  0
VERTEX
  5
96B3
  8
0
 10
652.4287135240877
 20
416.56073431024822
 30
0.0
  0
VERTEX
  5
96B4
  8
0
 10
652.66622981600415
 20
416.61326797732551
 30
0.0
  0
VERTEX
  5
96B5
  8
0
 10
652.78448762420362
 20
416.6418725748299
 30
0.0
  0
VERTEX
  5
96B6
  8
0
 10
652.9023706094473
 20
416.672026841719
 30
0.0
  0
VERTEX
  5
96B7
  8
0
 10
653.13690066295499
 20
416.73695622965289
 30
0.0
  0
VERTEX
  5
96B8
  8
0
 10
653.36965839158711
 20
416.80801224777662
 30
0.0
  0
VERTEX
  5
96B9
  8
0
 10
653.60042143645467
 20
416.88512514085471
 30
0.0
  0
VERTEX
  5
96BA
  8
0
 10
653.82895054598487
 20
416.96820669802912
 30
0.0
  0
VERTEX
  5
96BB
  8
0
 10
654.05500856570904
 20
417.05715489253618
 30
0.0
  0
VERTEX
  5
96BC
  8
0
 10
654.16703782204445
 20
417.10379339745219
 30
0.0
  0
VERTEX
  5
96BD
  8
0
 10
654.2783622301755
 20
417.15185422258361
 30
0.0
  0
VERTEX
  5
96BE
  8
0
 10
654.49878388119623
 20
417.25217625073248
 30
0.0
  0
VERTEX
  5
96BF
  8
0
 10
654.7160531136949
 20
417.35798034170932
 30
0.0
  0
VERTEX
  5
96C0
  8
0
 10
654.92995835019906
 20
417.46911460093548
 30
0.0
  0
VERTEX
  5
96C1
  8
0
 10
655.14029789485085
 20
417.5854167621772
 30
0.0
  0
VERTEX
  5
96C2
  8
0
 10
655.34687638791445
 20
417.706712455917
 30
0.0
  0
VERTEX
  5
96C3
  8
0
 10
655.44869500124435
 20
417.76917444082721
 30
0.0
  0
VERTEX
  5
96C4
  8
0
 10
655.54950157702592
 20
417.83281287692381
 30
0.0
  0
VERTEX
  5
96C5
  8
0
 10
655.74798590487239
 20
417.96351490076933
 30
0.0
  0
VERTEX
  5
96C6
  8
0
 10
655.94214845267174
 20
418.09860164911998
 30
0.0
  0
VERTEX
  5
96C7
  8
0
 10
656.13181675505359
 20
418.23784325355388
 30
0.0
  0
VERTEX
  5
96C8
  8
0
 10
656.31682848912737
 20
418.3809978156138
 30
0.0
  0
VERTEX
  5
96C9
  8
0
 10
656.49703304168133
 20
418.52781256479739
 30
0.0
  0
VERTEX
  5
96CA
  8
0
 10
656.58531596028536
 20
418.60253388293683
 30
0.0
  0
VERTEX
  5
96CB
  8
0
 10
656.67281694067049
 20
418.67848577125898
 30
0.0
  0
VERTEX
  5
96CC
  8
0
 10
656.84581578411576
 20
418.83444307142452
 30
0.0
  0
VERTEX
  5
96CD
  8
0
 10
657.01590997052836
 20
418.99572240734562
 30
0.0
  0
VERTEX
  5
96CE
  8
0
 10
657.09978195217104
 20
419.07832348334591
 30
0.0
  0
VERTEX
  5
96CF
  8
0
 10
657.18282584048438
 20
419.162212159467
 30
0.0
  0
VERTEX
  5
96D0
  8
0
 10
657.34629903702785
 20
419.33378765381241
 30
0.0
  0
VERTEX
  5
96D1
  8
0
 10
657.50607586348974
 20
419.51031257526807
 30
0.0
  0
VERTEX
  5
96D2
  8
0
 10
657.58450206742873
 20
419.60038567277672
 30
0.0
  0
VERTEX
  5
96D3
  8
0
 10
657.66191446686435
 20
419.6916405381308
 30
0.0
  0
VERTEX
  5
96D4
  8
0
 10
657.81358584741633
 20
419.87761681790869
 30
0.0
  0
VERTEX
  5
96D5
  8
0
 10
657.96087468837879
 20
420.06808024411208
 30
0.0
  0
VERTEX
  5
96D6
  8
0
 10
658.10357910240475
 20
420.26286399777211
 30
0.0
  0
VERTEX
  5
96D7
  8
0
 10
658.24150701788335
 20
420.46179144749033
 30
0.0
  0
VERTEX
  5
96D8
  8
0
 10
658.37447524180186
 20
420.66467446974008
 30
0.0
  0
VERTEX
  5
96D9
  8
0
 10
658.43904495971094
 20
420.76753769223598
 30
0.0
  0
VERTEX
  5
96DA
  8
0
 10
658.50231071334019
 20
420.87131469816518
 30
0.0
  0
VERTEX
  5
96DB
  8
0
 10
658.62485164247539
 20
421.08150497465169
 30
0.0
  0
VERTEX
  5
96DC
  8
0
 10
658.74194846126829
 20
421.29503090675848
 30
0.0
  0
VERTEX
  5
96DD
  8
0
 10
658.85346458917093
 20
421.5116725325712
 30
0.0
  0
VERTEX
  5
96DE
  8
0
 10
658.95927701129699
 20
421.73120609444442
 30
0.0
  0
VERTEX
  5
96DF
  8
0
 10
659.05929368303987
 20
421.9534451005178
 30
0.0
  0
VERTEX
  5
96E0
  8
0
 10
659.10710646222014
 20
422.0655305641111
 30
0.0
  0
VERTEX
  5
96E1
  8
0
 10
659.15343924297417
 20
422.17822141205841
 30
0.0
  0
VERTEX
  5
96E2
  8
0
 10
659.24161968955855
 20
422.40529945816962
 30
0.0
  0
VERTEX
  5
96E3
  8
0
 10
659.32375213118075
 20
422.6344347565128
 30
0.0
  0
VERTEX
  5
96E4
  8
0
 10
659.39976611337465
 20
422.86537613504021
 30
0.0
  0
VERTEX
  5
96E5
  8
0
 10
659.46960443891612
 20
423.09786737687551
 30
0.0
  0
VERTEX
  5
96E6
  8
0
 10
659.53322378575513
 20
423.33164893864802
 30
0.0
  0
VERTEX
  5
96E7
  8
0
 10
659.56269170452265
 20
423.44894201234638
 30
0.0
  0
VERTEX
  5
96E8
  8
0
 10
659.59059512287104
 20
423.56645974372452
 30
0.0
  0
VERTEX
  5
96E9
  8
0
 10
659.64170391729726
 20
423.8020390296216
 30
0.0
  0
VERTEX
  5
96EA
  8
0
 10
659.6865497302133
 20
424.03812597516742
 30
0.0
  0
VERTEX
  5
96EB
  8
0
 10
659.72514515068542
 20
424.27445397234629
 30
0.0
  0
VERTEX
  5
96EC
  8
0
 10
659.75751630247771
 20
424.51074973618682
 30
0.0
  0
VERTEX
  5
96ED
  8
0
 10
659.78370379908949
 20
424.7467351193269
 30
0.0
  0
VERTEX
  5
96EE
  8
0
 10
659.79449551333983
 20
424.86452363155252
 30
0.0
  0
VERTEX
  5
96EF
  8
0
 10
659.80376346710875
 20
424.9821290000487
 30
0.0
  0
VERTEX
  5
96F0
  8
0
 10
659.81776683291912
 20
425.21664920004451
 30
0.0
  0
VERTEX
  5
96F1
  8
0
 10
659.8258013755609
 20
425.45001443414282
 30
0.0
  0
VERTEX
  5
96F2
  8
0
 10
659.82797046262681
 20
425.68197285513742
 30
0.0
  0
VERTEX
  5
96F3
  8
0
 10
659.82433405525205
 20
425.91429187721502
 30
0.0
  0
VERTEX
  5
96F4
  8
0
 10
659.81480471248005
 20
426.14797450443558
 30
0.0
  0
VERTEX
  5
96F5
  8
0
 10
659.80779849168437
 20
426.26523999859279
 30
0.0
  0
VERTEX
  5
96F6
  8
0
 10
659.79928299660571
 20
426.38274141665539
 30
0.0
  0
VERTEX
  5
96F7
  8
0
 10
659.77768545909305
 20
426.61831091798882
 30
0.0
  0
VERTEX
  5
96F8
  8
0
 10
659.74994456232821
 20
426.85440091393821
 30
0.0
  0
VERTEX
  5
96F9
  8
0
 10
659.73375352746245
 20
426.97255331225062
 30
0.0
  0
VERTEX
  5
96FA
  8
0
 10
659.71600836796722
 20
427.09073085266539
 30
0.0
  0
VERTEX
  5
96FB
  8
0
 10
659.67583999095632
 20
427.32702363519758
 30
0.0
  0
VERTEX
  5
96FC
  8
0
 10
659.62941681586403
 20
427.56300749588593
 30
0.0
  0
VERTEX
  5
96FD
  8
0
 10
659.60385626675361
 20
427.68080056442642
 30
0.0
  0
VERTEX
  5
96FE
  8
0
 10
659.57672951797406
 20
427.79841765008962
 30
0.0
  0
VERTEX
  5
96FF
  8
0
 10
659.51778197200781
 20
428.03299374179932
 30
0.0
  0
VERTEX
  5
9700
  8
0
 10
659.45259236912545
 20
428.26647476540722
 30
0.0
  0
VERTEX
  5
9701
  8
0
 10
659.38119336919772
 20
428.4985998574092
 30
0.0
  0
VERTEX
  5
9702
  8
0
 10
659.30363183745965
 20
428.7291101465799
 30
0.0
  0
VERTEX
  5
9703
  8
0
 10
659.21996837763925
 20
428.95775052812138
 30
0.0
  0
VERTEX
  5
9704
  8
0
 10
659.17587095954173
 20
429.0712912329659
 30
0.0
  0
VERTEX
  5
9705
  8
0
 10
659.13027666316805
 20
429.18427136341307
 30
0.0
  0
VERTEX
  5
9706
  8
0
 10
659.03464256591633
 20
429.4084301064272
 30
0.0
  0
VERTEX
  5
9707
  8
0
 10
658.9331598059498
 20
429.62999976392513
 30
0.0
  0
VERTEX
  5
9708
  8
0
 10
658.82589821863121
 20
429.84882826275549
 30
0.0
  0
VERTEX
  5
9709
  8
0
 10
658.71296226967934
 20
430.06470854107789
 30
0.0
  0
VERTEX
  5
970A
  8
0
 10
658.5944793681233
 20
430.27741592715381
 30
0.0
  0
VERTEX
  5
970B
  8
0
 10
658.53320121085744
 20
430.38251097598959
 30
0.0
  0
VERTEX
  5
970C
  8
0
 10
658.47058996490455
 20
430.4867310406774
 30
0.0
  0
VERTEX
  5
970D
  8
0
 10
658.34144680102145
 20
430.6924414694555
 30
0.0
  0
VERTEX
  5
970E
  8
0
 10
658.20721396695706
 20
430.89434334106761
 30
0.0
  0
VERTEX
  5
970F
  8
0
 10
658.1382430309709
 20
430.99380505618029
 30
0.0
  0
SEQEND
  5
9710
  8
0
  0
POLYLINE
  5
9194
  8
0
 66
     1
 10
0.0
 20
0.0
 30
0.0
  0
VERTEX
  5
9711
  8
0
 10
630.95392510355634
 20
428.07474395586229
 30
0.0
  0
VERTEX
  5
9712
  8
0
 10
632.85079526541153
 20
426.74098378900192
 30
0.0
  0
VERTEX
  5
9713
  8
0
 10
637.12987029564385
 20
423.7322065194233
 30
0.0
  0
VERTEX
  5
9714
  8
0
 10
642.24081679977587
 20
420.13850938651092
 30
0.0
  0
VERTEX
  5
9715
  8
0
 10
645.20131244340405
 20
418.0568744686135
 30
0.0
  0
SEQEND
  5
9716
  8
0
  0
POLYLINE
  5
9195
  8
0
 66
     1
 10
0.0
 20
0.0
 30
0.0
  0
VERTEX
  5
9717
  8
0
 10
623.30237397025996
 20
434.50796721847411
 30
0.0
  0
VERTEX
  5
9718
  8
0
 10
624.4906364572829
 20
433.3531765955405
 30
0.0
  0
VERTEX
  5
9719
  8
0
 10
626.97582136054268
 20
431.13752818950962
 30
0.0
  0
VERTEX
  5
971A
  8
0
 10
629.5965730292213
 20
429.05876929471458
 30
0.0
  0
VERTEX
  5
971B
  8
0
 10
630.95392510355634
 20
428.07474395586229
 30
0.0
  0
SEQEND
  5
971C
  8
0
  0
POLYLINE
  5
9196
  8
0
 66
     1
 10
0.0
 20
0.0
 30
0.0
  0
VERTEX
  5
971D
  8
0
 10
614.1847534745998
 20
443.6255877141341
 30
0.0
  0
VERTEX
  5
971E
  8
0
 10
615.60113660323191
 20
442.20920458550228
 30
0.0
  0
VERTEX
  5
971F
  8
0
 10
618.51972340589612
 20
439.29061778283801
 30
0.0
  0
VERTEX
  5
9720
  8
0
 10
621.63501881337515
 20
436.17532237535897
 30
0.0
  0
VERTEX
  5
9721
  8
0
 10
623.30237397025996
 20
434.50796721847411
 30
0.0
  0
SEQEND
  5
9722
  8
0
  0
POLYLINE
  5
9197
  8
0
 66
     1
 10
0.0
 20
0.0
 30
0.0
  0
VERTEX
  5
9723
  8
0
 10
610.68625395759352
 20
447.45178602261882
 30
0.0
  0
VERTEX
  5
9724
  8
0
 10
611.24952956882225
 20
446.78775433648917
 30
0.0
  0
VERTEX
  5
9725
  8
0
 10
612.39868165454595
 20
445.49306871134519
 30
0.0
  0
VERTEX
  5
9726
  8
0
 10
613.57837625276954
 20
444.24106597104299
 30
0.0
  0
VERTEX
  5
9727
  8
0
 10
614.1847534745998
 20
443.6255877141341
 30
0.0
  0
SEQEND
  5
9728
  8
0
  0
POLYLINE
  5
9198
  8
0
 66
     1
 10
0.0
 20
0.0
 30
0.0
  0
VERTEX
  5
9729
  8
0
 10
589.20151296267125
 20
473.16847605226059
 30
0.0
  0
VERTEX
  5
972A
  8
0
 10
594.36531483363206
 20
466.98753618794632
 30
0.0
  0
VERTEX
  5
972B
  8
0
 10
602.11933294884966
 20
457.70617317777987
 30
0.0
  0
VERTEX
  5
972C
  8
0
 10
608.05321256763125
 20
450.60346978165887
 30
0.0
  0
VERTEX
  5
972D
  8
0
 10
610.68625395759352
 20
447.45178602261882
 30
0.0
  0
SEQEND
  5
972E
  8
0
  0
POLYLINE
  5
9199
  8
0
 66
     1
 10
0.0
 20
0.0
 30
0.0
  0
VERTEX
  5
972F
  8
0
 10
628.74333147696552
 20
465.50886354199088
 30
0.0
  0
VERTEX
  5
9730
  8
0
 10
624.74905278903293
 20
468.84584209455181
 30
0.0
  0
VERTEX
  5
9731
  8
0
 10
616.60600929718942
 20
475.64886301718963
 30
0.0
  0
VERTEX
  5
9732
  8
0
 10
607.84630798328408
 20
482.96706429835018
 30
0.0
  0
VERTEX
  5
9733
  8
0
 10
603.05174707384583
 20
486.97263030256499
 30
0.0
  0
SEQEND
  5
9734
  8
0
  0
LINE
  5
91E8
  8
0
 10
603.05174707384583
 20
486.97263030256499
 30
0.0
 11
601.34405416322522
 21
488.39930456901459
 31
0.0
  0
LINE
  5
91E9
  8
0
 10
589.20151296267125
 20
473.16847605226059
 30
0.0
 11
587.79581293056935
 21
474.85106333636003
 31
0.0
  0
ARC
  5
922B
  8
0
 10
592.54230195426385
 20
483.65281554532078
 30
0.0
 40
9.2000000000000028
 50
337.4949821711358
 51
292.50501782886369
  0
ARC
  5
922C
  8
0
 10
592.54230195426385
 20
483.65281554532078
 30
0.0
 40
5.9474478823671664
 50
349.28202190628139
 51
280.71797809371861
  0
LINE
  5
922D
  8
0
 10
602.27762570078744
 20
481.36732401167279
 30
0.0
 11
594.82779348791155
 21
473.91749179879719
 31
0.0
  0
ARC
  5
922E
  8
0
 10
592.54230195426385
 20
483.65281554532078
 30
0.0
 40
9.9999999999999964
 50
346.78833061705041
 51
283.21166938294829
  0
ARC
  5
9230
  8
0
 10
588.40572728432255
 20
484.46598834368513
 30
0.0
 40
1.0
 50
135.0
 51
225.0
  0
LINE
  5
9231
  8
0
 10
591.02202237471295
 20
488.49649699644863
 30
0.0
 11
587.69862050313611
 21
485.17309512487162
 31
0.0
  0
ARC
  5
9232
  8
0
 10
591.72912915589939
 20
487.7893902152619
 30
0.0
 40
1.0
 50
45.0
 51
135.0
  0
LINE
  5
9233
  8
0
 10
600.92151731132435
 20
480.01121562220987
 30
0.0
 11
592.43623593708594
 21
488.49649699644863
 31
0.0
  0
ARC
  5
9234
  8
0
 10
592.54230195426385
 20
483.65281554532078
 30
0.0
 40
5.2642703531402653
 50
354.5213342827717
 51
275.478665717225
  0
LINE
  5
9235
  8
0
 10
587.698620503136
 20
483.75888156249869
 30
0.0
 11
596.18390187737464
 21
475.27360018825999
 31
0.0
  0
POLYLINE
  5
9276
  8
0
 66
     1
 10
0.0
 20
0.0
 30
0.0
  0
VERTEX
  5
9735
  8
0
 10
360.91710111304508
 20
462.01036402498431
 30
0.0
  0
VERTEX
  5
9736
  8
0
 10
360.31294605522947
 20
462.60574748657251
 30
0.0
  0
VERTEX
  5
9737
  8
0
 10
359.06356505625808
 20
463.78367716657181
 30
0.0
  0
VERTEX
  5
9738
  8
0
 10
357.7612094379619
 20
464.94018280727789
 30
0.0
  0
VERTEX
  5
9739
  8
0
 10
357.09090280456053
 20
465.50886354199088
 30
0.0
  0
SEQEND
  5
973A
  8
0
  0
POLYLINE
  5
9277
  8
0
 66
     1
 10
0.0
 20
0.0
 30
0.0
  0
VERTEX
  5
973B
  8
0
 10
370.03472160870518
 20
452.89274352932432
 30
0.0
  0
VERTEX
  5
973C
  8
0
 10
368.47240964095568
 20
454.45505549707377
 30
0.0
  0
VERTEX
  5
973D
  8
0
 10
365.41003822849012
 20
457.51742690953949
 30
0.0
  0
VERTEX
  5
973E
  8
0
 10
362.40603174075841
 20
460.5214333972711
 30
0.0
  0
VERTEX
  5
973F
  8
0
 10
360.91710111304508
 20
462.01036402498431
 30
0.0
  0
SEQEND
  5
9740
  8
0
  0
POLYLINE
  5
9278
  8
0
 66
     1
 10
0.0
 20
0.0
 30
0.0
  0
VERTEX
  5
9741
  8
0
 10
376.46794487131729
 20
445.24119239602823
 30
0.0
  0
VERTEX
  5
9742
  8
0
 10
375.50236202510717
 20
446.57385010500332
 30
0.0
  0
VERTEX
  5
9743
  8
0
 10
373.44044295597149
 20
449.17731760863978
 30
0.0
  0
VERTEX
  5
9744
  8
0
 10
371.21022854911632
 20
451.68253443839308
 30
0.0
  0
VERTEX
  5
9745
  8
0
 10
370.0347216087053
 20
452.89274352932432
 30
0.0
  0
SEQEND
  5
9746
  8
0
  0
POLYLINE
  5
9279
  8
0
 66
     1
 10
0.0
 20
0.0
 30
0.0
  0
VERTEX
  5
9747
  8
0
 10
386.4858143585659
 20
430.99380505618029
 30
0.0
  0
VERTEX
  5
9748
  8
0
 10
384.68752319245158
 20
433.55132996964301
 30
0.0
  0
VERTEX
  5
9749
  8
0
 10
381.26597930573621
 20
438.41744058491628
 30
0.0
  0
VERTEX
  5
974A
  8
0
 10
378.03098691278859
 20
443.01823816193121
 30
0.0
  0
VERTEX
  5
974B
  8
0
 10
376.46794487131729
 20
445.24119239602823
 30
0.0
  0
SEQEND
  5
974C
  8
0
  0
POLYLINE
  5
927A
  8
0
 66
     1
 10
0.0
 20
0.0
 30
0.0
  0
VERTEX
  5
974D
  8
0
 10
373.54888377099928
 20
418.0568744686135
 30
0.0
  0
VERTEX
  5
974E
  8
0
 10
373.64997488083429
 20
417.98678955117867
 30
0.0
  0
VERTEX
  5
974F
  8
0
 10
373.85519452903537
 20
417.85047617486322
 30
0.0
  0
VERTEX
  5
9750
  8
0
 10
374.06423600467161
 20
417.7194861896881
 30
0.0
  0
VERTEX
  5
9751
  8
0
 10
374.17010128865923
 20
417.65605106660001
 30
0.0
  0
VERTEX
  5
9752
  8
0
 10
374.27681423104491
 20
417.59402059882729
 30
0.0
  0
VERTEX
  5
9753
  8
0
 10
374.49265952531488
 20
417.47424592862222
 30
0.0
  0
VERTEX
  5
9754
  8
0
 10
374.71153259550653
 20
417.36029126711128
 30
0.0
  0
VERTEX
  5
9755
  8
0
 10
374.93312463564661
 20
417.25230187372802
 30
0.0
  0
VERTEX
  5
9756
  8
0
 10
375.15711044572072
 20
417.15040580424932
 30
0.0
  0
VERTEX
  5
9757
  8
0
 10
375.38315356548861
 20
417.05471071770091
 30
0.0
  0
VERTEX
  5
9758
  8
0
 10
375.49683905470891
 20
417.00921626438958
 30
0.0
  0
VERTEX
  5
9759
  8
0
 10
375.61090897280218
 20
416.96530250326703
 30
0.0
  0
VERTEX
  5
975A
  8
0
 10
375.84002593501668
 20
416.88224424369611
 30
0.0
  0
VERTEX
  5
975B
  8
0
 10
376.07015044252648
 20
416.80557569860758
 30
0.0
  0
VERTEX
  5
975C
  8
0
 10
376.30092114739568
 20
416.73531496268089
 30
0.0
  0
VERTEX
  5
975D
  8
0
 10
376.53196459750558
 20
416.67145949892262
 30
0.0
  0
VERTEX
  5
975E
  8
0
 10
376.76289732263348
 20
416.61398469919919
 30
0.0
  0
VERTEX
  5
975F
  8
0
 10
376.87820029872671
 20
416.58762599380782
 30
0.0
  0
VERTEX
  5
9760
  8
0
 10
376.99332871981068
 20
416.56284257945953
 30
0.0
  0
VERTEX
  5
9761
  8
0
 10
377.22286398649447
 20
416.51796087734198
 30
0.0
  0
VERTEX
  5
9762
  8
0
 10
377.45119974302338
 20
416.47922801128732
 30
0.0
  0
VERTEX
  5
9763
  8
0
 10
377.56568378024599
 20
416.4620042666719
 30
0.0
  0
VERTEX
  5
9764
  8
0
 10
377.68076748527187
 20
416.44615746713731
 30
0.0
  0
VERTEX
  5
9765
  8
0
 10
377.91260653290931
 20
416.41867024121581
 30
0.0
  0
VERTEX
  5
9766
  8
0
 10
378.1464583784786
 20
416.39690802215739
 30
0.0
  0
VERTEX
  5
9767
  8
0
 10
378.26405698137921
 20
416.3882138941986
 30
0.0
  0
VERTEX
  5
9768
  8
0
 10
378.38205982289873
 20
416.380997207647
 30
0.0
  0
VERTEX
  5
9769
  8
0
 10
378.61914490159211
 20
416.3710486908883
 30
0.0
  0
VERTEX
  5
976A
  8
0
 10
378.8574468135688
 20
416.36715787770902
 30
0.0
  0
VERTEX
  5
976B
  8
0
 10
379.09669985835512
 20
416.36940493481899
 30
0.0
  0
VERTEX
  5
976C
  8
0
 10
379.33664138263612
 20
416.37785527262679
 30
0.0
  0
VERTEX
  5
976D
  8
0
 10
379.57701344649331
 20
416.39256024700069
 30
0.0
  0
VERTEX
  5
976E
  8
0
 10
379.69728098796759
 20
416.40227055640059
 30
0.0
  0
VERTEX
  5
976F
  8
0
 10
379.81755985094708
 20
416.41355759754953
 30
0.0
  0
VERTEX
  5
9770
  8
0
 10
380.05802137489491
 20
416.4408711344671
 30
0.0
  0
VERTEX
  5
9771
  8
0
 10
380.2981367604192
 20
416.4745104855138
 30
0.0
  0
VERTEX
  5
9772
  8
0
 10
380.53764454479978
 20
416.51447107485188
 30
0.0
  0
VERTEX
  5
9773
  8
0
 10
380.7762848516827
 20
416.56073431024822
 30
0.0
  0
VERTEX
  5
9774
  8
0
 10
381.0138011435991
 20
416.61326797732551
 30
0.0
  0
VERTEX
  5
9775
  8
0
 10
381.13205895179863
 20
416.6418725748299
 30
0.0
  0
VERTEX
  5
9776
  8
0
 10
381.24994193704231
 20
416.672026841719
 30
0.0
  0
VERTEX
  5
9777
  8
0
 10
381.48447199055011
 20
416.73695622965289
 30
0.0
  0
VERTEX
  5
9778
  8
0
 10
381.71722971918211
 20
416.80801224777662
 30
0.0
  0
VERTEX
  5
9779
  8
0
 10
381.94799276404979
 20
416.88512514085471
 30
0.0
  0
VERTEX
  5
977A
  8
0
 10
382.17652187357999
 20
416.96820669802912
 30
0.0
  0
VERTEX
  5
977B
  8
0
 10
382.40257989330422
 20
417.05715489253618
 30
0.0
  0
VERTEX
  5
977C
  8
0
 10
382.5146091496394
 20
417.10379339745219
 30
0.0
  0
VERTEX
  5
977D
  8
0
 10
382.62593355777062
 20
417.15185422258361
 30
0.0
  0
VERTEX
  5
977E
  8
0
 10
382.84635520879118
 20
417.25217625073248
 30
0.0
  0
VERTEX
  5
977F
  8
0
 10
383.0636244412899
 20
417.35798034170932
 30
0.0
  0
VERTEX
  5
9780
  8
0
 10
383.27752967779412
 20
417.46911460093548
 30
0.0
  0
VERTEX
  5
9781
  8
0
 10
383.48786922244602
 20
417.5854167621772
 30
0.0
  0
VERTEX
  5
9782
  8
0
 10
383.6944477155094
 20
417.706712455917
 30
0.0
  0
VERTEX
  5
9783
  8
0
 10
383.79626632883941
 20
417.76917444082721
 30
0.0
  0
VERTEX
  5
9784
  8
0
 10
383.89707290462093
 20
417.83281287692381
 30
0.0
  0
VERTEX
  5
9785
  8
0
 10
384.0955572324674
 20
417.96351490076933
 30
0.0
  0
VERTEX
  5
9786
  8
0
 10
384.28971978026692
 20
418.09860164911998
 30
0.0
  0
VERTEX
  5
9787
  8
0
 10
384.47938808264871
 20
418.23784325355388
 30
0.0
  0
VERTEX
  5
9788
  8
0
 10
384.66439981672238
 20
418.3809978156138
 30
0.0
  0
VERTEX
  5
9789
  8
0
 10
384.8446043692764
 20
418.52781256479739
 30
0.0
  0
VERTEX
  5
978A
  8
0
 10
384.93288728788042
 20
418.60253388293683
 30
0.0
  0
VERTEX
  5
978B
  8
0
 10
385.02038826826549
 20
418.67848577125898
 30
0.0
  0
VERTEX
  5
978C
  8
0
 10
385.19338711171088
 20
418.83444307142452
 30
0.0
  0
VERTEX
  5
978D
  8
0
 10
385.36348129812342
 20
418.99572240734562
 30
0.0
  0
VERTEX
  5
978E
  8
0
 10
385.44735327976611
 20
419.07832348334591
 30
0.0
  0
VERTEX
  5
978F
  8
0
 10
385.53039716807939
 20
419.162212159467
 30
0.0
  0
VERTEX
  5
9790
  8
0
 10
385.69387036462291
 20
419.33378765381241
 30
0.0
  0
VERTEX
  5
9791
  8
0
 10
385.8536471910848
 20
419.51031257526807
 30
0.0
  0
VERTEX
  5
9792
  8
0
 10
385.93207339502368
 20
419.60038567277672
 30
0.0
  0
VERTEX
  5
9793
  8
0
 10
386.00948579445941
 20
419.6916405381308
 30
0.0
  0
VERTEX
  5
9794
  8
0
 10
386.16115717501128
 20
419.87761681790869
 30
0.0
  0
VERTEX
  5
9795
  8
0
 10
386.3084460159738
 20
420.06808024411208
 30
0.0
  0
VERTEX
  5
9796
  8
0
 10
386.45115042999993
 20
420.26286399777211
 30
0.0
  0
VERTEX
  5
9797
  8
0
 10
386.5890783454783
 20
420.46179144749033
 30
0.0
  0
VERTEX
  5
9798
  8
0
 10
386.72204656939698
 20
420.66467446974008
 30
0.0
  0
VERTEX
  5
9799
  8
0
 10
386.786616287306
 20
420.76753769223598
 30
0.0
  0
VERTEX
  5
979A
  8
0
 10
386.8498820409352
 20
420.87131469816518
 30
0.0
  0
VERTEX
  5
979B
  8
0
 10
386.97242297007051
 20
421.08150497465169
 30
0.0
  0
VERTEX
  5
979C
  8
0
 10
387.0895197888633
 20
421.29503090675848
 30
0.0
  0
VERTEX
  5
979D
  8
0
 10
387.20103591676599
 20
421.5116725325712
 30
0.0
  0
VERTEX
  5
979E
  8
0
 10
387.306848338892
 20
421.73120609444442
 30
0.0
  0
VERTEX
  5
979F
  8
0
 10
387.40686501063487
 20
421.9534451005178
 30
0.0
  0
VERTEX
  5
97A0
  8
0
 10
387.45467778981521
 20
422.0655305641111
 30
0.0
  0
VERTEX
  5
97A1
  8
0
 10
387.50101057056918
 20
422.17822141205841
 30
0.0
  0
VERTEX
  5
97A2
  8
0
 10
387.58919101715361
 20
422.40529945816962
 30
0.0
  0
VERTEX
  5
97A3
  8
0
 10
387.67132345877582
 20
422.6344347565128
 30
0.0
  0
VERTEX
  5
97A4
  8
0
 10
387.74733744096977
 20
422.86537613504021
 30
0.0
  0
VERTEX
  5
97A5
  8
0
 10
387.81717576651118
 20
423.09786737687551
 30
0.0
  0
VERTEX
  5
97A6
  8
0
 10
387.88079511335008
 20
423.33164893864802
 30
0.0
  0
VERTEX
  5
97A7
  8
0
 10
387.91026303211771
 20
423.44894201234638
 30
0.0
  0
VERTEX
  5
97A8
  8
0
 10
387.9381664504661
 20
423.56645974372452
 30
0.0
  0
VERTEX
  5
97A9
  8
0
 10
387.98927524489221
 20
423.8020390296216
 30
0.0
  0
VERTEX
  5
97AA
  8
0
 10
388.03412105780831
 20
424.03812597516742
 30
0.0
  0
VERTEX
  5
97AB
  8
0
 10
388.07271647828043
 20
424.27445397234629
 30
0.0
  0
VERTEX
  5
97AC
  8
0
 10
388.10508763007272
 20
424.51074973618682
 30
0.0
  0
VERTEX
  5
97AD
  8
0
 10
388.13127512668461
 20
424.7467351193269
 30
0.0
  0
VERTEX
  5
97AE
  8
0
 10
388.14206684093477
 20
424.86452363155252
 30
0.0
  0
VERTEX
  5
97AF
  8
0
 10
388.15133479470393
 20
424.9821290000487
 30
0.0
  0
VERTEX
  5
97B0
  8
0
 10
388.16533816051412
 20
425.21664920004451
 30
0.0
  0
VERTEX
  5
97B1
  8
0
 10
388.17337270315591
 20
425.45001443414282
 30
0.0
  0
VERTEX
  5
97B2
  8
0
 10
388.17554179022181
 20
425.68197285513742
 30
0.0
  0
VERTEX
  5
97B3
  8
0
 10
388.17190538284723
 20
425.91429187721502
 30
0.0
  0
VERTEX
  5
97B4
  8
0
 10
388.16237604007512
 20
426.14797450443558
 30
0.0
  0
VERTEX
  5
97B5
  8
0
 10
388.15536981927949
 20
426.26523999859279
 30
0.0
  0
VERTEX
  5
97B6
  8
0
 10
388.14685432420072
 20
426.38274141665539
 30
0.0
  0
VERTEX
  5
97B7
  8
0
 10
388.12525678668823
 20
426.61831091798882
 30
0.0
  0
VERTEX
  5
97B8
  8
0
 10
388.09751588992322
 20
426.85440091393821
 30
0.0
  0
VERTEX
  5
97B9
  8
0
 10
388.08132485505757
 20
426.97255331225062
 30
0.0
  0
VERTEX
  5
97BA
  8
0
 10
388.06357969556223
 20
427.09073085266539
 30
0.0
  0
VERTEX
  5
97BB
  8
0
 10
388.02341131855133
 20
427.32702363519758
 30
0.0
  0
VERTEX
  5
97BC
  8
0
 10
387.9769881434591
 20
427.56300749588593
 30
0.0
  0
VERTEX
  5
97BD
  8
0
 10
387.95142759434862
 20
427.68080056442642
 30
0.0
  0
VERTEX
  5
97BE
  8
0
 10
387.92430084556918
 20
427.79841765008962
 30
0.0
  0
VERTEX
  5
97BF
  8
0
 10
387.86535329960287
 20
428.03299374179932
 30
0.0
  0
VERTEX
  5
97C0
  8
0
 10
387.80016369672057
 20
428.26647476540722
 30
0.0
  0
VERTEX
  5
97C1
  8
0
 10
387.72876469679272
 20
428.4985998574092
 30
0.0
  0
VERTEX
  5
97C2
  8
0
 10
387.65120316505482
 20
428.7291101465799
 30
0.0
  0
VERTEX
  5
97C3
  8
0
 10
387.56753970523442
 20
428.95775052812138
 30
0.0
  0
VERTEX
  5
97C4
  8
0
 10
387.52344228713667
 20
429.0712912329659
 30
0.0
  0
VERTEX
  5
97C5
  8
0
 10
387.47784799076322
 20
429.18427136341307
 30
0.0
  0
VERTEX
  5
97C6
  8
0
 10
387.38221389351128
 20
429.4084301064272
 30
0.0
  0
VERTEX
  5
97C7
  8
0
 10
387.2807311335448
 20
429.62999976392513
 30
0.0
  0
VERTEX
  5
97C8
  8
0
 10
387.17346954622622
 20
429.84882826275549
 30
0.0
  0
VERTEX
  5
97C9
  8
0
 10
387.0605335972744
 20
430.06470854107789
 30
0.0
  0
VERTEX
  5
97CA
  8
0
 10
386.94205069571831
 20
430.27741592715381
 30
0.0
  0
VERTEX
  5
97CB
  8
0
 10
386.8807725384525
 20
430.38251097598959
 30
0.0
  0
VERTEX
  5
97CC
  8
0
 10
386.8181612924995
 20
430.4867310406774
 30
0.0
  0
VERTEX
  5
97CD
  8
0
 10
386.6890181286164
 20
430.6924414694555
 30
0.0
  0
VERTEX
  5
97CE
  8
0
 10
386.55478529455212
 20
430.89434334106761
 30
0.0
  0
VERTEX
  5
97CF
  8
0
 10
386.4858143585659
 20
430.99380505618029
 30
0.0
  0
SEQEND
  5
97D0
  8
0
  0
POLYLINE
  5
927B
  8
0
 66
     1
 10
0.0
 20
0.0
 30
0.0
  0
VERTEX
  5
97D1
  8
0
 10
359.30149643115129
 20
428.07474395586229
 30
0.0
  0
VERTEX
  5
97D2
  8
0
 10
361.19836659300648
 20
426.74098378900192
 30
0.0
  0
VERTEX
  5
97D3
  8
0
 10
365.47744162323892
 20
423.7322065194233
 30
0.0
  0
VERTEX
  5
97D4
  8
0
 10
370.58838812737099
 20
420.13850938651092
 30
0.0
  0
VERTEX
  5
97D5
  8
0
 10
373.548883770999
 20
418.0568744686135
 30
0.0
  0
SEQEND
  5
97D6
  8
0
  0
POLYLINE
  5
927C
  8
0
 66
     1
 10
0.0
 20
0.0
 30
0.0
  0
VERTEX
  5
97D7
  8
0
 10
351.64994529785508
 20
434.50796721847411
 30
0.0
  0
VERTEX
  5
97D8
  8
0
 10
352.83820778487802
 20
433.3531765955405
 30
0.0
  0
VERTEX
  5
97D9
  8
0
 10
355.3233926881378
 20
431.13752818950962
 30
0.0
  0
VERTEX
  5
97DA
  8
0
 10
357.94414435681631
 20
429.05876929471458
 30
0.0
  0
VERTEX
  5
97DB
  8
0
 10
359.30149643115129
 20
428.07474395586229
 30
0.0
  0
SEQEND
  5
97DC
  8
0
  0
POLYLINE
  5
927D
  8
0
 66
     1
 10
0.0
 20
0.0
 30
0.0
  0
VERTEX
  5
97DD
  8
0
 10
342.53232480219492
 20
443.6255877141341
 30
0.0
  0
VERTEX
  5
97DE
  8
0
 10
343.94870793082691
 20
442.20920458550228
 30
0.0
  0
VERTEX
  5
97DF
  8
0
 10
346.86729473349112
 20
439.29061778283801
 30
0.0
  0
VERTEX
  5
97E0
  8
0
 10
349.9825901409701
 20
436.17532237535897
 30
0.0
  0
VERTEX
  5
97E1
  8
0
 10
351.64994529785508
 20
434.50796721847411
 30
0.0
  0
SEQEND
  5
97E2
  8
0
  0
POLYLINE
  5
927E
  8
0
 66
     1
 10
0.0
 20
0.0
 30
0.0
  0
VERTEX
  5
97E3
  8
0
 10
339.03382528518853
 20
447.45178602261882
 30
0.0
  0
VERTEX
  5
97E4
  8
0
 10
339.59710089641732
 20
446.78775433648917
 30
0.0
  0
VERTEX
  5
97E5
  8
0
 10
340.74625298214102
 20
445.49306871134519
 30
0.0
  0
VERTEX
  5
97E6
  8
0
 10
341.92594758036461
 20
444.24106597104299
 30
0.0
  0
VERTEX
  5
97E7
  8
0
 10
342.53232480219492
 20
443.6255877141341
 30
0.0
  0
SEQEND
  5
97E8
  8
0
  0
POLYLINE
  5
927F
  8
0
 66
     1
 10
0.0
 20
0.0
 30
0.0
  0
VERTEX
  5
97E9
  8
0
 10
317.54908429026642
 20
473.16847605226059
 30
0.0
  0
VERTEX
  5
97EA
  8
0
 10
322.71288616122712
 20
466.98753618794632
 30
0.0
  0
VERTEX
  5
97EB
  8
0
 10
330.46690427644472
 20
457.70617317777987
 30
0.0
  0
VERTEX
  5
97EC
  8
0
 10
336.40078389522631
 20
450.60346978165887
 30
0.0
  0
VERTEX
  5
97ED
  8
0
 10
339.03382528518853
 20
447.45178602261882
 30
0.0
  0
SEQEND
  5
97EE
  8
0
  0
POLYLINE
  5
9280
  8
0
 66
     1
 10
0.0
 20
0.0
 30
0.0
  0
VERTEX
  5
97EF
  8
0
 10
357.09090280456053
 20
465.50886354199088
 30
0.0
  0
VERTEX
  5
97F0
  8
0
 10
353.09662411662788
 20
468.84584209455181
 30
0.0
  0
VERTEX
  5
97F1
  8
0
 10
344.95358062478442
 20
475.64886301718963
 30
0.0
  0
VERTEX
  5
97F2
  8
0
 10
336.1938793108792
 20
482.96706429835018
 30
0.0
  0
VERTEX
  5
97F3
  8
0
 10
331.39931840144089
 20
486.97263030256499
 30
0.0
  0
SEQEND
  5
97F4
  8
0
  0
ARC
  5
92C4
  8
0
 10
642.39332996996336
 20
433.80178741371719
 30
0.0
 40
11.000000000000011
 50
225.00000085377491
 51
45.000000000000291
  0
LINE
  5
92C5
  8
0
 10
618.35169940962078
 20
442.28706878795577
 30
0.0
 11
634.61515537691139
 21
426.02361282066522
 31
0.0
  0
LINE
  5
92C6
  8
0
 10
650.17150456301545
 20
441.57996200676922
 30
0.0
 11
633.90804859572495
 21
457.84341797405978
 31
0.0
  0
ARC
  5
92C7
  8
0
 10
630.37251468979218
 20
454.30788406812712
 30
0.0
 40
4.999999999999992
 50
45.000000000000291
 51
98.130102354151916
  0
ARC
  5
92C8
  8
0
 10
621.88723331555354
 20
445.82260269388843
 30
0.0
 40
4.9999999999999307
 50
171.86989764585189
 51
225.00000000000031
  0
LINE
  5
92C9
  8
0
 10
597.98702411144825
 20
465.48017121087457
 30
0.0
 11
616.93748584724779
 21
446.52970947507509
 31
0.0
  0
LINE
  5
92CA
  8
0
 10
629.66540790860574
 20
459.25763153643283
 30
0.0
 11
610.71494617280621
 21
478.2080932722323
 31
0.0
  0
ARC
  5
92CB
  8
0
 10
610.57352481656892
 20
478.06667191599507
 30
0.0
 40
0.2000000000000028
 50
45.000000000000291
 51
134.99999999999969
  0
ARC
  5
92CC
  8
0
 10
598.12844546768554
 20
465.62159256711169
 30
0.0
 40
0.2000000000000028
 50
134.99999999999969
 51
225.00000000000031
  0
LINE
  5
92CD
  8
0
 10
598.44664351921972
 20
467.63684689349361
 30
0.0
 11
599.15375030040605
 21
466.92974011230689
 31
0.0
  0
LINE
  5
92CE
  8
0
 10
609.26537727137384
 20
477.04136708327451
 30
0.0
 11
608.55827049018728
 21
477.74847386446112
 31
0.0
  0
ARC
  5
92CF
  8
0
 10
607.71692770156028
 20
477.47281650078349
 30
0.0
 40
0.3999999999999964
 50
230.99999999999409
 51
314.99999999999972
  0
ARC
  5
92D0
  8
0
 10
598.72230088289723
 20
468.47818968212027
 30
0.0
 40
0.3999999999999915
 50
314.99999999999972
 51
39.000000000003674
  0
LINE
  5
92D1
  8
0
 10
650.17150456301545
 20
441.57996200676922
 30
0.0
 11
634.61515537691139
 21
426.02361282066522
 31
0.0
  0
LINE
  5
92D2
  8
0
 10
633.90804859572495
 20
457.84341797405978
 30
0.0
 11
618.35169940962078
 21
442.28706878795577
 31
0.0
  0
LINE
  5
92D3
  8
0
 10
629.66540790860574
 20
459.25763153643283
 30
0.0
 11
616.93748584724779
 21
446.52970947507509
 31
0.0
  0
LINE
  5
92D4
  8
0
 10
610.43210346033163
 20
478.2080932722323
 30
0.0
 11
597.98702411144825
 21
465.76301392334898
 31
0.0
  0
LINE
  5
92D5
  8
0
 10
608.55827049018728
 20
477.74847386446112
 30
0.0
 11
598.44664351921972
 21
467.63684689349361
 31
0.0
  0
LINE
  5
92D6
  8
0
 10
602.27511080110253
 20
481.36480911198788
 30
0.0
 11
607.46519954514054
 21
477.16195811620059
 31
0.0
  0
LINE
  5
92D9
  8
1
 10
661.0229536897898
 20
415.17216380979539
 30
0.0
 11
581.5565755180279
 21
494.6385419815519
 31
0.0
  0
LINE
  5
92FE
  8
0
 10
594.83030838759908
 20
473.92000669847948
 30
0.0
 11
599.03315938338994
 21
468.72991795444437
 31
0.0
  0
LINE
  5
947B
  8
0
 10
94.681413268348251
 20
492.8528155453206
 30
0.0
 11
93.881413268348169
 21
493.65281554532072
 31
0.0
  0
LINE
  5
947E
  8
0
 10
94.681413268349147
 20
474.45281554532079
 30
0.0
 11
94.681413268348251
 21
492.8528155453206
 31
0.0
  0
LINE
  5
9482
  8
0
 10
93.881413268348169
 20
493.65281554532072
 30
0.0
 11
93.330838555704517
 21
493.65281554532049
 31
0.0
  0
LINE
  5
9483
  8
0
 10
94.681413268349147
 20
474.45281554532079
 30
0.0
 11
94.656682085552546
 21
474.4280843625242
 31
0.0
  0
TEXT
  5
9613
  8
0
 62
     3
 10
0.0
 20
0.0
 30
0.0
 40
10.0
  1
EDHN150F-LB
  7
STANDARD1
  0
ENDSEC
  0
EOF
