  0
SECTION
  2
HEADER
  9
$ACADVER
  1
AC1009
  9
$INSBASE
 10
0.0
 20
0.0
 30
0.0
  9
$EXTMIN
 10
0.0
 20
-2.960436562073669
 30
0.0
  9
$EXTMAX
 10
255.63724999999999
 20
193.74874800000001
 30
0.0
  9
$LIMMIN
 10
0.0
 20
0.0
  9
$LIMMAX
 10
375.0
 20
270.0
  9
$ORTHOMODE
 70
     1
  9
$REGENMODE
 70
     1
  9
$FILLMODE
 70
     1
  9
$QTEXTMODE
 70
     0
  9
$MIRRTEXT
 70
     0
  9
$DRAGMODE
 70
     2
  9
$LTSCALE
 40
5.0
  9
$OSMODE
 70
  3071
  9
$ATTMODE
 70
     1
  9
$TEXTSIZE
 40
4.0
  9
$TRACEWID
 40
0.05
  9
$TEXTSTYLE
  7
STANDARD
  9
$CLAYER
  8
0
  9
$CELTYPE
  6
BYLAYER
  9
$CECOLOR
 62
   256
  9
$DIMSCALE
 40
1.0
  9
$DIMASZ
 40
3.0
  9
$DIMEXO
 40
2.0
  9
$DIMDLI
 40
0.38
  9
$DIMRND
 40
0.0
  9
$DIMDLE
 40
0.0
  9
$DIMEXE
 40
2.0
  9
$DIMTP
 40
0.0
  9
$DIMTM
 40
0.0
  9
$DIMTXT
 40
3.2000000000000002
  9
$DIMCEN
 40
0.0
  9
$DIMTSZ
 40
0.0
  9
$DIMTOL
 70
     0
  9
$DIMLIM
 70
     0
  9
$DIMTIH
 70
     0
  9
$DIMTOH
 70
     0
  9
$DIMSE1
 70
     0
  9
$DIMSE2
 70
     0
  9
$DIMTAD
 70
     1
  9
$DIMZIN
 70
     0
  9
$DIMBLK
  1

  9
$DIMASO
 70
     0
  9
$DIMSHO
 70
     0
  9
$DIMPOST
  1

  9
$DIMAPOST
  1

  9
$DIMALT
 70
     0
  9
$DIMALTD
 70
     2
  9
$DIMALTF
 40
25.399999999999999
  9
$DIMLFAC
 40
1.0
  9
$DIMTOFL
 70
     0
  9
$DIMTVP
 40
1.6000000000000001
  9
$DIMTIX
 70
     1
  9
$DIMSOXD
 70
     0
  9
$DIMSAH
 70
     0
  9
$DIMBLK1
  1

  9
$DIMBLK2
  1

  9
$DIMSTYLE
  2
STANDARD
  9
$DIMCLRD
 70
     0
  9
$DIMCLRE
 70
     0
  9
$DIMCLRT
 70
     0
  9
$DIMTFAC
 40
1.0
  9
$DIMGAP
 40
0.09
  9
$LUNITS
 70
     2
  9
$LUPREC
 70
     1
  9
$SKETCHINC
 40
0.1
  9
$FILLETRAD
 40
0.0
  9
$AUNITS
 70
     0
  9
$AUPREC
 70
     0
  9
$MENU
  1
E:\r13\win\SUPPORT\ACAD
  9
$ELEVATION
 40
0.0
  9
$PELEVATION
 40
0.0
  9
$THICKNESS
 40
0.0
  9
$LIMCHECK
 70
     0
  9
$BLIPMODE
 70
     0
  9
$CHAMFERA
 40
0.0
  9
$CHAMFERB
 40
0.0
  9
$SKPOLY
 70
     0
  9
$TDCREATE
 40
2450760.3693001159
  9
$TDUPDATE
 40
2456598.6436151862
  9
$TDINDWG
 40
0.0014127662
  9
$TDUSRTIMER
 40
0.0014127662
  9
$USRTIMER
 70
     1
  9
$ANGBASE
 50
0.0
  9
$ANGDIR
 70
     0
  9
$PDMODE
 70
     0
  9
$PDSIZE
 40
0.0
  9
$PLINEWID
 40
0.0
  9
$COORDS
 70
     1
  9
$SPLFRAME
 70
     0
  9
$SPLINETYPE
 70
     6
  9
$SPLINESEGS
 70
     8
  9
$ATTDIA
 70
     0
  9
$ATTREQ
 70
     1
  9
$HANDLING
 70
     1
  9
$HANDSEED
  5
8C8
  9
$SURFTAB1
 70
     6
  9
$SURFTAB2
 70
     6
  9
$SURFTYPE
 70
     6
  9
$SURFU
 70
     6
  9
$SURFV
 70
     6
  9
$UCSNAME
  2

  9
$UCSORG
 10
0.0
 20
0.0
 30
0.0
  9
$UCSXDIR
 10
1.0
 20
0.0
 30
0.0
  9
$UCSYDIR
 10
0.0
 20
1.0
 30
0.0
  9
$PUCSNAME
  2

  9
$PUCSORG
 10
0.0
 20
0.0
 30
0.0
  9
$PUCSXDIR
 10
1.0
 20
0.0
 30
0.0
  9
$PUCSYDIR
 10
0.0
 20
1.0
 30
0.0
  9
$USERI1
 70
     0
  9
$USERI2
 70
     1
  9
$USERI3
 70
     0
  9
$USERI4
 70
     0
  9
$USERI5
 70
     0
  9
$USERR1
 40
0.0
  9
$USERR2
 40
0.0
  9
$USERR3
 40
0.0
  9
$USERR4
 40
0.0
  9
$USERR5
 40
0.0
  9
$WORLDVIEW
 70
     1
  9
$SHADEDGE
 70
     3
  9
$SHADEDIF
 70
    70
  9
$TILEMODE
 70
     1
  9
$MAXACTVP
 70
    16
  9
$PLIMCHECK
 70
     0
  9
$PEXTMIN
 10
1.0000000000000000E+020
 20
1.0000000000000000E+020
 30
1.0000000000000000E+020
  9
$PEXTMAX
 10
-1.0000000000000000E+020
 20
-1.0000000000000000E+020
 30
-1.0000000000000000E+020
  9
$PLIMMIN
 10
0.0
 20
0.0
  9
$PLIMMAX
 10
12.0
 20
9.0
  9
$UNITMODE
 70
     0
  9
$VISRETAIN
 70
     0
  9
$PLINEGEN
 70
     1
  9
$PSLTSCALE
 70
     0
  0
ENDSEC
  0
SECTION
  2
TABLES
  0
TABLE
  2
VPORT
 70
     1
  0
VPORT
  2
*ACTIVE
 70
     0
 10
0.0
 20
0.0
 11
1.0
 21
1.0
 12
195.0581083320873
 22
133.5127261426681
 13
0.0
 23
0.0
 14
10.0
 24
10.0
 15
10.0
 25
10.0
 16
0.0
 26
0.0
 36
1.0
 17
0.0
 27
0.0
 37
0.0
 40
275.42274993631997
 41
1.831871345029239
 42
50.0
 43
0.0
 44
0.0
 50
0.0
 51
0.0
 71
     0
 72
   100
 73
     1
 74
     0
 75
     0
 76
     0
 77
     0
 78
     2
  0
ENDTAB
  0
TABLE
  2
LTYPE
 70
     3
  0
LTYPE
  2
CONTINUOUS
 70
     0
  3
Solid Line
 72
    65
 73
     0
 40
0.0
  0
LTYPE
  2
CENTER
 70
     0
  3
____ _ ____ _ ____ _ ____ _ ____ _ ____ _ ____
 72
    65
 73
     4
 40
2.0
 49
1.25
 49
-0.25
 49
0.25
 49
-0.25
  0
LTYPE
  2
PHANTOM2
 70
     0
  3
___ _ _ ___ _ _ ___ _ _ ___ _ _
 72
    65
 73
     6
 40
1.25
 49
0.625
 49
-0.125
 49
0.125
 49
-0.125
 49
0.125
 49
-0.125
  0
ENDTAB
  0
TABLE
  2
LAYER
 70
     3
  0
LAYER
  2
0
 70
     0
 62
     7
  6
CONTINUOUS
  0
LAYER
  2
81TEXT
 70
     0
 62
     3
  6
CONTINUOUS
  0
LAYER
  2
1
 70
     0
 62
     1
  6
CENTER
  0
ENDTAB
  0
TABLE
  2
STYLE
 70
     2
  0
STYLE
  2
STANDARD
 70
     0
 40
0.0
 41
1.0
 50
0.0
 71
     0
 42
4.0
  3
SIMPLEX
  4
BIGFONT
  0
STYLE
  2
STANDARD1
 70
     0
 40
0.0
 41
1.0
 50
0.0
 71
     0
 42
3.0
  3
txt
  4

  0
ENDTAB
  0
TABLE
  2
VIEW
 70
     1
  0
VIEW
  2
ALL
 70
     0
 40
270.0
 10
220.78595300000001
 20
135.0
 41
441.5719059999999
 11
0.0
 21
0.0
 31
1.0
 12
0.0
 22
0.0
 32
0.0
 42
0.0
 43
0.0
 44
0.0
 50
0.0
 71
     0
  0
ENDTAB
  0
TABLE
  2
UCS
 70
     0
  0
ENDTAB
  0
TABLE
  2
APPID
 70
     3
  0
APPID
  2
ACAD
 70
     0
  0
APPID
  2
ACAD_MLEADERVER
 70
     0
  0
APPID
  2
ACAD_NAV_VCDISPLAY
 70
     0
  0
ENDTAB
  0
TABLE
  2
DIMSTYLE
 70
     1
  0
DIMSTYLE
  2
STANDARD
 70
     0
  3

  4

  5

  6

  7

 40
1.0
 41
0.18
 42
0.0625
 43
0.38
 44
0.18
 45
0.0
 46
0.0
 47
0.0
 48
0.0
140
0.18
141
0.09
142
0.0
143
25.399999999999999
144
1.0
145
0.0
146
1.0
147
0.09
 71
     0
 72
     0
 73
     1
 74
     1
 75
     0
 76
     0
 77
     0
 78
     0
170
     0
171
     2
172
     0
173
     0
174
     0
175
     0
176
     0
177
     0
178
     0
  0
ENDTAB
  0
ENDSEC
  0
SECTION
  2
BLOCKS
  0
BLOCK
  8
0
  2
$MODEL_SPACE
 70
     0
 10
0.0
 20
0.0
 30
0.0
  3
$MODEL_SPACE
  1

  0
ENDBLK
  5
762
  8
0
  0
BLOCK
 67
     1
  8
0
  2
$PAPER_SPACE
 70
     0
 10
0.0
 20
0.0
 30
0.0
  3
$PAPER_SPACE
  1

  0
ENDBLK
  5
760
 67
     1
  8
0
  0
BLOCK
  8
0
  2
STDGX5
 70
     0
 10
0.0
 20
0.0
 30
0.0
  3
STDGX5
  1

  0
ENDBLK
  5
2C
  8
0
  0
ENDSEC
  0
SECTION
  2
ENTITIES
  0
ARC
  5
3B
  8
0
 10
245.13724999999999
 20
116.86084099999999
 30
0.0
 40
2.5
 50
180.0
 51
270.0
  0
ARC
  5
3C
  8
0
 10
245.13724999999999
 20
150.33740900000001
 30
0.0
 40
2.5
 50
90.0
 51
180.0
  0
LINE
  5
3D
  8
0
 10
246.63724999999999
 20
114.36084099999999
 30
0.0
 11
246.63724999999999
 21
152.83740900000001
 31
0.0
  0
LINE
  5
3E
  8
0
 10
245.13724999999999
 20
114.36084099999999
 30
0.0
 11
246.63724999999999
 21
114.36084099999999
 31
0.0
  0
LINE
  5
3F
  8
0
 10
242.63724999999999
 20
150.33740900000001
 30
0.0
 11
242.63724999999999
 21
116.86084099999999
 31
0.0
  0
LINE
  5
40
  8
0
 10
246.63724999999999
 20
152.83740900000001
 30
0.0
 11
245.13724999999999
 21
152.83740900000001
 31
0.0
  0
ARC
  5
41
  8
0
 10
121.05854600000001
 20
133.77396200000001
 30
0.0
 40
2.5
 50
0.0
 51
90.0
  0
LINE
  5
42
  8
0
 10
119.55854600000001
 20
136.27396200000001
 30
0.0
 11
121.05854600000001
 21
136.27396200000001
 31
0.0
  0
LINE
  5
43
  8
0
 10
119.55854600000001
 20
152.84162799999999
 30
0.0
 11
121.05854600000001
 21
152.84162799999999
 31
0.0
  0
LINE
  5
44
  8
0
 10
123.55854600000001
 20
150.34162799999999
 30
0.0
 11
123.55854600000001
 21
116.86506
 31
0.0
  0
LINE
  5
45
  8
0
 10
121.05854600000001
 20
114.36506
 30
0.0
 11
119.55854600000001
 21
114.36506
 31
0.0
  0
LINE
  5
46
  8
0
 10
119.55854600000001
 20
114.36506
 30
0.0
 11
119.55854600000001
 21
152.84162799999999
 31
0.0
  0
LINE
  5
47
  8
0
 10
156.6195699999999
 20
80.006117999999987
 30
0.0
 11
156.6195699999999
 21
78.506118000000001
 31
0.0
  0
LINE
  5
48
  8
0
 10
156.6195699999999
 20
78.506118000000001
 30
0.0
 11
200.56156999999999
 21
78.506118000000001
 31
0.0
  0
LINE
  5
49
  8
0
 10
200.56156999999999
 20
78.506118000000001
 30
0.0
 11
200.56156999999999
 21
80.006117999999987
 31
0.0
  0
LINE
  5
4A
  8
0
 10
198.06156999999999
 20
82.506117999999987
 30
0.0
 11
159.11957000000001
 21
82.506117999999987
 31
0.0
  0
ARC
  5
4B
  8
0
 10
159.11957000000001
 20
80.006117999999987
 30
0.0
 40
2.5
 50
90.0
 51
180.0
  0
ARC
  5
4C
  8
0
 10
198.06156999999999
 20
80.006117999999987
 30
0.0
 40
2.5
 50
0.0
 51
90.0
  0
ARC
  5
4D
  8
0
 10
121.05854600000001
 20
150.34162799999999
 30
0.0
 40
2.5
 50
0.0
 51
90.0
  0
ARC
  5
4E
  8
0
 10
121.05854600000001
 20
116.86506
 30
0.0
 40
2.5
 50
270.0
 51
0.0
  0
ARC
  5
4F
  8
0
 10
120.672602
 20
114.36084099999999
 30
0.0
 40
40.0
 50
24.784091
 51
24.784091
  0
ARC
  5
50
  8
0
 10
120.672602
 20
114.36084099999999
 30
0.0
 40
80.0
 50
26.983039000000002
 51
26.983039000000002
  0
ARC
  5
51
  8
0
 10
120.672906
 20
114.360921
 30
0.0
 40
79.999692999999994
 50
3.016915
 51
26.983091000000002
  0
ARC
  5
52
  8
0
 10
188.39931100000001
 20
148.844075
 30
0.0
 40
3.999997
 50
26.983003
 51
120.000047
  0
LINE
  5
53
  8
0
 10
186.39931200000001
 20
152.30817400000001
 30
0.0
 11
181.29437999999999
 21
149.36084099999999
 31
0.0
  0
LINE
  5
54
  8
0
 10
181.29437999999999
 20
149.36084099999999
 30
0.0
 11
158.61993200000001
 21
136.26974199999989
 31
0.0
  0
ARC
  5
55
  8
0
 10
160.61993000000001
 20
132.805643
 30
0.0
 40
3.999997
 50
119.999956
 51
204.78413
  0
ARC
  5
56
  8
0
 10
120.67242400000001
 20
114.360792
 30
0.0
 40
40.000182000000002
 50
5.215946999999999
 51
24.784056
  0
ARC
  5
57
  8
0
 10
164.49040400000001
 20
118.360837
 30
0.0
 40
3.999997
 50
185.21585899999999
 51
270.00003299999997
  0
LINE
  5
58
  8
0
 10
164.49040400000001
 20
114.36084099999999
 30
0.0
 11
196.56726599999999
 21
114.36084099999999
 31
0.0
  0
ARC
  5
59
  8
0
 10
196.56726900000001
 20
118.360838
 30
0.0
 40
3.9999980000000002
 50
269.99996400000009
 51
3.0170069999999991
  0
ARC
  5
5A
  8
0
 10
160.672606
 20
80.006117999999987
 30
0.0
 40
2.5
 50
90.0
 51
180.0
  0
LINE
  5
5B
  8
0
 10
158.172606
 20
80.006117999999987
 30
0.0
 11
158.172606
 21
78.506118000000001
 31
0.0
  0
INSERT
  5
5E
  8
0
  6
CONTINUOUS
 62
     4
  2
STDGX5
 10
393.07662099999999
 20
19.154458999999999
 30
0.0
  0
INSERT
  5
6A
  8
81TEXT
  6
CONTINUOUS
  2
STDGX5
 10
393.07662099999999
 20
19.154458999999999
 30
0.0
  0
INSERT
  5
6B
  8
0
  2
STDGX5
 10
718.88909899999987
 20
33.960231
 30
0.0
  0
INSERT
  5
6C
  8
0
  2
STDGX5
 10
718.88909899999987
 20
33.960231
 30
0.0
  0
INSERT
  5
6D
  8
0
  2
STDGX5
 10
718.88909899999987
 20
33.960231
 30
0.0
  0
INSERT
  5
6F
  8
0
  6
CONTINUOUS
 62
     4
  2
STDGX5
 10
729.3658999999999
 20
38.580083000000002
 30
0.0
  0
INSERT
  5
71
  8
81TEXT
  6
CONTINUOUS
  2
STDGX5
 10
393.07662099999999
 20
19.154458999999999
 30
0.0
  0
INSERT
  5
72
  8
81TEXT
  6
CONTINUOUS
  2
STDGX5
 10
393.07662099999999
 20
19.154458999999999
 30
0.0
  0
INSERT
  5
73
  8
81TEXT
  6
CONTINUOUS
  2
STDGX5
 10
393.07662099999999
 20
19.154458999999999
 30
0.0
  0
INSERT
  5
7A
  8
0
  2
STDGX5
 10
724.46414600000003
 20
49.671394999999997
 30
0.0
  0
INSERT
  5
7B
  8
0
  2
STDGX5
 10
724.46414600000003
 20
49.671394999999997
 30
0.0
  0
INSERT
  5
7C
  8
0
  2
STDGX5
 10
722.17038200000002
 20
46.216436999999992
 30
0.0
  0
INSERT
  5
7D
  8
0
  2
STDGX5
 10
722.17038200000002
 20
46.216436999999992
 30
0.0
  0
INSERT
  5
7E
  8
0
  2
STDGX5
 10
722.15670699999987
 20
44.687785999999988
 30
0.0
 41
0.5
 42
0.5
 43
0.5
  0
INSERT
  5
7F
  8
0
  2
STDGX5
 10
722.15670699999987
 20
44.687785999999988
 30
0.0
 41
0.5
 42
0.5
 43
0.5
  0
INSERT
  5
80
  8
0
  2
STDGX5
 10
713.74793299999988
 20
37.929915000000001
 30
0.0
 41
0.5
 42
0.5
 43
0.5
  0
INSERT
  5
81
  8
0
  2
STDGX5
 10
713.74793299999988
 20
37.929915000000001
 30
0.0
 41
0.5
 42
0.5
 43
0.5
  0
INSERT
  5
82
  8
0
  2
STDGX5
 10
811.79135699999995
 20
44.858934000000012
 30
0.0
 41
0.5
 42
0.5
 43
0.5
  0
INSERT
  5
83
  8
0
  2
STDGX5
 10
811.79135699999995
 20
44.858934000000012
 30
0.0
 41
0.5
 42
0.5
 43
0.5
  0
INSERT
  5
84
  8
0
  2
STDGX5
 10
952.03927200000021
 20
50.481569
 30
0.0
 41
0.5
 42
0.5
 43
0.5
  0
INSERT
  5
85
  8
0
  2
STDGX5
 10
952.03927200000021
 20
50.481569
 30
0.0
 41
0.5
 42
0.5
 43
0.5
  0
INSERT
  5
86
  8
0
  2
STDGX5
 10
952.03927200000021
 20
49.458786000000003
 30
0.0
 41
0.5
 42
0.5
 43
0.5
  0
INSERT
  5
87
  8
0
  2
STDGX5
 10
952.03927200000021
 20
49.458786000000003
 30
0.0
 41
0.5
 42
0.5
 43
0.5
  0
INSERT
  5
88
  8
0
  2
STDGX5
 10
952.77327200000013
 20
53.548510999999998
 30
0.0
 41
0.5
 42
0.5
 43
0.5
  0
INSERT
  5
89
  8
0
  2
STDGX5
 10
952.77327200000013
 20
53.548510999999998
 30
0.0
 41
0.5
 42
0.5
 43
0.5
  0
INSERT
  5
8A
  8
0
  2
STDGX5
 10
535.04410399999995
 20
65.423304999999999
 30
0.0
  0
INSERT
  5
8B
  8
0
  2
STDGX5
 10
535.04410399999995
 20
65.423304999999999
 30
0.0
  0
INSERT
  5
8C
  8
0
  2
STDGX5
 10
535.04410399999995
 20
65.423304999999999
 30
0.0
  0
INSERT
  5
8D
  8
0
  2
STDGX5
 10
535.04410399999995
 20
65.423304999999999
 30
0.0
  0
INSERT
  5
8E
  8
0
  2
STDGX5
 10
535.04410399999995
 20
65.423304999999999
 30
0.0
  0
INSERT
  5
8F
  8
0
  2
STDGX5
 10
535.04410399999995
 20
65.423304999999999
 30
0.0
  0
INSERT
  5
92
  8
0
  6
CONTINUOUS
 62
     4
  2
STDGX5
 10
727.15050899999994
 20
37.773606999999998
 30
0.0
  0
INSERT
  5
9E
  8
81TEXT
  6
CONTINUOUS
  2
STDGX5
 10
727.15050899999994
 20
37.773606999999998
 30
0.0
  0
INSERT
  5
9F
  8
0
  2
STDGX5
 10
1052.9629870000001
 20
52.579377999999998
 30
0.0
  0
INSERT
  5
A0
  8
0
  2
STDGX5
 10
1052.9629870000001
 20
52.579377999999998
 30
0.0
  0
INSERT
  5
A1
  8
0
  2
STDGX5
 10
1052.9629870000001
 20
52.579377999999998
 30
0.0
  0
INSERT
  5
A3
  8
0
  6
CONTINUOUS
 62
     4
  2
STDGX5
 10
1063.4397879999999
 20
57.199230999999997
 30
0.0
  0
INSERT
  5
A5
  8
81TEXT
  6
CONTINUOUS
  2
STDGX5
 10
727.15050899999994
 20
37.773606999999998
 30
0.0
  0
INSERT
  5
A6
  8
81TEXT
  6
CONTINUOUS
  2
STDGX5
 10
727.15050899999994
 20
37.773606999999998
 30
0.0
  0
INSERT
  5
A7
  8
81TEXT
  6
CONTINUOUS
  2
STDGX5
 10
727.15050899999994
 20
37.773606999999998
 30
0.0
  0
INSERT
  5
AA
  8
0
  6
CONTINUOUS
 62
     4
  2
STDGX5
 10
724.07386799999995
 20
32.396692000000002
 30
0.0
  0
INSERT
  5
B6
  8
81TEXT
  6
CONTINUOUS
  2
STDGX5
 10
724.07386799999995
 20
32.396692000000002
 30
0.0
  0
INSERT
  5
B7
  8
0
  2
STDGX5
 10
1049.886346
 20
47.202463000000002
 30
0.0
  0
INSERT
  5
B8
  8
0
  2
STDGX5
 10
1049.886346
 20
47.202463000000002
 30
0.0
  0
INSERT
  5
B9
  8
0
  2
STDGX5
 10
1049.886346
 20
47.202463000000002
 30
0.0
  0
INSERT
  5
BB
  8
0
  6
CONTINUOUS
 62
     4
  2
STDGX5
 10
1060.363147
 20
51.822316000000001
 30
0.0
  0
INSERT
  5
BD
  8
81TEXT
  6
CONTINUOUS
  2
STDGX5
 10
724.07386799999995
 20
32.396692000000002
 30
0.0
  0
INSERT
  5
BE
  8
81TEXT
  6
CONTINUOUS
  2
STDGX5
 10
724.07386799999995
 20
32.396692000000002
 30
0.0
  0
INSERT
  5
BF
  8
81TEXT
  6
CONTINUOUS
  2
STDGX5
 10
724.07386799999995
 20
32.396692000000002
 30
0.0
  0
INSERT
  5
C2
  8
0
  6
CONTINUOUS
 62
     4
  2
STDGX5
 10
722.53554699999995
 20
37.008484000000003
 30
0.0
  0
INSERT
  5
CE
  8
81TEXT
  6
CONTINUOUS
  2
STDGX5
 10
722.53554699999995
 20
37.008484000000003
 30
0.0
  0
INSERT
  5
CF
  8
0
  2
STDGX5
 10
1048.348025
 20
51.814256
 30
0.0
  0
INSERT
  5
D0
  8
0
  2
STDGX5
 10
1048.348025
 20
51.814256
 30
0.0
  0
INSERT
  5
D1
  8
0
  2
STDGX5
 10
1048.348025
 20
51.814256
 30
0.0
  0
INSERT
  5
D3
  8
0
  6
CONTINUOUS
 62
     4
  2
STDGX5
 10
1058.824826
 20
56.434108999999999
 30
0.0
  0
INSERT
  5
D5
  8
81TEXT
  6
CONTINUOUS
  2
STDGX5
 10
722.53554699999995
 20
37.008484000000003
 30
0.0
  0
INSERT
  5
D6
  8
81TEXT
  6
CONTINUOUS
  2
STDGX5
 10
722.53554699999995
 20
37.008484000000003
 30
0.0
  0
INSERT
  5
D7
  8
81TEXT
  6
CONTINUOUS
  2
STDGX5
 10
722.53554699999995
 20
37.008484000000003
 30
0.0
  0
INSERT
  5
DE
  8
0
  2
STDGX5
 10
1053.9230709999999
 20
67.525419999999997
 30
0.0
  0
INSERT
  5
DF
  8
0
  2
STDGX5
 10
1053.9230709999999
 20
67.525419999999997
 30
0.0
  0
INSERT
  5
E0
  8
0
  2
STDGX5
 10
1051.6293069999999
 20
64.070463000000004
 30
0.0
  0
INSERT
  5
E1
  8
0
  2
STDGX5
 10
1051.6293069999999
 20
64.070463000000004
 30
0.0
  0
INSERT
  5
E2
  8
0
  2
STDGX5
 10
1051.615632
 20
62.541812
 30
0.0
 41
0.5
 42
0.5
 43
0.5
  0
INSERT
  5
E3
  8
0
  2
STDGX5
 10
1051.615632
 20
62.541812
 30
0.0
 41
0.5
 42
0.5
 43
0.5
  0
INSERT
  5
E4
  8
0
  2
STDGX5
 10
1043.2068589999999
 20
55.783940000000001
 30
0.0
 41
0.5
 42
0.5
 43
0.5
  0
INSERT
  5
E5
  8
0
  2
STDGX5
 10
1043.2068589999999
 20
55.783940000000001
 30
0.0
 41
0.5
 42
0.5
 43
0.5
  0
INSERT
  5
E6
  8
0
  2
STDGX5
 10
1141.250282
 20
62.712959999999988
 30
0.0
 41
0.5
 42
0.5
 43
0.5
  0
INSERT
  5
E7
  8
0
  2
STDGX5
 10
1141.250282
 20
62.712959999999988
 30
0.0
 41
0.5
 42
0.5
 43
0.5
  0
INSERT
  5
E8
  8
0
  2
STDGX5
 10
1281.498198
 20
68.335594999999984
 30
0.0
 41
0.5
 42
0.5
 43
0.5
  0
INSERT
  5
E9
  8
0
  2
STDGX5
 10
1281.498198
 20
68.335594999999984
 30
0.0
 41
0.5
 42
0.5
 43
0.5
  0
INSERT
  5
EA
  8
0
  2
STDGX5
 10
1281.498198
 20
67.312811999999994
 30
0.0
 41
0.5
 42
0.5
 43
0.5
  0
INSERT
  5
EB
  8
0
  2
STDGX5
 10
1281.498198
 20
67.312811999999994
 30
0.0
 41
0.5
 42
0.5
 43
0.5
  0
INSERT
  5
EC
  8
0
  2
STDGX5
 10
1282.2321979999999
 20
71.402535999999998
 30
0.0
 41
0.5
 42
0.5
 43
0.5
  0
INSERT
  5
ED
  8
0
  2
STDGX5
 10
1282.2321979999999
 20
71.402535999999998
 30
0.0
 41
0.5
 42
0.5
 43
0.5
  0
INSERT
  5
EE
  8
0
  2
STDGX5
 10
864.50302999999997
 20
83.277330000000006
 30
0.0
  0
INSERT
  5
EF
  8
0
  2
STDGX5
 10
864.50302999999997
 20
83.277330000000006
 30
0.0
  0
INSERT
  5
F0
  8
0
  2
STDGX5
 10
864.50302999999997
 20
83.277330000000006
 30
0.0
  0
INSERT
  5
F1
  8
0
  2
STDGX5
 10
864.50302999999997
 20
83.277330000000006
 30
0.0
  0
INSERT
  5
F2
  8
0
  2
STDGX5
 10
864.50302999999997
 20
83.277330000000006
 30
0.0
  0
INSERT
  5
F3
  8
0
  2
STDGX5
 10
864.50302999999997
 20
83.277330000000006
 30
0.0
  0
INSERT
  5
F6
  8
0
  6
CONTINUOUS
 62
     4
  2
STDGX5
 10
1056.6094350000001
 20
55.627631999999998
 30
0.0
  0
INSERT
  5
102
  8
81TEXT
  6
CONTINUOUS
  2
STDGX5
 10
1056.6094350000001
 20
55.627631999999998
 30
0.0
  0
INSERT
  5
103
  8
0
  2
STDGX5
 10
1382.421912
 20
70.43340400000001
 30
0.0
  0
INSERT
  5
104
  8
0
  2
STDGX5
 10
1382.421912
 20
70.43340400000001
 30
0.0
  0
INSERT
  5
105
  8
0
  2
STDGX5
 10
1382.421912
 20
70.43340400000001
 30
0.0
  0
INSERT
  5
107
  8
0
  6
CONTINUOUS
 62
     4
  2
STDGX5
 10
1392.8987139999999
 20
75.053256000000005
 30
0.0
  0
INSERT
  5
109
  8
81TEXT
  6
CONTINUOUS
  2
STDGX5
 10
1056.6094350000001
 20
55.627631999999998
 30
0.0
  0
INSERT
  5
10A
  8
81TEXT
  6
CONTINUOUS
  2
STDGX5
 10
1056.6094350000001
 20
55.627631999999998
 30
0.0
  0
INSERT
  5
10B
  8
81TEXT
  6
CONTINUOUS
  2
STDGX5
 10
1056.6094350000001
 20
55.627631999999998
 30
0.0
  0
INSERT
  5
10E
  8
0
  6
CONTINUOUS
 62
     4
  2
STDGX5
 10
1053.5327930000001
 20
50.250717000000002
 30
0.0
  0
INSERT
  5
11A
  8
81TEXT
  6
CONTINUOUS
  2
STDGX5
 10
1053.5327930000001
 20
50.250717000000002
 30
0.0
  0
INSERT
  5
11B
  8
0
  2
STDGX5
 10
1379.3452709999999
 20
65.056488999999999
 30
0.0
  0
INSERT
  5
11C
  8
0
  2
STDGX5
 10
1379.3452709999999
 20
65.056488999999999
 30
0.0
  0
INSERT
  5
11D
  8
0
  2
STDGX5
 10
1379.3452709999999
 20
65.056488999999999
 30
0.0
  0
INSERT
  5
11F
  8
0
  6
CONTINUOUS
 62
     4
  2
STDGX5
 10
1389.8220719999999
 20
69.676341000000008
 30
0.0
  0
INSERT
  5
121
  8
81TEXT
  6
CONTINUOUS
  2
STDGX5
 10
1053.5327930000001
 20
50.250717000000002
 30
0.0
  0
INSERT
  5
122
  8
81TEXT
  6
CONTINUOUS
  2
STDGX5
 10
1053.5327930000001
 20
50.250717000000002
 30
0.0
  0
INSERT
  5
123
  8
81TEXT
  6
CONTINUOUS
  2
STDGX5
 10
1053.5327930000001
 20
50.250717000000002
 30
0.0
  0
INSERT
  5
125
  8
81TEXT
  6
CONTINUOUS
  2
STDGX5
 10
1055.8402739999999
 20
57.930019000000001
 30
0.0
  0
INSERT
  5
126
  8
81TEXT
  6
CONTINUOUS
  2
STDGX5
 10
1055.8402739999999
 20
57.930019000000001
 30
0.0
  0
INSERT
  5
127
  8
0
  6
CONTINUOUS
 62
     3
  2
STDGX5
 10
1395.890265
 20
60.429877000000012
 30
0.0
  0
INSERT
  5
128
  8
0
  6
CONTINUOUS
 62
     4
  2
STDGX5
 10
1395.890265
 20
60.429877000000012
 30
0.0
  0
INSERT
  5
129
  8
0
  6
CONTINUOUS
 62
     3
  2
STDGX5
 10
1422.8493679999999
 20
83.109188000000003
 30
0.0
  0
INSERT
  5
12A
  8
0
  6
CONTINUOUS
 62
     4
  2
STDGX5
 10
1422.8493679999999
 20
83.109188000000003
 30
0.0
  0
INSERT
  5
12C
  8
81TEXT
  6
CONTINUOUS
  2
STDGX5
 10
1394.924299
 20
75.772110999999995
 30
0.0
  0
INSERT
  5
12D
  8
81TEXT
  6
CONTINUOUS
  2
STDGX5
 10
1394.924299
 20
75.772110999999995
 30
0.0
  0
INSERT
  5
12F
  8
81TEXT
  6
CONTINUOUS
  2
STDGX5
 10
1731.133151
 20
85.578165999999996
 30
0.0
  0
INSERT
  5
130
  8
81TEXT
  6
CONTINUOUS
  2
STDGX5
 10
1731.133151
 20
85.578165999999996
 30
0.0
  0
INSERT
  5
132
  8
81TEXT
  6
CONTINUOUS
  2
STDGX5
 10
2089.788677
 20
88.073622
 30
0.0
  0
INSERT
  5
133
  8
81TEXT
  6
CONTINUOUS
  2
STDGX5
 10
2089.788677
 20
88.073622
 30
0.0
  0
INSERT
  5
135
  8
81TEXT
  6
CONTINUOUS
  2
STDGX5
 10
1734.1977790000001
 20
91.441896
 30
0.0
  0
INSERT
  5
136
  8
81TEXT
  6
CONTINUOUS
  2
STDGX5
 10
1734.1977790000001
 20
91.441896
 30
0.0
  0
INSERT
  5
138
  8
81TEXT
  6
CONTINUOUS
  2
STDGX5
 10
2092.8533050000001
 20
93.937352000000004
 30
0.0
  0
INSERT
  5
139
  8
81TEXT
  6
CONTINUOUS
  2
STDGX5
 10
2092.8533050000001
 20
93.937352000000004
 30
0.0
  0
INSERT
  5
13A
  8
81TEXT
  6
CONTINUOUS
  2
STDGX5
 10
1734.1977790000001
 20
91.441896
 30
0.0
  0
INSERT
  5
13C
  8
81TEXT
  6
CONTINUOUS
  2
STDGX5
 10
1395.9263120000001
 20
73.668777000000006
 30
0.0
  0
INSERT
  5
13D
  8
81TEXT
  6
CONTINUOUS
  2
STDGX5
 10
1395.9263120000001
 20
73.668777000000006
 30
0.0
  0
INSERT
  5
13F
  8
81TEXT
  6
CONTINUOUS
  2
STDGX5
 10
1749.0637739999991
 20
82.32159200000001
 30
0.0
  0
INSERT
  5
140
  8
81TEXT
  6
CONTINUOUS
  2
STDGX5
 10
1749.0637739999991
 20
82.32159200000001
 30
0.0
  0
INSERT
  5
142
  8
81TEXT
  6
CONTINUOUS
  2
STDGX5
 10
2107.7192989999999
 20
84.817046999999988
 30
0.0
  0
INSERT
  5
143
  8
81TEXT
  6
CONTINUOUS
  2
STDGX5
 10
2107.7192989999999
 20
84.817046999999988
 30
0.0
  0
INSERT
  5
144
  8
0
  6
CONTINUOUS
 62
     3
  2
STDGX5
 10
1726.158093
 20
77.314143999999999
 30
0.0
  0
INSERT
  5
145
  8
0
  6
CONTINUOUS
 62
     4
  2
STDGX5
 10
1726.158093
 20
77.314143999999999
 30
0.0
  0
INSERT
  5
146
  8
81TEXT
  6
CONTINUOUS
  2
STDGX5
 10
1395.9263120000001
 20
73.668777000000006
 30
0.0
  0
INSERT
  5
147
  8
81TEXT
  6
CONTINUOUS
  2
STDGX5
 10
1395.9263120000001
 20
73.668777000000006
 30
0.0
  0
INSERT
  5
149
  8
81TEXT
  6
CONTINUOUS
  2
STDGX5
 10
1399.290229
 20
70.987494999999996
 30
0.0
  0
INSERT
  5
14A
  8
81TEXT
  6
CONTINUOUS
  2
STDGX5
 10
1399.290229
 20
70.987494999999996
 30
0.0
  0
INSERT
  5
14C
  8
81TEXT
  6
CONTINUOUS
  2
STDGX5
 10
1757.945755
 20
73.482950000000002
 30
0.0
  0
INSERT
  5
14D
  8
81TEXT
  6
CONTINUOUS
  2
STDGX5
 10
1757.945755
 20
73.482950000000002
 30
0.0
  0
INSERT
  5
14E
  8
81TEXT
  6
CONTINUOUS
  2
STDGX5
 10
1399.290229
 20
70.987494999999996
 30
0.0
  0
INSERT
  5
150
  8
81TEXT
  6
CONTINUOUS
  2
STDGX5
 10
1401.051657
 20
78.851315999999997
 30
0.0
  0
INSERT
  5
152
  8
81TEXT
  6
CONTINUOUS
  2
STDGX5
 10
1392.352226
 20
66.376465999999994
 30
0.0
  0
INSERT
  5
153
  8
81TEXT
  6
CONTINUOUS
  2
STDGX5
 10
1392.352226
 20
66.376465999999994
 30
0.0
  0
INSERT
  5
155
  8
81TEXT
  6
CONTINUOUS
  2
STDGX5
 10
1728.561078
 20
76.182520999999994
 30
0.0
  0
INSERT
  5
156
  8
81TEXT
  6
CONTINUOUS
  2
STDGX5
 10
1728.561078
 20
76.182520999999994
 30
0.0
  0
INSERT
  5
158
  8
81TEXT
  6
CONTINUOUS
  2
STDGX5
 10
2087.2166039999988
 20
78.677976000000001
 30
0.0
  0
INSERT
  5
159
  8
81TEXT
  6
CONTINUOUS
  2
STDGX5
 10
2087.2166039999988
 20
78.677976000000001
 30
0.0
  0
INSERT
  5
15B
  8
81TEXT
  6
CONTINUOUS
  2
STDGX5
 10
1731.625706
 20
82.046250999999984
 30
0.0
  0
INSERT
  5
15C
  8
81TEXT
  6
CONTINUOUS
  2
STDGX5
 10
1731.625706
 20
82.046250999999984
 30
0.0
  0
INSERT
  5
15E
  8
81TEXT
  6
CONTINUOUS
  2
STDGX5
 10
2090.2812319999998
 20
84.541706999999974
 30
0.0
  0
INSERT
  5
15F
  8
81TEXT
  6
CONTINUOUS
  2
STDGX5
 10
2090.2812319999998
 20
84.541706999999974
 30
0.0
  0
INSERT
  5
160
  8
81TEXT
  6
CONTINUOUS
  2
STDGX5
 10
1731.625706
 20
82.046250999999984
 30
0.0
  0
INSERT
  5
161
  8
0
  2
STDGX5
 10
1413.3103289999999
 20
96.788617999999985
 30
0.0
 41
0.3
 42
0.3
 43
0.3
  0
INSERT
  5
162
  8
0
  2
STDGX5
 10
1413.3103289999999
 20
96.788617999999985
 30
0.0
 41
0.3
 42
0.3
 43
0.3
  0
INSERT
  5
163
  8
0
  2
STDGX5
 10
1431.4968630000001
 20
110.288618
 30
0.0
 41
0.3
 42
0.3
 43
0.3
  0
INSERT
  5
164
  8
0
  2
STDGX5
 10
1600.11733
 20
138.64505500000001
 30
0.0
 41
0.3
 42
0.3
 43
0.3
  0
INSERT
  5
165
  8
0
  2
STDGX5
 10
1567.7458079999999
 20
168.521559
 30
0.0
 41
0.3
 42
0.3
 43
0.3
  0
INSERT
  5
166
  8
0
  2
STDGX5
 10
1567.7458079999999
 20
168.521559
 30
0.0
 41
0.3
 42
0.3
 43
0.3
  0
INSERT
  5
167
  8
0
  6
CONTINUOUS
 62
     3
  2
STDGX5
 10
1379.1573969999999
 20
68.483793999999975
 30
0.0
  0
INSERT
  5
168
  8
0
  6
CONTINUOUS
 62
     4
  2
STDGX5
 10
1379.1573969999999
 20
68.483793999999975
 30
0.0
  0
INSERT
  5
16B
  8
0
  6
CONTINUOUS
 62
     4
  2
STDGX5
 10
724.07386799999995
 20
46.990172999999999
 30
0.0
  0
INSERT
  5
177
  8
81TEXT
  6
CONTINUOUS
  2
STDGX5
 10
724.07386799999995
 20
46.990172999999999
 30
0.0
  0
INSERT
  5
178
  8
0
  2
STDGX5
 10
1049.886346
 20
61.795943999999992
 30
0.0
  0
INSERT
  5
179
  8
0
  2
STDGX5
 10
1049.886346
 20
61.795943999999992
 30
0.0
  0
INSERT
  5
17A
  8
0
  2
STDGX5
 10
1049.886346
 20
61.795943999999992
 30
0.0
  0
INSERT
  5
17C
  8
0
  6
CONTINUOUS
 62
     4
  2
STDGX5
 10
1060.363147
 20
66.415796999999998
 30
0.0
  0
INSERT
  5
17E
  8
81TEXT
  6
CONTINUOUS
  2
STDGX5
 10
724.07386799999995
 20
46.990172999999999
 30
0.0
  0
INSERT
  5
17F
  8
81TEXT
  6
CONTINUOUS
  2
STDGX5
 10
724.07386799999995
 20
46.990172999999999
 30
0.0
  0
INSERT
  5
180
  8
81TEXT
  6
CONTINUOUS
  2
STDGX5
 10
724.07386799999995
 20
46.990172999999999
 30
0.0
  0
INSERT
  5
187
  8
0
  2
STDGX5
 10
1055.4613919999999
 20
77.507109
 30
0.0
  0
INSERT
  5
188
  8
0
  2
STDGX5
 10
1055.4613919999999
 20
77.507109
 30
0.0
  0
INSERT
  5
189
  8
0
  2
STDGX5
 10
1053.1676279999999
 20
74.052150999999995
 30
0.0
  0
INSERT
  5
18A
  8
0
  2
STDGX5
 10
1053.1676279999999
 20
74.052150999999995
 30
0.0
  0
INSERT
  5
18B
  8
0
  2
STDGX5
 10
1053.153953
 20
72.523499999999984
 30
0.0
 41
0.5
 42
0.5
 43
0.5
  0
INSERT
  5
18C
  8
0
  2
STDGX5
 10
1053.153953
 20
72.523499999999984
 30
0.0
 41
0.5
 42
0.5
 43
0.5
  0
INSERT
  5
18D
  8
0
  2
STDGX5
 10
1044.7451799999999
 20
65.765629000000004
 30
0.0
 41
0.5
 42
0.5
 43
0.5
  0
INSERT
  5
18E
  8
0
  2
STDGX5
 10
1044.7451799999999
 20
65.765629000000004
 30
0.0
 41
0.5
 42
0.5
 43
0.5
  0
INSERT
  5
18F
  8
0
  2
STDGX5
 10
1142.788603
 20
72.694648000000001
 30
0.0
 41
0.5
 42
0.5
 43
0.5
  0
INSERT
  5
190
  8
0
  2
STDGX5
 10
1142.788603
 20
72.694648000000001
 30
0.0
 41
0.5
 42
0.5
 43
0.5
  0
INSERT
  5
191
  8
0
  2
STDGX5
 10
1283.0365179999999
 20
78.317282999999989
 30
0.0
 41
0.5
 42
0.5
 43
0.5
  0
INSERT
  5
192
  8
0
  2
STDGX5
 10
1283.0365179999999
 20
78.317282999999989
 30
0.0
 41
0.5
 42
0.5
 43
0.5
  0
INSERT
  5
193
  8
0
  2
STDGX5
 10
1283.0365179999999
 20
77.294499999999985
 30
0.0
 41
0.5
 42
0.5
 43
0.5
  0
INSERT
  5
194
  8
0
  2
STDGX5
 10
1283.0365179999999
 20
77.294499999999985
 30
0.0
 41
0.5
 42
0.5
 43
0.5
  0
INSERT
  5
195
  8
0
  2
STDGX5
 10
1283.7705189999999
 20
81.384225000000001
 30
0.0
 41
0.5
 42
0.5
 43
0.5
  0
INSERT
  5
196
  8
0
  2
STDGX5
 10
1283.7705189999999
 20
81.384225000000001
 30
0.0
 41
0.5
 42
0.5
 43
0.5
  0
INSERT
  5
197
  8
0
  2
STDGX5
 10
866.04134999999997
 20
93.259018000000026
 30
0.0
  0
INSERT
  5
198
  8
0
  2
STDGX5
 10
866.04134999999997
 20
93.259018000000026
 30
0.0
  0
INSERT
  5
199
  8
0
  2
STDGX5
 10
866.04134999999997
 20
93.259018000000026
 30
0.0
  0
INSERT
  5
19A
  8
0
  2
STDGX5
 10
866.04134999999997
 20
93.259018000000026
 30
0.0
  0
INSERT
  5
19B
  8
0
  2
STDGX5
 10
866.04134999999997
 20
93.259018000000026
 30
0.0
  0
INSERT
  5
19C
  8
0
  2
STDGX5
 10
866.04134999999997
 20
93.259018000000026
 30
0.0
  0
INSERT
  5
19F
  8
0
  6
CONTINUOUS
 62
     4
  2
STDGX5
 10
1058.147755
 20
65.609320999999994
 30
0.0
  0
INSERT
  5
1AB
  8
81TEXT
  6
CONTINUOUS
  2
STDGX5
 10
1058.147755
 20
65.609320999999994
 30
0.0
  0
INSERT
  5
1AC
  8
0
  2
STDGX5
 10
1383.960233
 20
80.415092000000001
 30
0.0
  0
INSERT
  5
1AD
  8
0
  2
STDGX5
 10
1383.960233
 20
80.415092000000001
 30
0.0
  0
INSERT
  5
1AE
  8
0
  2
STDGX5
 10
1383.960233
 20
80.415092000000001
 30
0.0
  0
INSERT
  5
1B0
  8
0
  6
CONTINUOUS
 62
     4
  2
STDGX5
 10
1394.437034
 20
85.034944999999993
 30
0.0
  0
INSERT
  5
1B2
  8
81TEXT
  6
CONTINUOUS
  2
STDGX5
 10
1058.147755
 20
65.609320999999994
 30
0.0
  0
INSERT
  5
1B3
  8
81TEXT
  6
CONTINUOUS
  2
STDGX5
 10
1058.147755
 20
65.609320999999994
 30
0.0
  0
INSERT
  5
1B4
  8
81TEXT
  6
CONTINUOUS
  2
STDGX5
 10
1058.147755
 20
65.609320999999994
 30
0.0
  0
INSERT
  5
1B7
  8
0
  6
CONTINUOUS
 62
     4
  2
STDGX5
 10
1055.0711140000001
 20
60.232406000000012
 30
0.0
  0
INSERT
  5
1C3
  8
81TEXT
  6
CONTINUOUS
  2
STDGX5
 10
1055.0711140000001
 20
60.232406000000012
 30
0.0
  0
INSERT
  5
1C4
  8
0
  2
STDGX5
 10
1380.8835919999999
 20
75.038177000000005
 30
0.0
  0
INSERT
  5
1C5
  8
0
  2
STDGX5
 10
1380.8835919999999
 20
75.038177000000005
 30
0.0
  0
INSERT
  5
1C6
  8
0
  2
STDGX5
 10
1380.8835919999999
 20
75.038177000000005
 30
0.0
  0
INSERT
  5
1C8
  8
0
  6
CONTINUOUS
 62
     4
  2
STDGX5
 10
1391.3603929999999
 20
79.658030000000011
 30
0.0
  0
INSERT
  5
1CA
  8
81TEXT
  6
CONTINUOUS
  2
STDGX5
 10
1055.0711140000001
 20
60.232406000000012
 30
0.0
  0
INSERT
  5
1CB
  8
81TEXT
  6
CONTINUOUS
  2
STDGX5
 10
1055.0711140000001
 20
60.232406000000012
 30
0.0
  0
INSERT
  5
1CC
  8
81TEXT
  6
CONTINUOUS
  2
STDGX5
 10
1055.0711140000001
 20
60.232406000000012
 30
0.0
  0
INSERT
  5
1CE
  8
81TEXT
  6
CONTINUOUS
  2
STDGX5
 10
1057.3785949999999
 20
67.911706999999993
 30
0.0
  0
INSERT
  5
1CF
  8
81TEXT
  6
CONTINUOUS
  2
STDGX5
 10
1057.3785949999999
 20
67.911706999999993
 30
0.0
  0
INSERT
  5
1D0
  8
0
  6
CONTINUOUS
 62
     3
  2
STDGX5
 10
1397.4285850000001
 20
70.411565999999993
 30
0.0
  0
INSERT
  5
1D1
  8
0
  6
CONTINUOUS
 62
     4
  2
STDGX5
 10
1397.4285850000001
 20
70.411565999999993
 30
0.0
  0
INSERT
  5
1D2
  8
0
  6
CONTINUOUS
 62
     3
  2
STDGX5
 10
1424.387688
 20
93.090877000000006
 30
0.0
  0
INSERT
  5
1D3
  8
0
  6
CONTINUOUS
 62
     4
  2
STDGX5
 10
1424.387688
 20
93.090877000000006
 30
0.0
  0
INSERT
  5
1D5
  8
81TEXT
  6
CONTINUOUS
  2
STDGX5
 10
1396.4626189999999
 20
85.753799999999998
 30
0.0
  0
INSERT
  5
1D6
  8
81TEXT
  6
CONTINUOUS
  2
STDGX5
 10
1396.4626189999999
 20
85.753799999999998
 30
0.0
  0
INSERT
  5
1D8
  8
81TEXT
  6
CONTINUOUS
  2
STDGX5
 10
1732.671472
 20
95.559854000000001
 30
0.0
  0
INSERT
  5
1D9
  8
81TEXT
  6
CONTINUOUS
  2
STDGX5
 10
1732.671472
 20
95.559854000000001
 30
0.0
  0
INSERT
  5
1DB
  8
81TEXT
  6
CONTINUOUS
  2
STDGX5
 10
2091.3269970000001
 20
98.055310000000006
 30
0.0
  0
INSERT
  5
1DC
  8
81TEXT
  6
CONTINUOUS
  2
STDGX5
 10
2091.3269970000001
 20
98.055310000000006
 30
0.0
  0
INSERT
  5
1DE
  8
81TEXT
  6
CONTINUOUS
  2
STDGX5
 10
1735.7361000000001
 20
101.423585
 30
0.0
  0
INSERT
  5
1DF
  8
81TEXT
  6
CONTINUOUS
  2
STDGX5
 10
1735.7361000000001
 20
101.423585
 30
0.0
  0
INSERT
  5
1E1
  8
81TEXT
  6
CONTINUOUS
  2
STDGX5
 10
2094.3916250000002
 20
103.91904
 30
0.0
  0
INSERT
  5
1E2
  8
81TEXT
  6
CONTINUOUS
  2
STDGX5
 10
2094.3916250000002
 20
103.91904
 30
0.0
  0
INSERT
  5
1E3
  8
81TEXT
  6
CONTINUOUS
  2
STDGX5
 10
1735.7361000000001
 20
101.423585
 30
0.0
  0
INSERT
  5
1E5
  8
81TEXT
  6
CONTINUOUS
  2
STDGX5
 10
1397.464633
 20
83.650464999999997
 30
0.0
  0
INSERT
  5
1E6
  8
81TEXT
  6
CONTINUOUS
  2
STDGX5
 10
1397.464633
 20
83.650464999999997
 30
0.0
  0
INSERT
  5
1E8
  8
81TEXT
  6
CONTINUOUS
  2
STDGX5
 10
1750.6020940000001
 20
92.303280000000001
 30
0.0
  0
INSERT
  5
1E9
  8
81TEXT
  6
CONTINUOUS
  2
STDGX5
 10
1750.6020940000001
 20
92.303280000000001
 30
0.0
  0
INSERT
  5
1EB
  8
81TEXT
  6
CONTINUOUS
  2
STDGX5
 10
2109.2576199999999
 20
94.798734999999994
 30
0.0
  0
INSERT
  5
1EC
  8
81TEXT
  6
CONTINUOUS
  2
STDGX5
 10
2109.2576199999999
 20
94.798734999999994
 30
0.0
  0
INSERT
  5
1ED
  8
0
  6
CONTINUOUS
 62
     3
  2
STDGX5
 10
1727.6964129999999
 20
87.295832999999988
 30
0.0
  0
INSERT
  5
1EE
  8
0
  6
CONTINUOUS
 62
     4
  2
STDGX5
 10
1727.6964129999999
 20
87.295832999999988
 30
0.0
  0
INSERT
  5
1EF
  8
81TEXT
  6
CONTINUOUS
  2
STDGX5
 10
1397.464633
 20
83.650464999999997
 30
0.0
  0
INSERT
  5
1F0
  8
81TEXT
  6
CONTINUOUS
  2
STDGX5
 10
1397.464633
 20
83.650464999999997
 30
0.0
  0
INSERT
  5
1F2
  8
81TEXT
  6
CONTINUOUS
  2
STDGX5
 10
1400.82855
 20
80.969183000000001
 30
0.0
  0
INSERT
  5
1F3
  8
81TEXT
  6
CONTINUOUS
  2
STDGX5
 10
1400.82855
 20
80.969183000000001
 30
0.0
  0
INSERT
  5
1F5
  8
81TEXT
  6
CONTINUOUS
  2
STDGX5
 10
1759.484076
 20
83.464637999999994
 30
0.0
  0
INSERT
  5
1F6
  8
81TEXT
  6
CONTINUOUS
  2
STDGX5
 10
1759.484076
 20
83.464637999999994
 30
0.0
  0
INSERT
  5
1F7
  8
81TEXT
  6
CONTINUOUS
  2
STDGX5
 10
1400.82855
 20
80.969183000000001
 30
0.0
  0
INSERT
  5
1F9
  8
81TEXT
  6
CONTINUOUS
  2
STDGX5
 10
1402.5899770000001
 20
88.833004000000017
 30
0.0
  0
INSERT
  5
1FB
  8
81TEXT
  6
CONTINUOUS
  2
STDGX5
 10
1393.890547
 20
76.358153999999999
 30
0.0
  0
INSERT
  5
1FC
  8
81TEXT
  6
CONTINUOUS
  2
STDGX5
 10
1393.890547
 20
76.358153999999999
 30
0.0
  0
INSERT
  5
1FE
  8
81TEXT
  6
CONTINUOUS
  2
STDGX5
 10
1730.0993989999999
 20
86.164208999999985
 30
0.0
  0
INSERT
  5
1FF
  8
81TEXT
  6
CONTINUOUS
  2
STDGX5
 10
1730.0993989999999
 20
86.164208999999985
 30
0.0
  0
INSERT
  5
201
  8
81TEXT
  6
CONTINUOUS
  2
STDGX5
 10
2088.7549250000002
 20
88.659665000000004
 30
0.0
  0
INSERT
  5
202
  8
81TEXT
  6
CONTINUOUS
  2
STDGX5
 10
2088.7549250000002
 20
88.659665000000004
 30
0.0
  0
INSERT
  5
204
  8
81TEXT
  6
CONTINUOUS
  2
STDGX5
 10
1733.164027
 20
92.027940000000001
 30
0.0
  0
INSERT
  5
205
  8
81TEXT
  6
CONTINUOUS
  2
STDGX5
 10
1733.164027
 20
92.027940000000001
 30
0.0
  0
INSERT
  5
207
  8
81TEXT
  6
CONTINUOUS
  2
STDGX5
 10
2091.8195529999998
 20
94.523394999999994
 30
0.0
  0
INSERT
  5
208
  8
81TEXT
  6
CONTINUOUS
  2
STDGX5
 10
2091.8195529999998
 20
94.523394999999994
 30
0.0
  0
INSERT
  5
209
  8
81TEXT
  6
CONTINUOUS
  2
STDGX5
 10
1733.164027
 20
92.027940000000001
 30
0.0
  0
INSERT
  5
20A
  8
0
  2
STDGX5
 10
1414.8486499999999
 20
106.770307
 30
0.0
 41
0.3
 42
0.3
 43
0.3
  0
INSERT
  5
20B
  8
0
  2
STDGX5
 10
1414.8486499999999
 20
106.770307
 30
0.0
 41
0.3
 42
0.3
 43
0.3
  0
INSERT
  5
20C
  8
0
  2
STDGX5
 10
1433.0351840000001
 20
120.270307
 30
0.0
 41
0.3
 42
0.3
 43
0.3
  0
INSERT
  5
20D
  8
0
  2
STDGX5
 10
1601.655651
 20
148.626743
 30
0.0
 41
0.3
 42
0.3
 43
0.3
  0
INSERT
  5
20E
  8
0
  2
STDGX5
 10
1569.284128
 20
178.50324699999999
 30
0.0
 41
0.3
 42
0.3
 43
0.3
  0
INSERT
  5
20F
  8
0
  2
STDGX5
 10
1569.284128
 20
178.50324699999999
 30
0.0
 41
0.3
 42
0.3
 43
0.3
  0
INSERT
  5
210
  8
0
  6
CONTINUOUS
 62
     3
  2
STDGX5
 10
1380.6957179999999
 20
78.465482999999992
 30
0.0
  0
INSERT
  5
211
  8
0
  6
CONTINUOUS
 62
     4
  2
STDGX5
 10
1380.6957179999999
 20
78.465482999999992
 30
0.0
  0
INSERT
  5
214
  8
0
  6
CONTINUOUS
 62
     4
  2
STDGX5
 10
719.85679400000004
 20
30.858754000000001
 30
0.0
  0
INSERT
  5
220
  8
81TEXT
  6
CONTINUOUS
  2
STDGX5
 10
719.85679400000004
 20
30.858754000000001
 30
0.0
  0
INSERT
  5
221
  8
0
  2
STDGX5
 10
1045.6692720000001
 20
45.664526000000002
 30
0.0
  0
INSERT
  5
222
  8
0
  2
STDGX5
 10
1045.6692720000001
 20
45.664526000000002
 30
0.0
  0
INSERT
  5
223
  8
0
  2
STDGX5
 10
1045.6692720000001
 20
45.664526000000002
 30
0.0
  0
INSERT
  5
225
  8
0
  6
CONTINUOUS
 62
     4
  2
STDGX5
 10
1056.1460729999999
 20
50.284377999999997
 30
0.0
  0
INSERT
  5
227
  8
81TEXT
  6
CONTINUOUS
  2
STDGX5
 10
719.85679400000004
 20
30.858754000000001
 30
0.0
  0
INSERT
  5
228
  8
81TEXT
  6
CONTINUOUS
  2
STDGX5
 10
719.85679400000004
 20
30.858754000000001
 30
0.0
  0
INSERT
  5
229
  8
81TEXT
  6
CONTINUOUS
  2
STDGX5
 10
719.85679400000004
 20
30.858754000000001
 30
0.0
  0
INSERT
  5
230
  8
0
  2
STDGX5
 10
1051.244318
 20
61.375689999999999
 30
0.0
  0
INSERT
  5
231
  8
0
  2
STDGX5
 10
1051.244318
 20
61.375689999999999
 30
0.0
  0
INSERT
  5
232
  8
0
  2
STDGX5
 10
1048.9505549999999
 20
57.920731999999987
 30
0.0
  0
INSERT
  5
233
  8
0
  2
STDGX5
 10
1048.9505549999999
 20
57.920731999999987
 30
0.0
  0
INSERT
  5
234
  8
0
  2
STDGX5
 10
1048.93688
 20
56.392081000000012
 30
0.0
 41
0.5
 42
0.5
 43
0.5
  0
INSERT
  5
235
  8
0
  2
STDGX5
 10
1048.93688
 20
56.392081000000012
 30
0.0
 41
0.5
 42
0.5
 43
0.5
  0
INSERT
  5
236
  8
0
  2
STDGX5
 10
1040.528106
 20
49.634210000000003
 30
0.0
 41
0.5
 42
0.5
 43
0.5
  0
INSERT
  5
237
  8
0
  2
STDGX5
 10
1040.528106
 20
49.634210000000003
 30
0.0
 41
0.5
 42
0.5
 43
0.5
  0
INSERT
  5
238
  8
0
  2
STDGX5
 10
1138.5715299999999
 20
56.563229000000007
 30
0.0
 41
0.5
 42
0.5
 43
0.5
  0
INSERT
  5
239
  8
0
  2
STDGX5
 10
1138.5715299999999
 20
56.563229000000007
 30
0.0
 41
0.5
 42
0.5
 43
0.5
  0
INSERT
  5
23A
  8
0
  2
STDGX5
 10
1278.8194450000001
 20
62.185864000000002
 30
0.0
 41
0.5
 42
0.5
 43
0.5
  0
INSERT
  5
23B
  8
0
  2
STDGX5
 10
1278.8194450000001
 20
62.185864000000002
 30
0.0
 41
0.5
 42
0.5
 43
0.5
  0
INSERT
  5
23C
  8
0
  2
STDGX5
 10
1278.8194450000001
 20
61.163081000000012
 30
0.0
 41
0.5
 42
0.5
 43
0.5
  0
INSERT
  5
23D
  8
0
  2
STDGX5
 10
1278.8194450000001
 20
61.163081000000012
 30
0.0
 41
0.5
 42
0.5
 43
0.5
  0
INSERT
  5
23E
  8
0
  2
STDGX5
 10
1279.553445
 20
65.252806000000007
 30
0.0
 41
0.5
 42
0.5
 43
0.5
  0
INSERT
  5
23F
  8
0
  2
STDGX5
 10
1279.553445
 20
65.252806000000007
 30
0.0
 41
0.5
 42
0.5
 43
0.5
  0
INSERT
  5
240
  8
0
  2
STDGX5
 10
861.82427700000005
 20
77.127600000000001
 30
0.0
  0
INSERT
  5
241
  8
0
  2
STDGX5
 10
861.82427700000005
 20
77.127600000000001
 30
0.0
  0
INSERT
  5
242
  8
0
  2
STDGX5
 10
861.82427700000005
 20
77.127600000000001
 30
0.0
  0
INSERT
  5
243
  8
0
  2
STDGX5
 10
861.82427700000005
 20
77.127600000000001
 30
0.0
  0
INSERT
  5
244
  8
0
  2
STDGX5
 10
861.82427700000005
 20
77.127600000000001
 30
0.0
  0
INSERT
  5
245
  8
0
  2
STDGX5
 10
861.82427700000005
 20
77.127600000000001
 30
0.0
  0
INSERT
  5
248
  8
0
  6
CONTINUOUS
 62
     4
  2
STDGX5
 10
1053.9306819999999
 20
49.477902
 30
0.0
  0
INSERT
  5
254
  8
81TEXT
  6
CONTINUOUS
  2
STDGX5
 10
1053.9306819999999
 20
49.477902
 30
0.0
  0
INSERT
  5
255
  8
0
  2
STDGX5
 10
1379.74316
 20
64.283674000000005
 30
0.0
  0
INSERT
  5
256
  8
0
  2
STDGX5
 10
1379.74316
 20
64.283674000000005
 30
0.0
  0
INSERT
  5
257
  8
0
  2
STDGX5
 10
1379.74316
 20
64.283674000000005
 30
0.0
  0
INSERT
  5
259
  8
0
  6
CONTINUOUS
 62
     4
  2
STDGX5
 10
1390.219961
 20
68.903525999999985
 30
0.0
  0
INSERT
  5
25B
  8
81TEXT
  6
CONTINUOUS
  2
STDGX5
 10
1053.9306819999999
 20
49.477902
 30
0.0
  0
INSERT
  5
25C
  8
81TEXT
  6
CONTINUOUS
  2
STDGX5
 10
1053.9306819999999
 20
49.477902
 30
0.0
  0
INSERT
  5
25D
  8
81TEXT
  6
CONTINUOUS
  2
STDGX5
 10
1053.9306819999999
 20
49.477902
 30
0.0
  0
INSERT
  5
260
  8
0
  6
CONTINUOUS
 62
     4
  2
STDGX5
 10
1050.8540399999999
 20
44.100986999999989
 30
0.0
  0
INSERT
  5
26C
  8
81TEXT
  6
CONTINUOUS
  2
STDGX5
 10
1050.8540399999999
 20
44.100986999999989
 30
0.0
  0
INSERT
  5
26D
  8
0
  2
STDGX5
 10
1376.666518
 20
58.906758000000004
 30
0.0
  0
INSERT
  5
26E
  8
0
  2
STDGX5
 10
1376.666518
 20
58.906758000000004
 30
0.0
  0
INSERT
  5
26F
  8
0
  2
STDGX5
 10
1376.666518
 20
58.906758000000004
 30
0.0
  0
INSERT
  5
271
  8
0
  6
CONTINUOUS
 62
     4
  2
STDGX5
 10
1387.143319
 20
63.526610999999988
 30
0.0
  0
INSERT
  5
273
  8
81TEXT
  6
CONTINUOUS
  2
STDGX5
 10
1050.8540399999999
 20
44.100986999999989
 30
0.0
  0
INSERT
  5
274
  8
81TEXT
  6
CONTINUOUS
  2
STDGX5
 10
1050.8540399999999
 20
44.100986999999989
 30
0.0
  0
INSERT
  5
275
  8
81TEXT
  6
CONTINUOUS
  2
STDGX5
 10
1050.8540399999999
 20
44.100986999999989
 30
0.0
  0
INSERT
  5
277
  8
81TEXT
  6
CONTINUOUS
  2
STDGX5
 10
1053.161521
 20
51.780287999999992
 30
0.0
  0
INSERT
  5
278
  8
81TEXT
  6
CONTINUOUS
  2
STDGX5
 10
1053.161521
 20
51.780287999999992
 30
0.0
  0
INSERT
  5
279
  8
0
  6
CONTINUOUS
 62
     3
  2
STDGX5
 10
1393.2115120000001
 20
54.280146999999999
 30
0.0
  0
INSERT
  5
27A
  8
0
  6
CONTINUOUS
 62
     4
  2
STDGX5
 10
1393.2115120000001
 20
54.280146999999999
 30
0.0
  0
INSERT
  5
27B
  8
0
  6
CONTINUOUS
 62
     3
  2
STDGX5
 10
1420.170615
 20
76.959457999999998
 30
0.0
  0
INSERT
  5
27C
  8
0
  6
CONTINUOUS
 62
     4
  2
STDGX5
 10
1420.170615
 20
76.959457999999998
 30
0.0
  0
INSERT
  5
27E
  8
81TEXT
  6
CONTINUOUS
  2
STDGX5
 10
1392.2455460000001
 20
69.622381000000004
 30
0.0
  0
INSERT
  5
27F
  8
81TEXT
  6
CONTINUOUS
  2
STDGX5
 10
1392.2455460000001
 20
69.622381000000004
 30
0.0
  0
INSERT
  5
281
  8
81TEXT
  6
CONTINUOUS
  2
STDGX5
 10
1728.4543980000001
 20
79.428436000000005
 30
0.0
  0
INSERT
  5
282
  8
81TEXT
  6
CONTINUOUS
  2
STDGX5
 10
1728.4543980000001
 20
79.428436000000005
 30
0.0
  0
INSERT
  5
284
  8
81TEXT
  6
CONTINUOUS
  2
STDGX5
 10
2087.1099239999999
 20
81.923890999999983
 30
0.0
  0
INSERT
  5
285
  8
81TEXT
  6
CONTINUOUS
  2
STDGX5
 10
2087.1099239999999
 20
81.923890999999983
 30
0.0
  0
INSERT
  5
287
  8
81TEXT
  6
CONTINUOUS
  2
STDGX5
 10
1731.5190259999999
 20
85.292166000000009
 30
0.0
  0
INSERT
  5
288
  8
81TEXT
  6
CONTINUOUS
  2
STDGX5
 10
1731.5190259999999
 20
85.292166000000009
 30
0.0
  0
INSERT
  5
28A
  8
81TEXT
  6
CONTINUOUS
  2
STDGX5
 10
2090.1745519999999
 20
87.787620999999987
 30
0.0
  0
INSERT
  5
28B
  8
81TEXT
  6
CONTINUOUS
  2
STDGX5
 10
2090.1745519999999
 20
87.787620999999987
 30
0.0
  0
INSERT
  5
28C
  8
81TEXT
  6
CONTINUOUS
  2
STDGX5
 10
1731.5190259999999
 20
85.292166000000009
 30
0.0
  0
INSERT
  5
28E
  8
81TEXT
  6
CONTINUOUS
  2
STDGX5
 10
1393.2475589999999
 20
67.519046000000003
 30
0.0
  0
INSERT
  5
28F
  8
81TEXT
  6
CONTINUOUS
  2
STDGX5
 10
1393.2475589999999
 20
67.519046000000003
 30
0.0
  0
INSERT
  5
291
  8
81TEXT
  6
CONTINUOUS
  2
STDGX5
 10
1746.3850210000001
 20
76.171860999999993
 30
0.0
  0
INSERT
  5
292
  8
81TEXT
  6
CONTINUOUS
  2
STDGX5
 10
1746.3850210000001
 20
76.171860999999993
 30
0.0
  0
INSERT
  5
294
  8
81TEXT
  6
CONTINUOUS
  2
STDGX5
 10
2105.0405470000001
 20
78.667316
 30
0.0
  0
INSERT
  5
295
  8
81TEXT
  6
CONTINUOUS
  2
STDGX5
 10
2105.0405470000001
 20
78.667316
 30
0.0
  0
INSERT
  5
296
  8
0
  6
CONTINUOUS
 62
     3
  2
STDGX5
 10
1723.4793400000001
 20
71.164414000000008
 30
0.0
  0
INSERT
  5
297
  8
0
  6
CONTINUOUS
 62
     4
  2
STDGX5
 10
1723.4793400000001
 20
71.164414000000008
 30
0.0
  0
INSERT
  5
298
  8
81TEXT
  6
CONTINUOUS
  2
STDGX5
 10
1393.2475589999999
 20
67.519046000000003
 30
0.0
  0
INSERT
  5
299
  8
81TEXT
  6
CONTINUOUS
  2
STDGX5
 10
1393.2475589999999
 20
67.519046000000003
 30
0.0
  0
INSERT
  5
29B
  8
81TEXT
  6
CONTINUOUS
  2
STDGX5
 10
1396.6114769999999
 20
64.837764000000007
 30
0.0
  0
INSERT
  5
29C
  8
81TEXT
  6
CONTINUOUS
  2
STDGX5
 10
1396.6114769999999
 20
64.837764000000007
 30
0.0
  0
INSERT
  5
29E
  8
81TEXT
  6
CONTINUOUS
  2
STDGX5
 10
1755.267002
 20
67.333218999999985
 30
0.0
  0
INSERT
  5
29F
  8
81TEXT
  6
CONTINUOUS
  2
STDGX5
 10
1755.267002
 20
67.333218999999985
 30
0.0
  0
INSERT
  5
2A0
  8
81TEXT
  6
CONTINUOUS
  2
STDGX5
 10
1396.6114769999999
 20
64.837764000000007
 30
0.0
  0
INSERT
  5
2A2
  8
81TEXT
  6
CONTINUOUS
  2
STDGX5
 10
1398.3729040000001
 20
72.701584999999994
 30
0.0
  0
INSERT
  5
2A4
  8
81TEXT
  6
CONTINUOUS
  2
STDGX5
 10
1389.6734739999999
 20
60.226734999999991
 30
0.0
  0
INSERT
  5
2A5
  8
81TEXT
  6
CONTINUOUS
  2
STDGX5
 10
1389.6734739999999
 20
60.226734999999991
 30
0.0
  0
INSERT
  5
2A7
  8
81TEXT
  6
CONTINUOUS
  2
STDGX5
 10
1725.8823259999999
 20
70.032790000000006
 30
0.0
  0
INSERT
  5
2A8
  8
81TEXT
  6
CONTINUOUS
  2
STDGX5
 10
1725.8823259999999
 20
70.032790000000006
 30
0.0
  0
INSERT
  5
2AA
  8
81TEXT
  6
CONTINUOUS
  2
STDGX5
 10
2084.5378519999999
 20
72.528245999999996
 30
0.0
  0
INSERT
  5
2AB
  8
81TEXT
  6
CONTINUOUS
  2
STDGX5
 10
2084.5378519999999
 20
72.528245999999996
 30
0.0
  0
INSERT
  5
2AD
  8
81TEXT
  6
CONTINUOUS
  2
STDGX5
 10
1728.946954
 20
75.896520999999993
 30
0.0
  0
INSERT
  5
2AE
  8
81TEXT
  6
CONTINUOUS
  2
STDGX5
 10
1728.946954
 20
75.896520999999993
 30
0.0
  0
INSERT
  5
2B0
  8
81TEXT
  6
CONTINUOUS
  2
STDGX5
 10
2087.60248
 20
78.391976
 30
0.0
  0
INSERT
  5
2B1
  8
81TEXT
  6
CONTINUOUS
  2
STDGX5
 10
2087.60248
 20
78.391976
 30
0.0
  0
INSERT
  5
2B2
  8
81TEXT
  6
CONTINUOUS
  2
STDGX5
 10
1728.946954
 20
75.896520999999993
 30
0.0
  0
INSERT
  5
2B3
  8
0
  2
STDGX5
 10
1410.6315770000001
 20
90.638887999999994
 30
0.0
 41
0.3
 42
0.3
 43
0.3
  0
INSERT
  5
2B4
  8
0
  2
STDGX5
 10
1410.6315770000001
 20
90.638887999999994
 30
0.0
 41
0.3
 42
0.3
 43
0.3
  0
INSERT
  5
2B5
  8
0
  2
STDGX5
 10
1428.8181099999999
 20
104.13888799999999
 30
0.0
 41
0.3
 42
0.3
 43
0.3
  0
INSERT
  5
2B6
  8
0
  2
STDGX5
 10
1597.4385769999999
 20
132.49532400000001
 30
0.0
 41
0.3
 42
0.3
 43
0.3
  0
INSERT
  5
2B7
  8
0
  2
STDGX5
 10
1565.067055
 20
162.37182899999999
 30
0.0
 41
0.3
 42
0.3
 43
0.3
  0
INSERT
  5
2B8
  8
0
  2
STDGX5
 10
1565.067055
 20
162.37182899999999
 30
0.0
 41
0.3
 42
0.3
 43
0.3
  0
INSERT
  5
2B9
  8
0
  6
CONTINUOUS
 62
     3
  2
STDGX5
 10
1376.478644
 20
62.334063999999991
 30
0.0
  0
INSERT
  5
2BA
  8
0
  6
CONTINUOUS
 62
     4
  2
STDGX5
 10
1376.478644
 20
62.334063999999991
 30
0.0
  0
INSERT
  5
2BD
  8
0
  6
CONTINUOUS
 62
     4
  2
STDGX5
 10
1048.93688
 20
49.091830999999992
 30
0.0
  0
INSERT
  5
2C9
  8
81TEXT
  6
CONTINUOUS
  2
STDGX5
 10
1048.93688
 20
49.091830999999992
 30
0.0
  0
INSERT
  5
2CA
  8
0
  2
STDGX5
 10
1374.7493569999999
 20
63.897602999999997
 30
0.0
  0
INSERT
  5
2CB
  8
0
  2
STDGX5
 10
1374.7493569999999
 20
63.897602999999997
 30
0.0
  0
INSERT
  5
2CC
  8
0
  2
STDGX5
 10
1374.7493569999999
 20
63.897602999999997
 30
0.0
  0
INSERT
  5
2CE
  8
0
  6
CONTINUOUS
 62
     4
  2
STDGX5
 10
1385.2261590000001
 20
68.517454999999984
 30
0.0
  0
INSERT
  5
2D0
  8
81TEXT
  6
CONTINUOUS
  2
STDGX5
 10
1048.93688
 20
49.091830999999992
 30
0.0
  0
INSERT
  5
2D1
  8
81TEXT
  6
CONTINUOUS
  2
STDGX5
 10
1048.93688
 20
49.091830999999992
 30
0.0
  0
INSERT
  5
2D2
  8
81TEXT
  6
CONTINUOUS
  2
STDGX5
 10
1048.93688
 20
49.091830999999992
 30
0.0
  0
INSERT
  5
2D9
  8
0
  2
STDGX5
 10
1380.324404
 20
79.608767
 30
0.0
  0
INSERT
  5
2DA
  8
0
  2
STDGX5
 10
1380.324404
 20
79.608767
 30
0.0
  0
INSERT
  5
2DB
  8
0
  2
STDGX5
 10
1378.0306399999999
 20
76.153808999999995
 30
0.0
  0
INSERT
  5
2DC
  8
0
  2
STDGX5
 10
1378.0306399999999
 20
76.153808999999995
 30
0.0
  0
INSERT
  5
2DD
  8
0
  2
STDGX5
 10
1378.016965
 20
74.625157999999999
 30
0.0
 41
0.5
 42
0.5
 43
0.5
  0
INSERT
  5
2DE
  8
0
  2
STDGX5
 10
1378.016965
 20
74.625157999999999
 30
0.0
 41
0.5
 42
0.5
 43
0.5
  0
INSERT
  5
2DF
  8
0
  2
STDGX5
 10
1369.608191
 20
67.867287000000005
 30
0.0
 41
0.5
 42
0.5
 43
0.5
  0
INSERT
  5
2E0
  8
0
  2
STDGX5
 10
1369.608191
 20
67.867287000000005
 30
0.0
 41
0.5
 42
0.5
 43
0.5
  0
INSERT
  5
2E1
  8
0
  2
STDGX5
 10
1467.651615
 20
74.796306000000001
 30
0.0
 41
0.5
 42
0.5
 43
0.5
  0
INSERT
  5
2E2
  8
0
  2
STDGX5
 10
1467.651615
 20
74.796306000000001
 30
0.0
 41
0.5
 42
0.5
 43
0.5
  0
INSERT
  5
2E3
  8
0
  2
STDGX5
 10
1607.8995299999999
 20
80.418941000000004
 30
0.0
 41
0.5
 42
0.5
 43
0.5
  0
INSERT
  5
2E4
  8
0
  2
STDGX5
 10
1607.8995299999999
 20
80.418941000000004
 30
0.0
 41
0.5
 42
0.5
 43
0.5
  0
INSERT
  5
2E5
  8
0
  2
STDGX5
 10
1607.8995299999999
 20
79.396158
 30
0.0
 41
0.5
 42
0.5
 43
0.5
  0
INSERT
  5
2E6
  8
0
  2
STDGX5
 10
1607.8995299999999
 20
79.396158
 30
0.0
 41
0.5
 42
0.5
 43
0.5
  0
INSERT
  5
2E7
  8
0
  2
STDGX5
 10
1608.6335309999999
 20
83.485883000000015
 30
0.0
 41
0.5
 42
0.5
 43
0.5
  0
INSERT
  5
2E8
  8
0
  2
STDGX5
 10
1608.6335309999999
 20
83.485883000000015
 30
0.0
 41
0.5
 42
0.5
 43
0.5
  0
INSERT
  5
2E9
  8
0
  2
STDGX5
 10
1190.904362
 20
95.360676999999995
 30
0.0
  0
INSERT
  5
2EA
  8
0
  2
STDGX5
 10
1190.904362
 20
95.360676999999995
 30
0.0
  0
INSERT
  5
2EB
  8
0
  2
STDGX5
 10
1190.904362
 20
95.360676999999995
 30
0.0
  0
INSERT
  5
2EC
  8
0
  2
STDGX5
 10
1190.904362
 20
95.360676999999995
 30
0.0
  0
INSERT
  5
2ED
  8
0
  2
STDGX5
 10
1190.904362
 20
95.360676999999995
 30
0.0
  0
INSERT
  5
2EE
  8
0
  2
STDGX5
 10
1190.904362
 20
95.360676999999995
 30
0.0
  0
INSERT
  5
2F1
  8
0
  6
CONTINUOUS
 62
     4
  2
STDGX5
 10
1383.010767
 20
67.710978999999995
 30
0.0
  0
INSERT
  5
2FD
  8
81TEXT
  6
CONTINUOUS
  2
STDGX5
 10
1383.010767
 20
67.710978999999995
 30
0.0
  0
INSERT
  5
2FE
  8
0
  2
STDGX5
 10
1708.823245
 20
82.516750000000002
 30
0.0
  0
INSERT
  5
2FF
  8
0
  2
STDGX5
 10
1708.823245
 20
82.516750000000002
 30
0.0
  0
INSERT
  5
300
  8
0
  2
STDGX5
 10
1708.823245
 20
82.516750000000002
 30
0.0
  0
INSERT
  5
302
  8
0
  6
CONTINUOUS
 62
     4
  2
STDGX5
 10
1719.3000460000001
 20
87.136602999999994
 30
0.0
  0
INSERT
  5
304
  8
81TEXT
  6
CONTINUOUS
  2
STDGX5
 10
1383.010767
 20
67.710978999999995
 30
0.0
  0
INSERT
  5
305
  8
81TEXT
  6
CONTINUOUS
  2
STDGX5
 10
1383.010767
 20
67.710978999999995
 30
0.0
  0
INSERT
  5
306
  8
81TEXT
  6
CONTINUOUS
  2
STDGX5
 10
1383.010767
 20
67.710978999999995
 30
0.0
  0
INSERT
  5
309
  8
0
  6
CONTINUOUS
 62
     4
  2
STDGX5
 10
1379.9341260000001
 20
62.334063999999991
 30
0.0
  0
INSERT
  5
315
  8
81TEXT
  6
CONTINUOUS
  2
STDGX5
 10
1379.9341260000001
 20
62.334063999999991
 30
0.0
  0
INSERT
  5
316
  8
0
  2
STDGX5
 10
1705.7466039999999
 20
77.139834999999991
 30
0.0
  0
INSERT
  5
317
  8
0
  2
STDGX5
 10
1705.7466039999999
 20
77.139834999999991
 30
0.0
  0
INSERT
  5
318
  8
0
  2
STDGX5
 10
1705.7466039999999
 20
77.139834999999991
 30
0.0
  0
INSERT
  5
31A
  8
0
  6
CONTINUOUS
 62
     4
  2
STDGX5
 10
1716.223405
 20
81.759687999999997
 30
0.0
  0
INSERT
  5
31C
  8
81TEXT
  6
CONTINUOUS
  2
STDGX5
 10
1379.9341260000001
 20
62.334063999999991
 30
0.0
  0
INSERT
  5
31D
  8
81TEXT
  6
CONTINUOUS
  2
STDGX5
 10
1379.9341260000001
 20
62.334063999999991
 30
0.0
  0
INSERT
  5
31E
  8
81TEXT
  6
CONTINUOUS
  2
STDGX5
 10
1379.9341260000001
 20
62.334063999999991
 30
0.0
  0
INSERT
  5
320
  8
81TEXT
  6
CONTINUOUS
  2
STDGX5
 10
1382.2416069999999
 20
70.013364999999993
 30
0.0
  0
INSERT
  5
321
  8
81TEXT
  6
CONTINUOUS
  2
STDGX5
 10
1382.2416069999999
 20
70.013364999999993
 30
0.0
  0
INSERT
  5
322
  8
0
  6
CONTINUOUS
 62
     3
  2
STDGX5
 10
1722.2915969999999
 20
72.513223999999994
 30
0.0
  0
INSERT
  5
323
  8
0
  6
CONTINUOUS
 62
     4
  2
STDGX5
 10
1722.2915969999999
 20
72.513223999999994
 30
0.0
  0
INSERT
  5
324
  8
0
  6
CONTINUOUS
 62
     3
  2
STDGX5
 10
1749.2507000000001
 20
95.192534999999992
 30
0.0
  0
INSERT
  5
325
  8
0
  6
CONTINUOUS
 62
     4
  2
STDGX5
 10
1749.2507000000001
 20
95.192534999999992
 30
0.0
  0
INSERT
  5
327
  8
81TEXT
  6
CONTINUOUS
  2
STDGX5
 10
1721.3256309999999
 20
87.855457999999985
 30
0.0
  0
INSERT
  5
328
  8
81TEXT
  6
CONTINUOUS
  2
STDGX5
 10
1721.3256309999999
 20
87.855457999999985
 30
0.0
  0
INSERT
  5
32A
  8
81TEXT
  6
CONTINUOUS
  2
STDGX5
 10
2057.5344829999999
 20
97.661512999999999
 30
0.0
  0
INSERT
  5
32B
  8
81TEXT
  6
CONTINUOUS
  2
STDGX5
 10
2057.5344829999999
 20
97.661512999999999
 30
0.0
  0
INSERT
  5
32D
  8
81TEXT
  6
CONTINUOUS
  2
STDGX5
 10
2416.1900089999999
 20
100.15696800000001
 30
0.0
  0
INSERT
  5
32E
  8
81TEXT
  6
CONTINUOUS
  2
STDGX5
 10
2416.1900089999999
 20
100.15696800000001
 30
0.0
  0
INSERT
  5
330
  8
81TEXT
  6
CONTINUOUS
  2
STDGX5
 10
2060.599111
 20
103.525243
 30
0.0
  0
INSERT
  5
331
  8
81TEXT
  6
CONTINUOUS
  2
STDGX5
 10
2060.599111
 20
103.525243
 30
0.0
  0
INSERT
  5
333
  8
81TEXT
  6
CONTINUOUS
  2
STDGX5
 10
2419.254637
 20
106.020698
 30
0.0
  0
INSERT
  5
334
  8
81TEXT
  6
CONTINUOUS
  2
STDGX5
 10
2419.254637
 20
106.020698
 30
0.0
  0
INSERT
  5
335
  8
81TEXT
  6
CONTINUOUS
  2
STDGX5
 10
2060.599111
 20
103.525243
 30
0.0
  0
INSERT
  5
337
  8
81TEXT
  6
CONTINUOUS
  2
STDGX5
 10
1722.3276450000001
 20
85.752122999999997
 30
0.0
  0
INSERT
  5
338
  8
81TEXT
  6
CONTINUOUS
  2
STDGX5
 10
1722.3276450000001
 20
85.752122999999997
 30
0.0
  0
INSERT
  5
33A
  8
81TEXT
  6
CONTINUOUS
  2
STDGX5
 10
2075.4651060000001
 20
94.404938000000001
 30
0.0
  0
INSERT
  5
33B
  8
81TEXT
  6
CONTINUOUS
  2
STDGX5
 10
2075.4651060000001
 20
94.404938000000001
 30
0.0
  0
INSERT
  5
33D
  8
81TEXT
  6
CONTINUOUS
  2
STDGX5
 10
2434.1206320000001
 20
96.900393000000022
 30
0.0
  0
INSERT
  5
33E
  8
81TEXT
  6
CONTINUOUS
  2
STDGX5
 10
2434.1206320000001
 20
96.900393000000022
 30
0.0
  0
INSERT
  5
33F
  8
0
  6
CONTINUOUS
 62
     3
  2
STDGX5
 10
2052.5594249999999
 20
89.397491000000002
 30
0.0
  0
INSERT
  5
340
  8
0
  6
CONTINUOUS
 62
     4
  2
STDGX5
 10
2052.5594249999999
 20
89.397491000000002
 30
0.0
  0
INSERT
  5
341
  8
81TEXT
  6
CONTINUOUS
  2
STDGX5
 10
1722.3276450000001
 20
85.752122999999997
 30
0.0
  0
INSERT
  5
342
  8
81TEXT
  6
CONTINUOUS
  2
STDGX5
 10
1722.3276450000001
 20
85.752122999999997
 30
0.0
  0
INSERT
  5
344
  8
81TEXT
  6
CONTINUOUS
  2
STDGX5
 10
1725.691562
 20
83.070841000000001
 30
0.0
  0
INSERT
  5
345
  8
81TEXT
  6
CONTINUOUS
  2
STDGX5
 10
1725.691562
 20
83.070841000000001
 30
0.0
  0
INSERT
  5
347
  8
81TEXT
  6
CONTINUOUS
  2
STDGX5
 10
2084.347088
 20
85.566295999999994
 30
0.0
  0
INSERT
  5
348
  8
81TEXT
  6
CONTINUOUS
  2
STDGX5
 10
2084.347088
 20
85.566295999999994
 30
0.0
  0
INSERT
  5
349
  8
81TEXT
  6
CONTINUOUS
  2
STDGX5
 10
1725.691562
 20
83.070841000000001
 30
0.0
  0
INSERT
  5
34B
  8
81TEXT
  6
CONTINUOUS
  2
STDGX5
 10
1727.4529889999999
 20
90.934661999999989
 30
0.0
  0
INSERT
  5
34D
  8
81TEXT
  6
CONTINUOUS
  2
STDGX5
 10
1718.753559
 20
78.459811999999999
 30
0.0
  0
INSERT
  5
34E
  8
81TEXT
  6
CONTINUOUS
  2
STDGX5
 10
1718.753559
 20
78.459811999999999
 30
0.0
  0
INSERT
  5
350
  8
81TEXT
  6
CONTINUOUS
  2
STDGX5
 10
2054.962411
 20
88.265867
 30
0.0
  0
INSERT
  5
351
  8
81TEXT
  6
CONTINUOUS
  2
STDGX5
 10
2054.962411
 20
88.265867
 30
0.0
  0
INSERT
  5
353
  8
81TEXT
  6
CONTINUOUS
  2
STDGX5
 10
2413.617937
 20
90.761323000000004
 30
0.0
  0
INSERT
  5
354
  8
81TEXT
  6
CONTINUOUS
  2
STDGX5
 10
2413.617937
 20
90.761323000000004
 30
0.0
  0
INSERT
  5
356
  8
81TEXT
  6
CONTINUOUS
  2
STDGX5
 10
2058.0270390000001
 20
94.129598000000016
 30
0.0
  0
INSERT
  5
357
  8
81TEXT
  6
CONTINUOUS
  2
STDGX5
 10
2058.0270390000001
 20
94.129598000000016
 30
0.0
  0
INSERT
  5
359
  8
81TEXT
  6
CONTINUOUS
  2
STDGX5
 10
2416.6825650000001
 20
96.625053000000008
 30
0.0
  0
INSERT
  5
35A
  8
81TEXT
  6
CONTINUOUS
  2
STDGX5
 10
2416.6825650000001
 20
96.625053000000008
 30
0.0
  0
INSERT
  5
35B
  8
81TEXT
  6
CONTINUOUS
  2
STDGX5
 10
2058.0270390000001
 20
94.129598000000016
 30
0.0
  0
INSERT
  5
35C
  8
0
  2
STDGX5
 10
1739.7116619999999
 20
108.871965
 30
0.0
 41
0.3
 42
0.3
 43
0.3
  0
INSERT
  5
35D
  8
0
  2
STDGX5
 10
1739.7116619999999
 20
108.871965
 30
0.0
 41
0.3
 42
0.3
 43
0.3
  0
INSERT
  5
35E
  8
0
  2
STDGX5
 10
1757.898195
 20
122.371965
 30
0.0
 41
0.3
 42
0.3
 43
0.3
  0
INSERT
  5
35F
  8
0
  2
STDGX5
 10
1926.5186619999999
 20
150.72840099999999
 30
0.0
 41
0.3
 42
0.3
 43
0.3
  0
INSERT
  5
360
  8
0
  2
STDGX5
 10
1894.14714
 20
180.604906
 30
0.0
 41
0.3
 42
0.3
 43
0.3
  0
INSERT
  5
361
  8
0
  2
STDGX5
 10
1894.14714
 20
180.604906
 30
0.0
 41
0.3
 42
0.3
 43
0.3
  0
INSERT
  5
362
  8
0
  6
CONTINUOUS
 62
     3
  2
STDGX5
 10
1705.55873
 20
80.567141000000007
 30
0.0
  0
INSERT
  5
363
  8
0
  6
CONTINUOUS
 62
     4
  2
STDGX5
 10
1705.55873
 20
80.567141000000007
 30
0.0
  0
INSERT
  5
366
  8
0
  6
CONTINUOUS
 62
     4
  2
STDGX5
 10
1055.0727039999999
 20
46.019942999999998
 30
0.0
  0
INSERT
  5
372
  8
81TEXT
  6
CONTINUOUS
  2
STDGX5
 10
1055.0727039999999
 20
46.019942999999998
 30
0.0
  0
INSERT
  5
373
  8
0
  2
STDGX5
 10
1380.885182
 20
60.825713999999998
 30
0.0
  0
INSERT
  5
374
  8
0
  2
STDGX5
 10
1380.885182
 20
60.825713999999998
 30
0.0
  0
INSERT
  5
375
  8
0
  2
STDGX5
 10
1380.885182
 20
60.825713999999998
 30
0.0
  0
INSERT
  5
377
  8
0
  6
CONTINUOUS
 62
     4
  2
STDGX5
 10
1391.361983
 20
65.445567000000011
 30
0.0
  0
INSERT
  5
379
  8
81TEXT
  6
CONTINUOUS
  2
STDGX5
 10
1055.0727039999999
 20
46.019942999999998
 30
0.0
  0
INSERT
  5
37A
  8
81TEXT
  6
CONTINUOUS
  2
STDGX5
 10
1055.0727039999999
 20
46.019942999999998
 30
0.0
  0
INSERT
  5
37B
  8
81TEXT
  6
CONTINUOUS
  2
STDGX5
 10
1055.0727039999999
 20
46.019942999999998
 30
0.0
  0
INSERT
  5
382
  8
0
  2
STDGX5
 10
1386.4602279999999
 20
76.536878000000002
 30
0.0
  0
INSERT
  5
383
  8
0
  2
STDGX5
 10
1386.4602279999999
 20
76.536878000000002
 30
0.0
  0
INSERT
  5
384
  8
0
  2
STDGX5
 10
1384.1664639999999
 20
73.081920999999994
 30
0.0
  0
INSERT
  5
385
  8
0
  2
STDGX5
 10
1384.1664639999999
 20
73.081920999999994
 30
0.0
  0
INSERT
  5
386
  8
0
  2
STDGX5
 10
1384.152789
 20
71.553269999999983
 30
0.0
 41
0.5
 42
0.5
 43
0.5
  0
INSERT
  5
387
  8
0
  2
STDGX5
 10
1384.152789
 20
71.553269999999983
 30
0.0
 41
0.5
 42
0.5
 43
0.5
  0
INSERT
  5
388
  8
0
  2
STDGX5
 10
1375.7440160000001
 20
64.795397999999992
 30
0.0
 41
0.5
 42
0.5
 43
0.5
  0
INSERT
  5
389
  8
0
  2
STDGX5
 10
1375.7440160000001
 20
64.795397999999992
 30
0.0
 41
0.5
 42
0.5
 43
0.5
  0
INSERT
  5
38A
  8
0
  2
STDGX5
 10
1473.7874389999999
 20
71.724418
 30
0.0
 41
0.5
 42
0.5
 43
0.5
  0
INSERT
  5
38B
  8
0
  2
STDGX5
 10
1473.7874389999999
 20
71.724418
 30
0.0
 41
0.5
 42
0.5
 43
0.5
  0
INSERT
  5
38C
  8
0
  2
STDGX5
 10
1614.0353540000001
 20
77.347053000000002
 30
0.0
 41
0.5
 42
0.5
 43
0.5
  0
INSERT
  5
38D
  8
0
  2
STDGX5
 10
1614.0353540000001
 20
77.347053000000002
 30
0.0
 41
0.5
 42
0.5
 43
0.5
  0
INSERT
  5
38E
  8
0
  2
STDGX5
 10
1614.0353540000001
 20
76.324269999999984
 30
0.0
 41
0.5
 42
0.5
 43
0.5
  0
INSERT
  5
38F
  8
0
  2
STDGX5
 10
1614.0353540000001
 20
76.324269999999984
 30
0.0
 41
0.5
 42
0.5
 43
0.5
  0
INSERT
  5
390
  8
0
  2
STDGX5
 10
1614.7693549999999
 20
80.413995
 30
0.0
 41
0.5
 42
0.5
 43
0.5
  0
INSERT
  5
391
  8
0
  2
STDGX5
 10
1614.7693549999999
 20
80.413995
 30
0.0
 41
0.5
 42
0.5
 43
0.5
  0
INSERT
  5
392
  8
0
  2
STDGX5
 10
1197.0401859999999
 20
92.288787999999997
 30
0.0
  0
INSERT
  5
393
  8
0
  2
STDGX5
 10
1197.0401859999999
 20
92.288787999999997
 30
0.0
  0
INSERT
  5
394
  8
0
  2
STDGX5
 10
1197.0401859999999
 20
92.288787999999997
 30
0.0
  0
INSERT
  5
395
  8
0
  2
STDGX5
 10
1197.0401859999999
 20
92.288787999999997
 30
0.0
  0
INSERT
  5
396
  8
0
  2
STDGX5
 10
1197.0401859999999
 20
92.288787999999997
 30
0.0
  0
INSERT
  5
397
  8
0
  2
STDGX5
 10
1197.0401859999999
 20
92.288787999999997
 30
0.0
  0
INSERT
  5
39A
  8
0
  6
CONTINUOUS
 62
     4
  2
STDGX5
 10
1389.1465909999999
 20
64.639089999999996
 30
0.0
  0
INSERT
  5
3A6
  8
81TEXT
  6
CONTINUOUS
  2
STDGX5
 10
1389.1465909999999
 20
64.639089999999996
 30
0.0
  0
INSERT
  5
3A7
  8
0
  2
STDGX5
 10
1714.959069
 20
79.444862000000001
 30
0.0
  0
INSERT
  5
3A8
  8
0
  2
STDGX5
 10
1714.959069
 20
79.444862000000001
 30
0.0
  0
INSERT
  5
3A9
  8
0
  2
STDGX5
 10
1714.959069
 20
79.444862000000001
 30
0.0
  0
INSERT
  5
3AB
  8
0
  6
CONTINUOUS
 62
     4
  2
STDGX5
 10
1725.43587
 20
84.064715000000007
 30
0.0
  0
INSERT
  5
3AD
  8
81TEXT
  6
CONTINUOUS
  2
STDGX5
 10
1389.1465909999999
 20
64.639089999999996
 30
0.0
  0
INSERT
  5
3AE
  8
81TEXT
  6
CONTINUOUS
  2
STDGX5
 10
1389.1465909999999
 20
64.639089999999996
 30
0.0
  0
INSERT
  5
3AF
  8
81TEXT
  6
CONTINUOUS
  2
STDGX5
 10
1389.1465909999999
 20
64.639089999999996
 30
0.0
  0
INSERT
  5
3B2
  8
0
  6
CONTINUOUS
 62
     4
  2
STDGX5
 10
1386.0699500000001
 20
59.262174999999992
 30
0.0
  0
INSERT
  5
3BE
  8
81TEXT
  6
CONTINUOUS
  2
STDGX5
 10
1386.0699500000001
 20
59.262174999999992
 30
0.0
  0
INSERT
  5
3BF
  8
0
  2
STDGX5
 10
1711.8824279999999
 20
74.067947000000004
 30
0.0
  0
INSERT
  5
3C0
  8
0
  2
STDGX5
 10
1711.8824279999999
 20
74.067947000000004
 30
0.0
  0
INSERT
  5
3C1
  8
0
  2
STDGX5
 10
1711.8824279999999
 20
74.067947000000004
 30
0.0
  0
INSERT
  5
3C3
  8
0
  6
CONTINUOUS
 62
     4
  2
STDGX5
 10
1722.3592289999999
 20
78.687798999999984
 30
0.0
  0
INSERT
  5
3C5
  8
81TEXT
  6
CONTINUOUS
  2
STDGX5
 10
1386.0699500000001
 20
59.262174999999992
 30
0.0
  0
INSERT
  5
3C6
  8
81TEXT
  6
CONTINUOUS
  2
STDGX5
 10
1386.0699500000001
 20
59.262174999999992
 30
0.0
  0
INSERT
  5
3C7
  8
81TEXT
  6
CONTINUOUS
  2
STDGX5
 10
1386.0699500000001
 20
59.262174999999992
 30
0.0
  0
INSERT
  5
3CA
  8
0
  6
CONTINUOUS
 62
     4
  2
STDGX5
 10
1384.5316290000001
 20
63.873968000000012
 30
0.0
  0
INSERT
  5
3D6
  8
81TEXT
  6
CONTINUOUS
  2
STDGX5
 10
1384.5316290000001
 20
63.873968000000012
 30
0.0
  0
INSERT
  5
3D7
  8
0
  2
STDGX5
 10
1710.3441069999999
 20
78.679739999999995
 30
0.0
  0
INSERT
  5
3D8
  8
0
  2
STDGX5
 10
1710.3441069999999
 20
78.679739999999995
 30
0.0
  0
INSERT
  5
3D9
  8
0
  2
STDGX5
 10
1710.3441069999999
 20
78.679739999999995
 30
0.0
  0
INSERT
  5
3DB
  8
0
  6
CONTINUOUS
 62
     4
  2
STDGX5
 10
1720.8209079999999
 20
83.299592000000004
 30
0.0
  0
INSERT
  5
3DD
  8
81TEXT
  6
CONTINUOUS
  2
STDGX5
 10
1384.5316290000001
 20
63.873968000000012
 30
0.0
  0
INSERT
  5
3DE
  8
81TEXT
  6
CONTINUOUS
  2
STDGX5
 10
1384.5316290000001
 20
63.873968000000012
 30
0.0
  0
INSERT
  5
3DF
  8
81TEXT
  6
CONTINUOUS
  2
STDGX5
 10
1384.5316290000001
 20
63.873968000000012
 30
0.0
  0
INSERT
  5
3E6
  8
0
  2
STDGX5
 10
1715.9191539999999
 20
94.390904000000006
 30
0.0
  0
INSERT
  5
3E7
  8
0
  2
STDGX5
 10
1715.9191539999999
 20
94.390904000000006
 30
0.0
  0
INSERT
  5
3E8
  8
0
  2
STDGX5
 10
1713.6253899999999
 20
90.935946999999999
 30
0.0
  0
INSERT
  5
3E9
  8
0
  2
STDGX5
 10
1713.6253899999999
 20
90.935946999999999
 30
0.0
  0
INSERT
  5
3EA
  8
0
  2
STDGX5
 10
1713.611715
 20
89.407294999999991
 30
0.0
 41
0.5
 42
0.5
 43
0.5
  0
INSERT
  5
3EB
  8
0
  2
STDGX5
 10
1713.611715
 20
89.407294999999991
 30
0.0
 41
0.5
 42
0.5
 43
0.5
  0
INSERT
  5
3EC
  8
0
  2
STDGX5
 10
1705.202941
 20
82.649423999999996
 30
0.0
 41
0.5
 42
0.5
 43
0.5
  0
INSERT
  5
3ED
  8
0
  2
STDGX5
 10
1705.202941
 20
82.649423999999996
 30
0.0
 41
0.5
 42
0.5
 43
0.5
  0
INSERT
  5
3EE
  8
0
  2
STDGX5
 10
1803.2463649999991
 20
89.578443000000007
 30
0.0
 41
0.5
 42
0.5
 43
0.5
  0
INSERT
  5
3EF
  8
0
  2
STDGX5
 10
1803.2463649999991
 20
89.578443000000007
 30
0.0
 41
0.5
 42
0.5
 43
0.5
  0
INSERT
  5
3F0
  8
0
  2
STDGX5
 10
1943.4942799999999
 20
95.20107800000001
 30
0.0
 41
0.5
 42
0.5
 43
0.5
  0
INSERT
  5
3F1
  8
0
  2
STDGX5
 10
1943.4942799999999
 20
95.20107800000001
 30
0.0
 41
0.5
 42
0.5
 43
0.5
  0
INSERT
  5
3F2
  8
0
  2
STDGX5
 10
1943.4942799999999
 20
94.178294999999991
 30
0.0
 41
0.5
 42
0.5
 43
0.5
  0
INSERT
  5
3F3
  8
0
  2
STDGX5
 10
1943.4942799999999
 20
94.178294999999991
 30
0.0
 41
0.5
 42
0.5
 43
0.5
  0
INSERT
  5
3F4
  8
0
  2
STDGX5
 10
1944.22828
 20
98.268020000000007
 30
0.0
 41
0.5
 42
0.5
 43
0.5
  0
INSERT
  5
3F5
  8
0
  2
STDGX5
 10
1944.22828
 20
98.268020000000007
 30
0.0
 41
0.5
 42
0.5
 43
0.5
  0
INSERT
  5
3F6
  8
0
  2
STDGX5
 10
1526.499112
 20
110.142814
 30
0.0
  0
INSERT
  5
3F7
  8
0
  2
STDGX5
 10
1526.499112
 20
110.142814
 30
0.0
  0
INSERT
  5
3F8
  8
0
  2
STDGX5
 10
1526.499112
 20
110.142814
 30
0.0
  0
INSERT
  5
3F9
  8
0
  2
STDGX5
 10
1526.499112
 20
110.142814
 30
0.0
  0
INSERT
  5
3FA
  8
0
  2
STDGX5
 10
1526.499112
 20
110.142814
 30
0.0
  0
INSERT
  5
3FB
  8
0
  2
STDGX5
 10
1526.499112
 20
110.142814
 30
0.0
  0
INSERT
  5
3FE
  8
0
  6
CONTINUOUS
 62
     4
  2
STDGX5
 10
1718.605517
 20
82.493116000000001
 30
0.0
  0
INSERT
  5
40A
  8
81TEXT
  6
CONTINUOUS
  2
STDGX5
 10
1718.605517
 20
82.493116000000001
 30
0.0
  0
INSERT
  5
40B
  8
0
  2
STDGX5
 10
2044.417995
 20
97.298888000000005
 30
0.0
  0
INSERT
  5
40C
  8
0
  2
STDGX5
 10
2044.417995
 20
97.298888000000005
 30
0.0
  0
INSERT
  5
40D
  8
0
  2
STDGX5
 10
2044.417995
 20
97.298888000000005
 30
0.0
  0
INSERT
  5
40F
  8
0
  6
CONTINUOUS
 62
     4
  2
STDGX5
 10
2054.894796
 20
101.91874
 30
0.0
  0
INSERT
  5
411
  8
81TEXT
  6
CONTINUOUS
  2
STDGX5
 10
1718.605517
 20
82.493116000000001
 30
0.0
  0
INSERT
  5
412
  8
81TEXT
  6
CONTINUOUS
  2
STDGX5
 10
1718.605517
 20
82.493116000000001
 30
0.0
  0
INSERT
  5
413
  8
81TEXT
  6
CONTINUOUS
  2
STDGX5
 10
1718.605517
 20
82.493116000000001
 30
0.0
  0
INSERT
  5
416
  8
0
  6
CONTINUOUS
 62
     4
  2
STDGX5
 10
1715.528875
 20
77.116201000000004
 30
0.0
  0
INSERT
  5
422
  8
81TEXT
  6
CONTINUOUS
  2
STDGX5
 10
1715.528875
 20
77.116201000000004
 30
0.0
  0
INSERT
  5
423
  8
0
  2
STDGX5
 10
2041.341353
 20
91.921972999999994
 30
0.0
  0
INSERT
  5
424
  8
0
  2
STDGX5
 10
2041.341353
 20
91.921972999999994
 30
0.0
  0
INSERT
  5
425
  8
0
  2
STDGX5
 10
2041.341353
 20
91.921972999999994
 30
0.0
  0
INSERT
  5
427
  8
0
  6
CONTINUOUS
 62
     4
  2
STDGX5
 10
2051.818154
 20
96.541825000000003
 30
0.0
  0
INSERT
  5
429
  8
81TEXT
  6
CONTINUOUS
  2
STDGX5
 10
1715.528875
 20
77.116201000000004
 30
0.0
  0
INSERT
  5
42A
  8
81TEXT
  6
CONTINUOUS
  2
STDGX5
 10
1715.528875
 20
77.116201000000004
 30
0.0
  0
INSERT
  5
42B
  8
81TEXT
  6
CONTINUOUS
  2
STDGX5
 10
1715.528875
 20
77.116201000000004
 30
0.0
  0
INSERT
  5
42D
  8
81TEXT
  6
CONTINUOUS
  2
STDGX5
 10
1717.836356
 20
84.795502999999997
 30
0.0
  0
INSERT
  5
42E
  8
81TEXT
  6
CONTINUOUS
  2
STDGX5
 10
1717.836356
 20
84.795502999999997
 30
0.0
  0
INSERT
  5
42F
  8
0
  6
CONTINUOUS
 62
     3
  2
STDGX5
 10
2057.8863470000001
 20
87.295361
 30
0.0
  0
INSERT
  5
430
  8
0
  6
CONTINUOUS
 62
     4
  2
STDGX5
 10
2057.8863470000001
 20
87.295361
 30
0.0
  0
INSERT
  5
431
  8
0
  6
CONTINUOUS
 62
     3
  2
STDGX5
 10
2084.8454499999998
 20
109.974672
 30
0.0
  0
INSERT
  5
432
  8
0
  6
CONTINUOUS
 62
     4
  2
STDGX5
 10
2084.8454499999998
 20
109.974672
 30
0.0
  0
INSERT
  5
434
  8
81TEXT
  6
CONTINUOUS
  2
STDGX5
 10
2056.9203809999999
 20
102.637595
 30
0.0
  0
INSERT
  5
435
  8
81TEXT
  6
CONTINUOUS
  2
STDGX5
 10
2056.9203809999999
 20
102.637595
 30
0.0
  0
INSERT
  5
437
  8
81TEXT
  6
CONTINUOUS
  2
STDGX5
 10
2393.1292330000001
 20
112.44365000000001
 30
0.0
  0
INSERT
  5
438
  8
81TEXT
  6
CONTINUOUS
  2
STDGX5
 10
2393.1292330000001
 20
112.44365000000001
 30
0.0
  0
INSERT
  5
43A
  8
81TEXT
  6
CONTINUOUS
  2
STDGX5
 10
2751.7847590000001
 20
114.939105
 30
0.0
  0
INSERT
  5
43B
  8
81TEXT
  6
CONTINUOUS
  2
STDGX5
 10
2751.7847590000001
 20
114.939105
 30
0.0
  0
INSERT
  5
43D
  8
81TEXT
  6
CONTINUOUS
  2
STDGX5
 10
2396.1938610000002
 20
118.30737999999999
 30
0.0
  0
INSERT
  5
43E
  8
81TEXT
  6
CONTINUOUS
  2
STDGX5
 10
2396.1938610000002
 20
118.30737999999999
 30
0.0
  0
INSERT
  5
440
  8
81TEXT
  6
CONTINUOUS
  2
STDGX5
 10
2754.8493870000002
 20
120.802835
 30
0.0
  0
INSERT
  5
441
  8
81TEXT
  6
CONTINUOUS
  2
STDGX5
 10
2754.8493870000002
 20
120.802835
 30
0.0
  0
INSERT
  5
442
  8
81TEXT
  6
CONTINUOUS
  2
STDGX5
 10
2396.1938610000002
 20
118.30737999999999
 30
0.0
  0
INSERT
  5
444
  8
81TEXT
  6
CONTINUOUS
  2
STDGX5
 10
2057.9223940000002
 20
100.53426
 30
0.0
  0
INSERT
  5
445
  8
81TEXT
  6
CONTINUOUS
  2
STDGX5
 10
2057.9223940000002
 20
100.53426
 30
0.0
  0
INSERT
  5
447
  8
81TEXT
  6
CONTINUOUS
  2
STDGX5
 10
2411.0598559999999
 20
109.18707499999999
 30
0.0
  0
INSERT
  5
448
  8
81TEXT
  6
CONTINUOUS
  2
STDGX5
 10
2411.0598559999999
 20
109.18707499999999
 30
0.0
  0
INSERT
  5
44A
  8
81TEXT
  6
CONTINUOUS
  2
STDGX5
 10
2769.7153819999999
 20
111.682531
 30
0.0
  0
INSERT
  5
44B
  8
81TEXT
  6
CONTINUOUS
  2
STDGX5
 10
2769.7153819999999
 20
111.682531
 30
0.0
  0
INSERT
  5
44C
  8
0
  6
CONTINUOUS
 62
     3
  2
STDGX5
 10
2388.1541750000001
 20
104.17962799999999
 30
0.0
  0
INSERT
  5
44D
  8
0
  6
CONTINUOUS
 62
     4
  2
STDGX5
 10
2388.1541750000001
 20
104.17962799999999
 30
0.0
  0
INSERT
  5
44E
  8
81TEXT
  6
CONTINUOUS
  2
STDGX5
 10
2057.9223940000002
 20
100.53426
 30
0.0
  0
INSERT
  5
44F
  8
81TEXT
  6
CONTINUOUS
  2
STDGX5
 10
2057.9223940000002
 20
100.53426
 30
0.0
  0
INSERT
  5
451
  8
81TEXT
  6
CONTINUOUS
  2
STDGX5
 10
2061.2863120000002
 20
97.852978000000022
 30
0.0
  0
INSERT
  5
452
  8
81TEXT
  6
CONTINUOUS
  2
STDGX5
 10
2061.2863120000002
 20
97.852978000000022
 30
0.0
  0
INSERT
  5
454
  8
81TEXT
  6
CONTINUOUS
  2
STDGX5
 10
2419.9418369999999
 20
100.348434
 30
0.0
  0
INSERT
  5
455
  8
81TEXT
  6
CONTINUOUS
  2
STDGX5
 10
2419.9418369999999
 20
100.348434
 30
0.0
  0
INSERT
  5
456
  8
81TEXT
  6
CONTINUOUS
  2
STDGX5
 10
2061.2863120000002
 20
97.852978000000022
 30
0.0
  0
INSERT
  5
458
  8
81TEXT
  6
CONTINUOUS
  2
STDGX5
 10
2063.0477390000001
 20
105.71679899999999
 30
0.0
  0
INSERT
  5
45A
  8
81TEXT
  6
CONTINUOUS
  2
STDGX5
 10
2054.348309
 20
93.241950000000017
 30
0.0
  0
INSERT
  5
45B
  8
81TEXT
  6
CONTINUOUS
  2
STDGX5
 10
2054.348309
 20
93.241950000000017
 30
0.0
  0
INSERT
  5
45D
  8
81TEXT
  6
CONTINUOUS
  2
STDGX5
 10
2390.5571610000002
 20
103.048005
 30
0.0
  0
INSERT
  5
45E
  8
81TEXT
  6
CONTINUOUS
  2
STDGX5
 10
2390.5571610000002
 20
103.048005
 30
0.0
  0
INSERT
  5
460
  8
81TEXT
  6
CONTINUOUS
  2
STDGX5
 10
2749.2126870000002
 20
105.54346
 30
0.0
  0
INSERT
  5
461
  8
81TEXT
  6
CONTINUOUS
  2
STDGX5
 10
2749.2126870000002
 20
105.54346
 30
0.0
  0
INSERT
  5
463
  8
81TEXT
  6
CONTINUOUS
  2
STDGX5
 10
2393.6217889999998
 20
108.91173499999999
 30
0.0
  0
INSERT
  5
464
  8
81TEXT
  6
CONTINUOUS
  2
STDGX5
 10
2393.6217889999998
 20
108.91173499999999
 30
0.0
  0
INSERT
  5
466
  8
81TEXT
  6
CONTINUOUS
  2
STDGX5
 10
2752.2773149999998
 20
111.40719
 30
0.0
  0
INSERT
  5
467
  8
81TEXT
  6
CONTINUOUS
  2
STDGX5
 10
2752.2773149999998
 20
111.40719
 30
0.0
  0
INSERT
  5
468
  8
81TEXT
  6
CONTINUOUS
  2
STDGX5
 10
2393.6217889999998
 20
108.91173499999999
 30
0.0
  0
INSERT
  5
469
  8
0
  2
STDGX5
 10
2075.3064119999999
 20
123.65410199999999
 30
0.0
 41
0.3
 42
0.3
 43
0.3
  0
INSERT
  5
46A
  8
0
  2
STDGX5
 10
2075.3064119999999
 20
123.65410199999999
 30
0.0
 41
0.3
 42
0.3
 43
0.3
  0
INSERT
  5
46B
  8
0
  2
STDGX5
 10
2093.492945
 20
137.15410199999999
 30
0.0
 41
0.3
 42
0.3
 43
0.3
  0
INSERT
  5
46C
  8
0
  2
STDGX5
 10
2262.1134120000002
 20
165.510538
 30
0.0
 41
0.3
 42
0.3
 43
0.3
  0
INSERT
  5
46D
  8
0
  2
STDGX5
 10
2229.7418899999998
 20
195.38704300000001
 30
0.0
 41
0.3
 42
0.3
 43
0.3
  0
INSERT
  5
46E
  8
0
  2
STDGX5
 10
2229.7418899999998
 20
195.38704300000001
 30
0.0
 41
0.3
 42
0.3
 43
0.3
  0
INSERT
  5
46F
  8
0
  6
CONTINUOUS
 62
     3
  2
STDGX5
 10
2041.1534790000001
 20
95.349277999999998
 30
0.0
  0
INSERT
  5
470
  8
0
  6
CONTINUOUS
 62
     4
  2
STDGX5
 10
2041.1534790000001
 20
95.349277999999998
 30
0.0
  0
INSERT
  5
473
  8
0
  6
CONTINUOUS
 62
     4
  2
STDGX5
 10
1386.0699500000001
 20
73.85565600000001
 30
0.0
  0
INSERT
  5
47F
  8
81TEXT
  6
CONTINUOUS
  2
STDGX5
 10
1386.0699500000001
 20
73.85565600000001
 30
0.0
  0
INSERT
  5
480
  8
0
  2
STDGX5
 10
1711.8824279999999
 20
88.661428000000001
 30
0.0
  0
INSERT
  5
481
  8
0
  2
STDGX5
 10
1711.8824279999999
 20
88.661428000000001
 30
0.0
  0
INSERT
  5
482
  8
0
  2
STDGX5
 10
1711.8824279999999
 20
88.661428000000001
 30
0.0
  0
INSERT
  5
484
  8
0
  6
CONTINUOUS
 62
     4
  2
STDGX5
 10
1722.3592289999999
 20
93.281281000000007
 30
0.0
  0
INSERT
  5
486
  8
81TEXT
  6
CONTINUOUS
  2
STDGX5
 10
1386.0699500000001
 20
73.85565600000001
 30
0.0
  0
INSERT
  5
487
  8
81TEXT
  6
CONTINUOUS
  2
STDGX5
 10
1386.0699500000001
 20
73.85565600000001
 30
0.0
  0
INSERT
  5
488
  8
81TEXT
  6
CONTINUOUS
  2
STDGX5
 10
1386.0699500000001
 20
73.85565600000001
 30
0.0
  0
INSERT
  5
48F
  8
0
  2
STDGX5
 10
1717.4574739999989
 20
104.372592
 30
0.0
  0
INSERT
  5
490
  8
0
  2
STDGX5
 10
1717.4574739999989
 20
104.372592
 30
0.0
  0
INSERT
  5
491
  8
0
  2
STDGX5
 10
1715.16371
 20
100.917635
 30
0.0
  0
INSERT
  5
492
  8
0
  2
STDGX5
 10
1715.16371
 20
100.917635
 30
0.0
  0
INSERT
  5
493
  8
0
  2
STDGX5
 10
1715.1500349999999
 20
99.388983999999994
 30
0.0
 41
0.5
 42
0.5
 43
0.5
  0
INSERT
  5
494
  8
0
  2
STDGX5
 10
1715.1500349999999
 20
99.388983999999994
 30
0.0
 41
0.5
 42
0.5
 43
0.5
  0
INSERT
  5
495
  8
0
  2
STDGX5
 10
1706.741262
 20
92.631112000000002
 30
0.0
 41
0.5
 42
0.5
 43
0.5
  0
INSERT
  5
496
  8
0
  2
STDGX5
 10
1706.741262
 20
92.631112000000002
 30
0.0
 41
0.5
 42
0.5
 43
0.5
  0
INSERT
  5
497
  8
0
  2
STDGX5
 10
1804.7846850000001
 20
99.56013200000001
 30
0.0
 41
0.5
 42
0.5
 43
0.5
  0
INSERT
  5
498
  8
0
  2
STDGX5
 10
1804.7846850000001
 20
99.56013200000001
 30
0.0
 41
0.5
 42
0.5
 43
0.5
  0
INSERT
  5
499
  8
0
  2
STDGX5
 10
1945.0326010000001
 20
105.182766
 30
0.0
 41
0.5
 42
0.5
 43
0.5
  0
INSERT
  5
49A
  8
0
  2
STDGX5
 10
1945.0326010000001
 20
105.182766
 30
0.0
 41
0.5
 42
0.5
 43
0.5
  0
INSERT
  5
49B
  8
0
  2
STDGX5
 10
1945.0326010000001
 20
104.15998399999999
 30
0.0
 41
0.5
 42
0.5
 43
0.5
  0
INSERT
  5
49C
  8
0
  2
STDGX5
 10
1945.0326010000001
 20
104.15998399999999
 30
0.0
 41
0.5
 42
0.5
 43
0.5
  0
INSERT
  5
49D
  8
0
  2
STDGX5
 10
1945.766601
 20
108.249708
 30
0.0
 41
0.5
 42
0.5
 43
0.5
  0
INSERT
  5
49E
  8
0
  2
STDGX5
 10
1945.766601
 20
108.249708
 30
0.0
 41
0.5
 42
0.5
 43
0.5
  0
INSERT
  5
49F
  8
0
  2
STDGX5
 10
1528.037433
 20
120.12450200000001
 30
0.0
  0
INSERT
  5
4A0
  8
0
  2
STDGX5
 10
1528.037433
 20
120.12450200000001
 30
0.0
  0
INSERT
  5
4A1
  8
0
  2
STDGX5
 10
1528.037433
 20
120.12450200000001
 30
0.0
  0
INSERT
  5
4A2
  8
0
  2
STDGX5
 10
1528.037433
 20
120.12450200000001
 30
0.0
  0
INSERT
  5
4A3
  8
0
  2
STDGX5
 10
1528.037433
 20
120.12450200000001
 30
0.0
  0
INSERT
  5
4A4
  8
0
  2
STDGX5
 10
1528.037433
 20
120.12450200000001
 30
0.0
  0
INSERT
  5
4A7
  8
0
  6
CONTINUOUS
 62
     4
  2
STDGX5
 10
1720.1438370000001
 20
92.474804000000006
 30
0.0
  0
INSERT
  5
4B3
  8
81TEXT
  6
CONTINUOUS
  2
STDGX5
 10
1720.1438370000001
 20
92.474804000000006
 30
0.0
  0
INSERT
  5
4B4
  8
0
  2
STDGX5
 10
2045.9563149999999
 20
107.280576
 30
0.0
  0
INSERT
  5
4B5
  8
0
  2
STDGX5
 10
2045.9563149999999
 20
107.280576
 30
0.0
  0
INSERT
  5
4B6
  8
0
  2
STDGX5
 10
2045.9563149999999
 20
107.280576
 30
0.0
  0
INSERT
  5
4B8
  8
0
  6
CONTINUOUS
 62
     4
  2
STDGX5
 10
2056.4331160000002
 20
111.90042800000001
 30
0.0
  0
INSERT
  5
4BA
  8
81TEXT
  6
CONTINUOUS
  2
STDGX5
 10
1720.1438370000001
 20
92.474804000000006
 30
0.0
  0
INSERT
  5
4BB
  8
81TEXT
  6
CONTINUOUS
  2
STDGX5
 10
1720.1438370000001
 20
92.474804000000006
 30
0.0
  0
INSERT
  5
4BC
  8
81TEXT
  6
CONTINUOUS
  2
STDGX5
 10
1720.1438370000001
 20
92.474804000000006
 30
0.0
  0
INSERT
  5
4BF
  8
0
  6
CONTINUOUS
 62
     4
  2
STDGX5
 10
1717.067196
 20
87.097888999999995
 30
0.0
  0
INSERT
  5
4CB
  8
81TEXT
  6
CONTINUOUS
  2
STDGX5
 10
1717.067196
 20
87.097888999999995
 30
0.0
  0
INSERT
  5
4CC
  8
0
  2
STDGX5
 10
2042.879674
 20
101.903661
 30
0.0
  0
INSERT
  5
4CD
  8
0
  2
STDGX5
 10
2042.879674
 20
101.903661
 30
0.0
  0
INSERT
  5
4CE
  8
0
  2
STDGX5
 10
2042.879674
 20
101.903661
 30
0.0
  0
INSERT
  5
4D0
  8
0
  6
CONTINUOUS
 62
     4
  2
STDGX5
 10
2053.356475
 20
106.52351299999999
 30
0.0
  0
INSERT
  5
4D2
  8
81TEXT
  6
CONTINUOUS
  2
STDGX5
 10
1717.067196
 20
87.097888999999995
 30
0.0
  0
INSERT
  5
4D3
  8
81TEXT
  6
CONTINUOUS
  2
STDGX5
 10
1717.067196
 20
87.097888999999995
 30
0.0
  0
INSERT
  5
4D4
  8
81TEXT
  6
CONTINUOUS
  2
STDGX5
 10
1717.067196
 20
87.097888999999995
 30
0.0
  0
INSERT
  5
4D6
  8
81TEXT
  6
CONTINUOUS
  2
STDGX5
 10
1719.374677
 20
94.777190999999988
 30
0.0
  0
INSERT
  5
4D7
  8
81TEXT
  6
CONTINUOUS
  2
STDGX5
 10
1719.374677
 20
94.777190999999988
 30
0.0
  0
INSERT
  5
4D8
  8
0
  6
CONTINUOUS
 62
     3
  2
STDGX5
 10
2059.4246680000001
 20
97.277049000000005
 30
0.0
  0
INSERT
  5
4D9
  8
0
  6
CONTINUOUS
 62
     4
  2
STDGX5
 10
2059.4246680000001
 20
97.277049000000005
 30
0.0
  0
INSERT
  5
4DA
  8
0
  6
CONTINUOUS
 62
     3
  2
STDGX5
 10
2086.3837709999998
 20
119.95636
 30
0.0
  0
INSERT
  5
4DB
  8
0
  6
CONTINUOUS
 62
     4
  2
STDGX5
 10
2086.3837709999998
 20
119.95636
 30
0.0
  0
INSERT
  5
4DD
  8
81TEXT
  6
CONTINUOUS
  2
STDGX5
 10
2058.4587019999999
 20
112.619283
 30
0.0
  0
INSERT
  5
4DE
  8
81TEXT
  6
CONTINUOUS
  2
STDGX5
 10
2058.4587019999999
 20
112.619283
 30
0.0
  0
INSERT
  5
4E0
  8
81TEXT
  6
CONTINUOUS
  2
STDGX5
 10
2394.6675540000001
 20
122.425338
 30
0.0
  0
INSERT
  5
4E1
  8
81TEXT
  6
CONTINUOUS
  2
STDGX5
 10
2394.6675540000001
 20
122.425338
 30
0.0
  0
INSERT
  5
4E3
  8
81TEXT
  6
CONTINUOUS
  2
STDGX5
 10
2753.3230800000001
 20
124.920793
 30
0.0
  0
INSERT
  5
4E4
  8
81TEXT
  6
CONTINUOUS
  2
STDGX5
 10
2753.3230800000001
 20
124.920793
 30
0.0
  0
INSERT
  5
4E6
  8
81TEXT
  6
CONTINUOUS
  2
STDGX5
 10
2397.7321820000002
 20
128.28906799999999
 30
0.0
  0
INSERT
  5
4E7
  8
81TEXT
  6
CONTINUOUS
  2
STDGX5
 10
2397.7321820000002
 20
128.28906799999999
 30
0.0
  0
INSERT
  5
4E9
  8
81TEXT
  6
CONTINUOUS
  2
STDGX5
 10
2756.3877080000002
 20
130.784524
 30
0.0
  0
INSERT
  5
4EA
  8
81TEXT
  6
CONTINUOUS
  2
STDGX5
 10
2756.3877080000002
 20
130.784524
 30
0.0
  0
INSERT
  5
4EB
  8
81TEXT
  6
CONTINUOUS
  2
STDGX5
 10
2397.7321820000002
 20
128.28906799999999
 30
0.0
  0
INSERT
  5
4ED
  8
81TEXT
  6
CONTINUOUS
  2
STDGX5
 10
2059.4607150000002
 20
110.51594799999999
 30
0.0
  0
INSERT
  5
4EE
  8
81TEXT
  6
CONTINUOUS
  2
STDGX5
 10
2059.4607150000002
 20
110.51594799999999
 30
0.0
  0
INSERT
  5
4F0
  8
81TEXT
  6
CONTINUOUS
  2
STDGX5
 10
2412.598176
 20
119.168764
 30
0.0
  0
INSERT
  5
4F1
  8
81TEXT
  6
CONTINUOUS
  2
STDGX5
 10
2412.598176
 20
119.168764
 30
0.0
  0
INSERT
  5
4F3
  8
81TEXT
  6
CONTINUOUS
  2
STDGX5
 10
2771.253702
 20
121.664219
 30
0.0
  0
INSERT
  5
4F4
  8
81TEXT
  6
CONTINUOUS
  2
STDGX5
 10
2771.253702
 20
121.664219
 30
0.0
  0
INSERT
  5
4F5
  8
0
  6
CONTINUOUS
 62
     3
  2
STDGX5
 10
2389.6924949999998
 20
114.161316
 30
0.0
  0
INSERT
  5
4F6
  8
0
  6
CONTINUOUS
 62
     4
  2
STDGX5
 10
2389.6924949999998
 20
114.161316
 30
0.0
  0
INSERT
  5
4F7
  8
81TEXT
  6
CONTINUOUS
  2
STDGX5
 10
2059.4607150000002
 20
110.51594799999999
 30
0.0
  0
INSERT
  5
4F8
  8
81TEXT
  6
CONTINUOUS
  2
STDGX5
 10
2059.4607150000002
 20
110.51594799999999
 30
0.0
  0
INSERT
  5
4FA
  8
81TEXT
  6
CONTINUOUS
  2
STDGX5
 10
2062.8246319999998
 20
107.834667
 30
0.0
  0
INSERT
  5
4FB
  8
81TEXT
  6
CONTINUOUS
  2
STDGX5
 10
2062.8246319999998
 20
107.834667
 30
0.0
  0
INSERT
  5
4FD
  8
81TEXT
  6
CONTINUOUS
  2
STDGX5
 10
2421.4801579999998
 20
110.330122
 30
0.0
  0
INSERT
  5
4FE
  8
81TEXT
  6
CONTINUOUS
  2
STDGX5
 10
2421.4801579999998
 20
110.330122
 30
0.0
  0
INSERT
  5
4FF
  8
81TEXT
  6
CONTINUOUS
  2
STDGX5
 10
2062.8246319999998
 20
107.834667
 30
0.0
  0
INSERT
  5
501
  8
81TEXT
  6
CONTINUOUS
  2
STDGX5
 10
2064.5860600000001
 20
115.6984879999999
 30
0.0
  0
INSERT
  5
503
  8
81TEXT
  6
CONTINUOUS
  2
STDGX5
 10
2055.8866290000001
 20
103.22363799999999
 30
0.0
  0
INSERT
  5
504
  8
81TEXT
  6
CONTINUOUS
  2
STDGX5
 10
2055.8866290000001
 20
103.22363799999999
 30
0.0
  0
INSERT
  5
506
  8
81TEXT
  6
CONTINUOUS
  2
STDGX5
 10
2392.0954809999998
 20
113.02969299999999
 30
0.0
  0
INSERT
  5
507
  8
81TEXT
  6
CONTINUOUS
  2
STDGX5
 10
2392.0954809999998
 20
113.02969299999999
 30
0.0
  0
INSERT
  5
509
  8
81TEXT
  6
CONTINUOUS
  2
STDGX5
 10
2750.7510069999998
 20
115.525148
 30
0.0
  0
INSERT
  5
50A
  8
81TEXT
  6
CONTINUOUS
  2
STDGX5
 10
2750.7510069999998
 20
115.525148
 30
0.0
  0
INSERT
  5
50C
  8
81TEXT
  6
CONTINUOUS
  2
STDGX5
 10
2395.1601089999999
 20
118.893423
 30
0.0
  0
INSERT
  5
50D
  8
81TEXT
  6
CONTINUOUS
  2
STDGX5
 10
2395.1601089999999
 20
118.893423
 30
0.0
  0
INSERT
  5
50F
  8
81TEXT
  6
CONTINUOUS
  2
STDGX5
 10
2753.8156349999999
 20
121.388879
 30
0.0
  0
INSERT
  5
510
  8
81TEXT
  6
CONTINUOUS
  2
STDGX5
 10
2753.8156349999999
 20
121.388879
 30
0.0
  0
INSERT
  5
511
  8
81TEXT
  6
CONTINUOUS
  2
STDGX5
 10
2395.1601089999999
 20
118.893423
 30
0.0
  0
INSERT
  5
512
  8
0
  2
STDGX5
 10
2076.844732
 20
133.63578999999999
 30
0.0
 41
0.3
 42
0.3
 43
0.3
  0
INSERT
  5
513
  8
0
  2
STDGX5
 10
2076.844732
 20
133.63578999999999
 30
0.0
 41
0.3
 42
0.3
 43
0.3
  0
INSERT
  5
514
  8
0
  2
STDGX5
 10
2095.031266
 20
147.13578999999999
 30
0.0
 41
0.3
 42
0.3
 43
0.3
  0
INSERT
  5
515
  8
0
  2
STDGX5
 10
2263.6517330000001
 20
175.49222700000001
 30
0.0
 41
0.3
 42
0.3
 43
0.3
  0
INSERT
  5
516
  8
0
  2
STDGX5
 10
2231.2802099999999
 20
205.368731
 30
0.0
 41
0.3
 42
0.3
 43
0.3
  0
INSERT
  5
517
  8
0
  2
STDGX5
 10
2231.2802099999999
 20
205.368731
 30
0.0
 41
0.3
 42
0.3
 43
0.3
  0
INSERT
  5
518
  8
0
  6
CONTINUOUS
 62
     3
  2
STDGX5
 10
2042.6918000000001
 20
105.330966
 30
0.0
  0
INSERT
  5
519
  8
0
  6
CONTINUOUS
 62
     4
  2
STDGX5
 10
2042.6918000000001
 20
105.330966
 30
0.0
  0
INSERT
  5
51C
  8
0
  6
CONTINUOUS
 62
     4
  2
STDGX5
 10
1054.309522
 20
44.100986999999989
 30
0.0
  0
INSERT
  5
528
  8
81TEXT
  6
CONTINUOUS
  2
STDGX5
 10
1054.309522
 20
44.100986999999989
 30
0.0
  0
INSERT
  5
529
  8
0
  2
STDGX5
 10
1380.1220000000001
 20
58.906758000000004
 30
0.0
  0
INSERT
  5
52A
  8
0
  2
STDGX5
 10
1380.1220000000001
 20
58.906758000000004
 30
0.0
  0
INSERT
  5
52B
  8
0
  2
STDGX5
 10
1380.1220000000001
 20
58.906758000000004
 30
0.0
  0
INSERT
  5
52D
  8
0
  6
CONTINUOUS
 62
     4
  2
STDGX5
 10
1390.5988010000001
 20
63.526610999999988
 30
0.0
  0
INSERT
  5
52F
  8
81TEXT
  6
CONTINUOUS
  2
STDGX5
 10
1054.309522
 20
44.100986999999989
 30
0.0
  0
INSERT
  5
530
  8
81TEXT
  6
CONTINUOUS
  2
STDGX5
 10
1054.309522
 20
44.100986999999989
 30
0.0
  0
INSERT
  5
531
  8
81TEXT
  6
CONTINUOUS
  2
STDGX5
 10
1054.309522
 20
44.100986999999989
 30
0.0
  0
INSERT
  5
538
  8
0
  2
STDGX5
 10
1385.697046
 20
74.617923000000005
 30
0.0
  0
INSERT
  5
539
  8
0
  2
STDGX5
 10
1385.697046
 20
74.617923000000005
 30
0.0
  0
INSERT
  5
53A
  8
0
  2
STDGX5
 10
1383.403282
 20
71.162965
 30
0.0
  0
INSERT
  5
53B
  8
0
  2
STDGX5
 10
1383.403282
 20
71.162965
 30
0.0
  0
INSERT
  5
53C
  8
0
  2
STDGX5
 10
1383.3896070000001
 20
69.634314000000003
 30
0.0
 41
0.5
 42
0.5
 43
0.5
  0
INSERT
  5
53D
  8
0
  2
STDGX5
 10
1383.3896070000001
 20
69.634314000000003
 30
0.0
 41
0.5
 42
0.5
 43
0.5
  0
INSERT
  5
53E
  8
0
  2
STDGX5
 10
1374.980834
 20
62.876443000000002
 30
0.0
 41
0.5
 42
0.5
 43
0.5
  0
INSERT
  5
53F
  8
0
  2
STDGX5
 10
1374.980834
 20
62.876443000000002
 30
0.0
 41
0.5
 42
0.5
 43
0.5
  0
INSERT
  5
540
  8
0
  2
STDGX5
 10
1473.024257
 20
69.805462000000006
 30
0.0
 41
0.5
 42
0.5
 43
0.5
  0
INSERT
  5
541
  8
0
  2
STDGX5
 10
1473.024257
 20
69.805462000000006
 30
0.0
 41
0.5
 42
0.5
 43
0.5
  0
INSERT
  5
542
  8
0
  2
STDGX5
 10
1613.2721730000001
 20
75.428096999999994
 30
0.0
 41
0.5
 42
0.5
 43
0.5
  0
INSERT
  5
543
  8
0
  2
STDGX5
 10
1613.2721730000001
 20
75.428096999999994
 30
0.0
 41
0.5
 42
0.5
 43
0.5
  0
INSERT
  5
544
  8
0
  2
STDGX5
 10
1613.2721730000001
 20
74.405314000000004
 30
0.0
 41
0.5
 42
0.5
 43
0.5
  0
INSERT
  5
545
  8
0
  2
STDGX5
 10
1613.2721730000001
 20
74.405314000000004
 30
0.0
 41
0.5
 42
0.5
 43
0.5
  0
INSERT
  5
546
  8
0
  2
STDGX5
 10
1614.006173
 20
78.495039000000006
 30
0.0
 41
0.5
 42
0.5
 43
0.5
  0
INSERT
  5
547
  8
0
  2
STDGX5
 10
1614.006173
 20
78.495039000000006
 30
0.0
 41
0.5
 42
0.5
 43
0.5
  0
INSERT
  5
548
  8
0
  2
STDGX5
 10
1196.2770049999999
 20
90.369831999999988
 30
0.0
  0
INSERT
  5
549
  8
0
  2
STDGX5
 10
1196.2770049999999
 20
90.369831999999988
 30
0.0
  0
INSERT
  5
54A
  8
0
  2
STDGX5
 10
1196.2770049999999
 20
90.369831999999988
 30
0.0
  0
INSERT
  5
54B
  8
0
  2
STDGX5
 10
1196.2770049999999
 20
90.369831999999988
 30
0.0
  0
INSERT
  5
54C
  8
0
  2
STDGX5
 10
1196.2770049999999
 20
90.369831999999988
 30
0.0
  0
INSERT
  5
54D
  8
0
  2
STDGX5
 10
1196.2770049999999
 20
90.369831999999988
 30
0.0
  0
INSERT
  5
550
  8
0
  6
CONTINUOUS
 62
     4
  2
STDGX5
 10
1388.383409
 20
62.720134999999992
 30
0.0
  0
INSERT
  5
55C
  8
81TEXT
  6
CONTINUOUS
  2
STDGX5
 10
1388.383409
 20
62.720134999999992
 30
0.0
  0
INSERT
  5
55D
  8
0
  2
STDGX5
 10
1714.1958870000001
 20
77.525906000000006
 30
0.0
  0
INSERT
  5
55E
  8
0
  2
STDGX5
 10
1714.1958870000001
 20
77.525906000000006
 30
0.0
  0
INSERT
  5
55F
  8
0
  2
STDGX5
 10
1714.1958870000001
 20
77.525906000000006
 30
0.0
  0
INSERT
  5
561
  8
0
  6
CONTINUOUS
 62
     4
  2
STDGX5
 10
1724.6726880000001
 20
82.145758999999984
 30
0.0
  0
INSERT
  5
563
  8
81TEXT
  6
CONTINUOUS
  2
STDGX5
 10
1388.383409
 20
62.720134999999992
 30
0.0
  0
INSERT
  5
564
  8
81TEXT
  6
CONTINUOUS
  2
STDGX5
 10
1388.383409
 20
62.720134999999992
 30
0.0
  0
INSERT
  5
565
  8
81TEXT
  6
CONTINUOUS
  2
STDGX5
 10
1388.383409
 20
62.720134999999992
 30
0.0
  0
INSERT
  5
568
  8
0
  6
CONTINUOUS
 62
     4
  2
STDGX5
 10
1385.3067679999999
 20
57.343219999999988
 30
0.0
  0
INSERT
  5
574
  8
81TEXT
  6
CONTINUOUS
  2
STDGX5
 10
1385.3067679999999
 20
57.343219999999988
 30
0.0
  0
INSERT
  5
575
  8
0
  2
STDGX5
 10
1711.119246
 20
72.148991000000009
 30
0.0
  0
INSERT
  5
576
  8
0
  2
STDGX5
 10
1711.119246
 20
72.148991000000009
 30
0.0
  0
INSERT
  5
577
  8
0
  2
STDGX5
 10
1711.119246
 20
72.148991000000009
 30
0.0
  0
INSERT
  5
579
  8
0
  6
CONTINUOUS
 62
     4
  2
STDGX5
 10
1721.596047
 20
76.768844000000001
 30
0.0
  0
INSERT
  5
57B
  8
81TEXT
  6
CONTINUOUS
  2
STDGX5
 10
1385.3067679999999
 20
57.343219999999988
 30
0.0
  0
INSERT
  5
57C
  8
81TEXT
  6
CONTINUOUS
  2
STDGX5
 10
1385.3067679999999
 20
57.343219999999988
 30
0.0
  0
INSERT
  5
57D
  8
81TEXT
  6
CONTINUOUS
  2
STDGX5
 10
1385.3067679999999
 20
57.343219999999988
 30
0.0
  0
INSERT
  5
580
  8
0
  6
CONTINUOUS
 62
     4
  2
STDGX5
 10
1383.7684469999999
 20
61.955011999999989
 30
0.0
  0
INSERT
  5
58C
  8
81TEXT
  6
CONTINUOUS
  2
STDGX5
 10
1383.7684469999999
 20
61.955011999999989
 30
0.0
  0
INSERT
  5
58D
  8
0
  2
STDGX5
 10
1709.580925
 20
76.760784000000001
 30
0.0
  0
INSERT
  5
58E
  8
0
  2
STDGX5
 10
1709.580925
 20
76.760784000000001
 30
0.0
  0
INSERT
  5
58F
  8
0
  2
STDGX5
 10
1709.580925
 20
76.760784000000001
 30
0.0
  0
INSERT
  5
591
  8
0
  6
CONTINUOUS
 62
     4
  2
STDGX5
 10
1720.057726
 20
81.380635999999996
 30
0.0
  0
INSERT
  5
593
  8
81TEXT
  6
CONTINUOUS
  2
STDGX5
 10
1383.7684469999999
 20
61.955011999999989
 30
0.0
  0
INSERT
  5
594
  8
81TEXT
  6
CONTINUOUS
  2
STDGX5
 10
1383.7684469999999
 20
61.955011999999989
 30
0.0
  0
INSERT
  5
595
  8
81TEXT
  6
CONTINUOUS
  2
STDGX5
 10
1383.7684469999999
 20
61.955011999999989
 30
0.0
  0
INSERT
  5
59C
  8
0
  2
STDGX5
 10
1715.1559719999991
 20
92.471947999999998
 30
0.0
  0
INSERT
  5
59D
  8
0
  2
STDGX5
 10
1715.1559719999991
 20
92.471947999999998
 30
0.0
  0
INSERT
  5
59E
  8
0
  2
STDGX5
 10
1712.862208
 20
89.016991000000004
 30
0.0
  0
INSERT
  5
59F
  8
0
  2
STDGX5
 10
1712.862208
 20
89.016991000000004
 30
0.0
  0
INSERT
  5
5A0
  8
0
  2
STDGX5
 10
1712.8485330000001
 20
87.488338999999996
 30
0.0
 41
0.5
 42
0.5
 43
0.5
  0
INSERT
  5
5A1
  8
0
  2
STDGX5
 10
1712.8485330000001
 20
87.488338999999996
 30
0.0
 41
0.5
 42
0.5
 43
0.5
  0
INSERT
  5
5A2
  8
0
  2
STDGX5
 10
1704.4397590000001
 20
80.730468000000002
 30
0.0
 41
0.5
 42
0.5
 43
0.5
  0
INSERT
  5
5A3
  8
0
  2
STDGX5
 10
1704.4397590000001
 20
80.730468000000002
 30
0.0
 41
0.5
 42
0.5
 43
0.5
  0
INSERT
  5
5A4
  8
0
  2
STDGX5
 10
1802.4831830000001
 20
87.659487999999996
 30
0.0
 41
0.5
 42
0.5
 43
0.5
  0
INSERT
  5
5A5
  8
0
  2
STDGX5
 10
1802.4831830000001
 20
87.659487999999996
 30
0.0
 41
0.5
 42
0.5
 43
0.5
  0
INSERT
  5
5A6
  8
0
  2
STDGX5
 10
1942.731098
 20
93.282122000000015
 30
0.0
 41
0.5
 42
0.5
 43
0.5
  0
INSERT
  5
5A7
  8
0
  2
STDGX5
 10
1942.731098
 20
93.282122000000015
 30
0.0
 41
0.5
 42
0.5
 43
0.5
  0
INSERT
  5
5A8
  8
0
  2
STDGX5
 10
1942.731098
 20
92.259339999999995
 30
0.0
 41
0.5
 42
0.5
 43
0.5
  0
INSERT
  5
5A9
  8
0
  2
STDGX5
 10
1942.731098
 20
92.259339999999995
 30
0.0
 41
0.5
 42
0.5
 43
0.5
  0
INSERT
  5
5AA
  8
0
  2
STDGX5
 10
1943.4650979999999
 20
96.349063999999998
 30
0.0
 41
0.5
 42
0.5
 43
0.5
  0
INSERT
  5
5AB
  8
0
  2
STDGX5
 10
1943.4650979999999
 20
96.349063999999998
 30
0.0
 41
0.5
 42
0.5
 43
0.5
  0
INSERT
  5
5AC
  8
0
  2
STDGX5
 10
1525.7359300000001
 20
108.22385800000001
 30
0.0
  0
INSERT
  5
5AD
  8
0
  2
STDGX5
 10
1525.7359300000001
 20
108.22385800000001
 30
0.0
  0
INSERT
  5
5AE
  8
0
  2
STDGX5
 10
1525.7359300000001
 20
108.22385800000001
 30
0.0
  0
INSERT
  5
5AF
  8
0
  2
STDGX5
 10
1525.7359300000001
 20
108.22385800000001
 30
0.0
  0
INSERT
  5
5B0
  8
0
  2
STDGX5
 10
1525.7359300000001
 20
108.22385800000001
 30
0.0
  0
INSERT
  5
5B1
  8
0
  2
STDGX5
 10
1525.7359300000001
 20
108.22385800000001
 30
0.0
  0
INSERT
  5
5B4
  8
0
  6
CONTINUOUS
 62
     4
  2
STDGX5
 10
1717.842335
 20
80.574159999999992
 30
0.0
  0
INSERT
  5
5C0
  8
81TEXT
  6
CONTINUOUS
  2
STDGX5
 10
1717.842335
 20
80.574159999999992
 30
0.0
  0
INSERT
  5
5C1
  8
0
  2
STDGX5
 10
2043.6548130000001
 20
95.379931999999997
 30
0.0
  0
INSERT
  5
5C2
  8
0
  2
STDGX5
 10
2043.6548130000001
 20
95.379931999999997
 30
0.0
  0
INSERT
  5
5C3
  8
0
  2
STDGX5
 10
2043.6548130000001
 20
95.379931999999997
 30
0.0
  0
INSERT
  5
5C5
  8
0
  6
CONTINUOUS
 62
     4
  2
STDGX5
 10
2054.1316139999999
 20
99.999783999999991
 30
0.0
  0
INSERT
  5
5C7
  8
81TEXT
  6
CONTINUOUS
  2
STDGX5
 10
1717.842335
 20
80.574159999999992
 30
0.0
  0
INSERT
  5
5C8
  8
81TEXT
  6
CONTINUOUS
  2
STDGX5
 10
1717.842335
 20
80.574159999999992
 30
0.0
  0
INSERT
  5
5C9
  8
81TEXT
  6
CONTINUOUS
  2
STDGX5
 10
1717.842335
 20
80.574159999999992
 30
0.0
  0
INSERT
  5
5CC
  8
0
  6
CONTINUOUS
 62
     4
  2
STDGX5
 10
1714.7656939999999
 20
75.197244999999995
 30
0.0
  0
INSERT
  5
5D8
  8
81TEXT
  6
CONTINUOUS
  2
STDGX5
 10
1714.7656939999999
 20
75.197244999999995
 30
0.0
  0
INSERT
  5
5D9
  8
0
  2
STDGX5
 10
2040.578172
 20
90.003016999999986
 30
0.0
  0
INSERT
  5
5DA
  8
0
  2
STDGX5
 10
2040.578172
 20
90.003016999999986
 30
0.0
  0
INSERT
  5
5DB
  8
0
  2
STDGX5
 10
2040.578172
 20
90.003016999999986
 30
0.0
  0
INSERT
  5
5DD
  8
0
  6
CONTINUOUS
 62
     4
  2
STDGX5
 10
2051.0549730000012
 20
94.622868999999994
 30
0.0
  0
INSERT
  5
5DF
  8
81TEXT
  6
CONTINUOUS
  2
STDGX5
 10
1714.7656939999999
 20
75.197244999999995
 30
0.0
  0
INSERT
  5
5E0
  8
81TEXT
  6
CONTINUOUS
  2
STDGX5
 10
1714.7656939999999
 20
75.197244999999995
 30
0.0
  0
INSERT
  5
5E1
  8
81TEXT
  6
CONTINUOUS
  2
STDGX5
 10
1714.7656939999999
 20
75.197244999999995
 30
0.0
  0
INSERT
  5
5E3
  8
81TEXT
  6
CONTINUOUS
  2
STDGX5
 10
1717.073175
 20
82.876547000000002
 30
0.0
  0
INSERT
  5
5E4
  8
81TEXT
  6
CONTINUOUS
  2
STDGX5
 10
1717.073175
 20
82.876547000000002
 30
0.0
  0
INSERT
  5
5E5
  8
0
  6
CONTINUOUS
 62
     3
  2
STDGX5
 10
2057.123165
 20
85.376405000000005
 30
0.0
  0
INSERT
  5
5E6
  8
0
  6
CONTINUOUS
 62
     4
  2
STDGX5
 10
2057.123165
 20
85.376405000000005
 30
0.0
  0
INSERT
  5
5E7
  8
0
  6
CONTINUOUS
 62
     3
  2
STDGX5
 10
2084.0822680000001
 20
108.055716
 30
0.0
  0
INSERT
  5
5E8
  8
0
  6
CONTINUOUS
 62
     4
  2
STDGX5
 10
2084.0822680000001
 20
108.055716
 30
0.0
  0
INSERT
  5
5EA
  8
81TEXT
  6
CONTINUOUS
  2
STDGX5
 10
2056.1571990000002
 20
100.718639
 30
0.0
  0
INSERT
  5
5EB
  8
81TEXT
  6
CONTINUOUS
  2
STDGX5
 10
2056.1571990000002
 20
100.718639
 30
0.0
  0
INSERT
  5
5ED
  8
81TEXT
  6
CONTINUOUS
  2
STDGX5
 10
2392.366051
 20
110.524694
 30
0.0
  0
INSERT
  5
5EE
  8
81TEXT
  6
CONTINUOUS
  2
STDGX5
 10
2392.366051
 20
110.524694
 30
0.0
  0
INSERT
  5
5F0
  8
81TEXT
  6
CONTINUOUS
  2
STDGX5
 10
2751.021577
 20
113.020149
 30
0.0
  0
INSERT
  5
5F1
  8
81TEXT
  6
CONTINUOUS
  2
STDGX5
 10
2751.021577
 20
113.020149
 30
0.0
  0
INSERT
  5
5F3
  8
81TEXT
  6
CONTINUOUS
  2
STDGX5
 10
2395.4306790000001
 20
116.388424
 30
0.0
  0
INSERT
  5
5F4
  8
81TEXT
  6
CONTINUOUS
  2
STDGX5
 10
2395.4306790000001
 20
116.388424
 30
0.0
  0
INSERT
  5
5F6
  8
81TEXT
  6
CONTINUOUS
  2
STDGX5
 10
2754.0862050000001
 20
118.88388
 30
0.0
  0
INSERT
  5
5F7
  8
81TEXT
  6
CONTINUOUS
  2
STDGX5
 10
2754.0862050000001
 20
118.88388
 30
0.0
  0
INSERT
  5
5F8
  8
81TEXT
  6
CONTINUOUS
  2
STDGX5
 10
2395.4306790000001
 20
116.388424
 30
0.0
  0
INSERT
  5
5FA
  8
81TEXT
  6
CONTINUOUS
  2
STDGX5
 10
2057.159212
 20
98.615304000000009
 30
0.0
  0
INSERT
  5
5FB
  8
81TEXT
  6
CONTINUOUS
  2
STDGX5
 10
2057.159212
 20
98.615304000000009
 30
0.0
  0
INSERT
  5
5FD
  8
81TEXT
  6
CONTINUOUS
  2
STDGX5
 10
2410.2966740000002
 20
107.268119
 30
0.0
  0
INSERT
  5
5FE
  8
81TEXT
  6
CONTINUOUS
  2
STDGX5
 10
2410.2966740000002
 20
107.268119
 30
0.0
  0
INSERT
  5
600
  8
81TEXT
  6
CONTINUOUS
  2
STDGX5
 10
2768.9522000000011
 20
109.763575
 30
0.0
  0
INSERT
  5
601
  8
81TEXT
  6
CONTINUOUS
  2
STDGX5
 10
2768.9522000000011
 20
109.763575
 30
0.0
  0
INSERT
  5
602
  8
0
  6
CONTINUOUS
 62
     3
  2
STDGX5
 10
2387.390993
 20
102.260672
 30
0.0
  0
INSERT
  5
603
  8
0
  6
CONTINUOUS
 62
     4
  2
STDGX5
 10
2387.390993
 20
102.260672
 30
0.0
  0
INSERT
  5
604
  8
81TEXT
  6
CONTINUOUS
  2
STDGX5
 10
2057.159212
 20
98.615304000000009
 30
0.0
  0
INSERT
  5
605
  8
81TEXT
  6
CONTINUOUS
  2
STDGX5
 10
2057.159212
 20
98.615304000000009
 30
0.0
  0
INSERT
  5
607
  8
81TEXT
  6
CONTINUOUS
  2
STDGX5
 10
2060.52313
 20
95.934021999999985
 30
0.0
  0
INSERT
  5
608
  8
81TEXT
  6
CONTINUOUS
  2
STDGX5
 10
2060.52313
 20
95.934021999999985
 30
0.0
  0
INSERT
  5
60A
  8
81TEXT
  6
CONTINUOUS
  2
STDGX5
 10
2419.178656
 20
98.429478000000003
 30
0.0
  0
INSERT
  5
60B
  8
81TEXT
  6
CONTINUOUS
  2
STDGX5
 10
2419.178656
 20
98.429478000000003
 30
0.0
  0
INSERT
  5
60C
  8
81TEXT
  6
CONTINUOUS
  2
STDGX5
 10
2060.52313
 20
95.934021999999985
 30
0.0
  0
INSERT
  5
60E
  8
81TEXT
  6
CONTINUOUS
  2
STDGX5
 10
2062.2845569999999
 20
103.797844
 30
0.0
  0
INSERT
  5
610
  8
81TEXT
  6
CONTINUOUS
  2
STDGX5
 10
2053.5851269999998
 20
91.322993999999994
 30
0.0
  0
INSERT
  5
611
  8
81TEXT
  6
CONTINUOUS
  2
STDGX5
 10
2053.5851269999998
 20
91.322993999999994
 30
0.0
  0
INSERT
  5
613
  8
81TEXT
  6
CONTINUOUS
  2
STDGX5
 10
2389.793979
 20
101.12904899999999
 30
0.0
  0
INSERT
  5
614
  8
81TEXT
  6
CONTINUOUS
  2
STDGX5
 10
2389.793979
 20
101.12904899999999
 30
0.0
  0
INSERT
  5
616
  8
81TEXT
  6
CONTINUOUS
  2
STDGX5
 10
2748.449505
 20
103.624504
 30
0.0
  0
INSERT
  5
617
  8
81TEXT
  6
CONTINUOUS
  2
STDGX5
 10
2748.449505
 20
103.624504
 30
0.0
  0
INSERT
  5
619
  8
81TEXT
  6
CONTINUOUS
  2
STDGX5
 10
2392.8586070000001
 20
106.992779
 30
0.0
  0
INSERT
  5
61A
  8
81TEXT
  6
CONTINUOUS
  2
STDGX5
 10
2392.8586070000001
 20
106.992779
 30
0.0
  0
INSERT
  5
61C
  8
81TEXT
  6
CONTINUOUS
  2
STDGX5
 10
2751.5141330000001
 20
109.48823400000001
 30
0.0
  0
INSERT
  5
61D
  8
81TEXT
  6
CONTINUOUS
  2
STDGX5
 10
2751.5141330000001
 20
109.48823400000001
 30
0.0
  0
INSERT
  5
61E
  8
81TEXT
  6
CONTINUOUS
  2
STDGX5
 10
2392.8586070000001
 20
106.992779
 30
0.0
  0
INSERT
  5
61F
  8
0
  2
STDGX5
 10
2074.5432300000002
 20
121.735146
 30
0.0
 41
0.3
 42
0.3
 43
0.3
  0
INSERT
  5
620
  8
0
  2
STDGX5
 10
2074.5432300000002
 20
121.735146
 30
0.0
 41
0.3
 42
0.3
 43
0.3
  0
INSERT
  5
621
  8
0
  2
STDGX5
 10
2092.7297629999998
 20
135.23514599999999
 30
0.0
 41
0.3
 42
0.3
 43
0.3
  0
INSERT
  5
622
  8
0
  2
STDGX5
 10
2261.35023
 20
163.59158300000001
 30
0.0
 41
0.3
 42
0.3
 43
0.3
  0
INSERT
  5
623
  8
0
  2
STDGX5
 10
2228.9787080000001
 20
193.468087
 30
0.0
 41
0.3
 42
0.3
 43
0.3
  0
INSERT
  5
624
  8
0
  2
STDGX5
 10
2228.9787080000001
 20
193.468087
 30
0.0
 41
0.3
 42
0.3
 43
0.3
  0
INSERT
  5
625
  8
0
  6
CONTINUOUS
 62
     3
  2
STDGX5
 10
2040.3902969999999
 20
93.430322000000004
 30
0.0
  0
INSERT
  5
626
  8
0
  6
CONTINUOUS
 62
     4
  2
STDGX5
 10
2040.3902969999999
 20
93.430322000000004
 30
0.0
  0
INSERT
  5
629
  8
0
  6
CONTINUOUS
 62
     4
  2
STDGX5
 10
1385.3067679999999
 20
71.936700999999999
 30
0.0
  0
INSERT
  5
635
  8
81TEXT
  6
CONTINUOUS
  2
STDGX5
 10
1385.3067679999999
 20
71.936700999999999
 30
0.0
  0
INSERT
  5
636
  8
0
  2
STDGX5
 10
1711.119246
 20
86.742471999999992
 30
0.0
  0
INSERT
  5
637
  8
0
  2
STDGX5
 10
1711.119246
 20
86.742471999999992
 30
0.0
  0
INSERT
  5
638
  8
0
  2
STDGX5
 10
1711.119246
 20
86.742471999999992
 30
0.0
  0
INSERT
  5
63A
  8
0
  6
CONTINUOUS
 62
     4
  2
STDGX5
 10
1721.596047
 20
91.362324999999998
 30
0.0
  0
INSERT
  5
63C
  8
81TEXT
  6
CONTINUOUS
  2
STDGX5
 10
1385.3067679999999
 20
71.936700999999999
 30
0.0
  0
INSERT
  5
63D
  8
81TEXT
  6
CONTINUOUS
  2
STDGX5
 10
1385.3067679999999
 20
71.936700999999999
 30
0.0
  0
INSERT
  5
63E
  8
81TEXT
  6
CONTINUOUS
  2
STDGX5
 10
1385.3067679999999
 20
71.936700999999999
 30
0.0
  0
INSERT
  5
645
  8
0
  2
STDGX5
 10
1716.6942919999999
 20
102.453636
 30
0.0
  0
INSERT
  5
646
  8
0
  2
STDGX5
 10
1716.6942919999999
 20
102.453636
 30
0.0
  0
INSERT
  5
647
  8
0
  2
STDGX5
 10
1714.4005279999999
 20
98.998679000000024
 30
0.0
  0
INSERT
  5
648
  8
0
  2
STDGX5
 10
1714.4005279999999
 20
98.998679000000024
 30
0.0
  0
INSERT
  5
649
  8
0
  2
STDGX5
 10
1714.386853
 20
97.470027999999999
 30
0.0
 41
0.5
 42
0.5
 43
0.5
  0
INSERT
  5
64A
  8
0
  2
STDGX5
 10
1714.386853
 20
97.470027999999999
 30
0.0
 41
0.5
 42
0.5
 43
0.5
  0
INSERT
  5
64B
  8
0
  2
STDGX5
 10
1705.9780800000001
 20
90.712156999999991
 30
0.0
 41
0.5
 42
0.5
 43
0.5
  0
INSERT
  5
64C
  8
0
  2
STDGX5
 10
1705.9780800000001
 20
90.712156999999991
 30
0.0
 41
0.5
 42
0.5
 43
0.5
  0
INSERT
  5
64D
  8
0
  2
STDGX5
 10
1804.021504
 20
97.641176000000002
 30
0.0
 41
0.5
 42
0.5
 43
0.5
  0
INSERT
  5
64E
  8
0
  2
STDGX5
 10
1804.021504
 20
97.641176000000002
 30
0.0
 41
0.5
 42
0.5
 43
0.5
  0
INSERT
  5
64F
  8
0
  2
STDGX5
 10
1944.269419
 20
103.263811
 30
0.0
 41
0.5
 42
0.5
 43
0.5
  0
INSERT
  5
650
  8
0
  2
STDGX5
 10
1944.269419
 20
103.263811
 30
0.0
 41
0.5
 42
0.5
 43
0.5
  0
INSERT
  5
651
  8
0
  2
STDGX5
 10
1944.269419
 20
102.241028
 30
0.0
 41
0.5
 42
0.5
 43
0.5
  0
INSERT
  5
652
  8
0
  2
STDGX5
 10
1944.269419
 20
102.241028
 30
0.0
 41
0.5
 42
0.5
 43
0.5
  0
INSERT
  5
653
  8
0
  2
STDGX5
 10
1945.0034189999999
 20
106.330753
 30
0.0
 41
0.5
 42
0.5
 43
0.5
  0
INSERT
  5
654
  8
0
  2
STDGX5
 10
1945.0034189999999
 20
106.330753
 30
0.0
 41
0.5
 42
0.5
 43
0.5
  0
INSERT
  5
655
  8
0
  2
STDGX5
 10
1527.274251
 20
118.205546
 30
0.0
  0
INSERT
  5
656
  8
0
  2
STDGX5
 10
1527.274251
 20
118.205546
 30
0.0
  0
INSERT
  5
657
  8
0
  2
STDGX5
 10
1527.274251
 20
118.205546
 30
0.0
  0
INSERT
  5
658
  8
0
  2
STDGX5
 10
1527.274251
 20
118.205546
 30
0.0
  0
INSERT
  5
659
  8
0
  2
STDGX5
 10
1527.274251
 20
118.205546
 30
0.0
  0
INSERT
  5
65A
  8
0
  2
STDGX5
 10
1527.274251
 20
118.205546
 30
0.0
  0
INSERT
  5
65D
  8
0
  6
CONTINUOUS
 62
     4
  2
STDGX5
 10
1719.380656
 20
90.555847999999997
 30
0.0
  0
INSERT
  5
669
  8
81TEXT
  6
CONTINUOUS
  2
STDGX5
 10
1719.380656
 20
90.555847999999997
 30
0.0
  0
INSERT
  5
66A
  8
0
  2
STDGX5
 10
2045.1931340000001
 20
105.36162
 30
0.0
  0
INSERT
  5
66B
  8
0
  2
STDGX5
 10
2045.1931340000001
 20
105.36162
 30
0.0
  0
INSERT
  5
66C
  8
0
  2
STDGX5
 10
2045.1931340000001
 20
105.36162
 30
0.0
  0
INSERT
  5
66E
  8
0
  6
CONTINUOUS
 62
     4
  2
STDGX5
 10
2055.6699349999999
 20
109.98147299999999
 30
0.0
  0
INSERT
  5
670
  8
81TEXT
  6
CONTINUOUS
  2
STDGX5
 10
1719.380656
 20
90.555847999999997
 30
0.0
  0
INSERT
  5
671
  8
81TEXT
  6
CONTINUOUS
  2
STDGX5
 10
1719.380656
 20
90.555847999999997
 30
0.0
  0
INSERT
  5
672
  8
81TEXT
  6
CONTINUOUS
  2
STDGX5
 10
1719.380656
 20
90.555847999999997
 30
0.0
  0
INSERT
  5
675
  8
0
  6
CONTINUOUS
 62
     4
  2
STDGX5
 10
1716.3040140000001
 20
85.178933000000001
 30
0.0
  0
INSERT
  5
681
  8
81TEXT
  6
CONTINUOUS
  2
STDGX5
 10
1716.3040140000001
 20
85.178933000000001
 30
0.0
  0
INSERT
  5
682
  8
0
  2
STDGX5
 10
2042.1164920000001
 20
99.984705000000005
 30
0.0
  0
INSERT
  5
683
  8
0
  2
STDGX5
 10
2042.1164920000001
 20
99.984705000000005
 30
0.0
  0
INSERT
  5
684
  8
0
  2
STDGX5
 10
2042.1164920000001
 20
99.984705000000005
 30
0.0
  0
INSERT
  5
686
  8
0
  6
CONTINUOUS
 62
     4
  2
STDGX5
 10
2052.5932929999999
 20
104.604558
 30
0.0
  0
INSERT
  5
688
  8
81TEXT
  6
CONTINUOUS
  2
STDGX5
 10
1716.3040140000001
 20
85.178933000000001
 30
0.0
  0
INSERT
  5
689
  8
81TEXT
  6
CONTINUOUS
  2
STDGX5
 10
1716.3040140000001
 20
85.178933000000001
 30
0.0
  0
INSERT
  5
68A
  8
81TEXT
  6
CONTINUOUS
  2
STDGX5
 10
1716.3040140000001
 20
85.178933000000001
 30
0.0
  0
INSERT
  5
68C
  8
81TEXT
  6
CONTINUOUS
  2
STDGX5
 10
1718.6114950000001
 20
92.858234999999993
 30
0.0
  0
INSERT
  5
68D
  8
81TEXT
  6
CONTINUOUS
  2
STDGX5
 10
1718.6114950000001
 20
92.858234999999993
 30
0.0
  0
INSERT
  5
68E
  8
0
  6
CONTINUOUS
 62
     3
  2
STDGX5
 10
2058.661486
 20
95.358093000000025
 30
0.0
  0
INSERT
  5
68F
  8
0
  6
CONTINUOUS
 62
     4
  2
STDGX5
 10
2058.661486
 20
95.358093000000025
 30
0.0
  0
INSERT
  5
690
  8
0
  6
CONTINUOUS
 62
     3
  2
STDGX5
 10
2085.6205890000001
 20
118.037404
 30
0.0
  0
INSERT
  5
691
  8
0
  6
CONTINUOUS
 62
     4
  2
STDGX5
 10
2085.6205890000001
 20
118.037404
 30
0.0
  0
INSERT
  5
693
  8
81TEXT
  6
CONTINUOUS
  2
STDGX5
 10
2057.6955200000002
 20
110.700327
 30
0.0
  0
INSERT
  5
694
  8
81TEXT
  6
CONTINUOUS
  2
STDGX5
 10
2057.6955200000002
 20
110.700327
 30
0.0
  0
INSERT
  5
696
  8
81TEXT
  6
CONTINUOUS
  2
STDGX5
 10
2393.904372
 20
120.506382
 30
0.0
  0
INSERT
  5
697
  8
81TEXT
  6
CONTINUOUS
  2
STDGX5
 10
2393.904372
 20
120.506382
 30
0.0
  0
INSERT
  5
699
  8
81TEXT
  6
CONTINUOUS
  2
STDGX5
 10
2752.559898
 20
123.00183800000001
 30
0.0
  0
INSERT
  5
69A
  8
81TEXT
  6
CONTINUOUS
  2
STDGX5
 10
2752.559898
 20
123.00183800000001
 30
0.0
  0
INSERT
  5
69C
  8
81TEXT
  6
CONTINUOUS
  2
STDGX5
 10
2396.9690000000001
 20
126.370113
 30
0.0
  0
INSERT
  5
69D
  8
81TEXT
  6
CONTINUOUS
  2
STDGX5
 10
2396.9690000000001
 20
126.370113
 30
0.0
  0
INSERT
  5
69F
  8
81TEXT
  6
CONTINUOUS
  2
STDGX5
 10
2755.6245260000001
 20
128.865568
 30
0.0
  0
INSERT
  5
6A0
  8
81TEXT
  6
CONTINUOUS
  2
STDGX5
 10
2755.6245260000001
 20
128.865568
 30
0.0
  0
INSERT
  5
6A1
  8
81TEXT
  6
CONTINUOUS
  2
STDGX5
 10
2396.9690000000001
 20
126.370113
 30
0.0
  0
INSERT
  5
6A3
  8
81TEXT
  6
CONTINUOUS
  2
STDGX5
 10
2058.697533
 20
108.596993
 30
0.0
  0
INSERT
  5
6A4
  8
81TEXT
  6
CONTINUOUS
  2
STDGX5
 10
2058.697533
 20
108.596993
 30
0.0
  0
INSERT
  5
6A6
  8
81TEXT
  6
CONTINUOUS
  2
STDGX5
 10
2411.8349950000002
 20
117.249808
 30
0.0
  0
INSERT
  5
6A7
  8
81TEXT
  6
CONTINUOUS
  2
STDGX5
 10
2411.8349950000002
 20
117.249808
 30
0.0
  0
INSERT
  5
6A9
  8
81TEXT
  6
CONTINUOUS
  2
STDGX5
 10
2770.4905210000011
 20
119.74526299999999
 30
0.0
  0
INSERT
  5
6AA
  8
81TEXT
  6
CONTINUOUS
  2
STDGX5
 10
2770.4905210000011
 20
119.74526299999999
 30
0.0
  0
INSERT
  5
6AB
  8
0
  6
CONTINUOUS
 62
     3
  2
STDGX5
 10
2388.929314
 20
112.242361
 30
0.0
  0
INSERT
  5
6AC
  8
0
  6
CONTINUOUS
 62
     4
  2
STDGX5
 10
2388.929314
 20
112.242361
 30
0.0
  0
INSERT
  5
6AD
  8
81TEXT
  6
CONTINUOUS
  2
STDGX5
 10
2058.697533
 20
108.596993
 30
0.0
  0
INSERT
  5
6AE
  8
81TEXT
  6
CONTINUOUS
  2
STDGX5
 10
2058.697533
 20
108.596993
 30
0.0
  0
INSERT
  5
6B0
  8
81TEXT
  6
CONTINUOUS
  2
STDGX5
 10
2062.0614500000001
 20
105.915711
 30
0.0
  0
INSERT
  5
6B1
  8
81TEXT
  6
CONTINUOUS
  2
STDGX5
 10
2062.0614500000001
 20
105.915711
 30
0.0
  0
INSERT
  5
6B3
  8
81TEXT
  6
CONTINUOUS
  2
STDGX5
 10
2420.7169760000002
 20
108.41116599999999
 30
0.0
  0
INSERT
  5
6B4
  8
81TEXT
  6
CONTINUOUS
  2
STDGX5
 10
2420.7169760000002
 20
108.41116599999999
 30
0.0
  0
INSERT
  5
6B5
  8
81TEXT
  6
CONTINUOUS
  2
STDGX5
 10
2062.0614500000001
 20
105.915711
 30
0.0
  0
INSERT
  5
6B7
  8
81TEXT
  6
CONTINUOUS
  2
STDGX5
 10
2063.8228779999999
 20
113.779532
 30
0.0
  0
INSERT
  5
6B9
  8
81TEXT
  6
CONTINUOUS
  2
STDGX5
 10
2055.1234469999999
 20
101.304682
 30
0.0
  0
INSERT
  5
6BA
  8
81TEXT
  6
CONTINUOUS
  2
STDGX5
 10
2055.1234469999999
 20
101.304682
 30
0.0
  0
INSERT
  5
6BC
  8
81TEXT
  6
CONTINUOUS
  2
STDGX5
 10
2391.3323
 20
111.110737
 30
0.0
  0
INSERT
  5
6BD
  8
81TEXT
  6
CONTINUOUS
  2
STDGX5
 10
2391.3323
 20
111.110737
 30
0.0
  0
INSERT
  5
6BF
  8
81TEXT
  6
CONTINUOUS
  2
STDGX5
 10
2749.9878250000002
 20
113.60619199999999
 30
0.0
  0
INSERT
  5
6C0
  8
81TEXT
  6
CONTINUOUS
  2
STDGX5
 10
2749.9878250000002
 20
113.60619199999999
 30
0.0
  0
INSERT
  5
6C2
  8
81TEXT
  6
CONTINUOUS
  2
STDGX5
 10
2394.3969280000001
 20
116.974467
 30
0.0
  0
INSERT
  5
6C3
  8
81TEXT
  6
CONTINUOUS
  2
STDGX5
 10
2394.3969280000001
 20
116.974467
 30
0.0
  0
INSERT
  5
6C5
  8
81TEXT
  6
CONTINUOUS
  2
STDGX5
 10
2753.0524529999998
 20
119.46992299999999
 30
0.0
  0
INSERT
  5
6C6
  8
81TEXT
  6
CONTINUOUS
  2
STDGX5
 10
2753.0524529999998
 20
119.46992299999999
 30
0.0
  0
INSERT
  5
6C7
  8
81TEXT
  6
CONTINUOUS
  2
STDGX5
 10
2394.3969280000001
 20
116.974467
 30
0.0
  0
INSERT
  5
6C8
  8
0
  2
STDGX5
 10
2076.0815499999999
 20
131.71683400000001
 30
0.0
 41
0.3
 42
0.3
 43
0.3
  0
INSERT
  5
6C9
  8
0
  2
STDGX5
 10
2076.0815499999999
 20
131.71683400000001
 30
0.0
 41
0.3
 42
0.3
 43
0.3
  0
INSERT
  5
6CA
  8
0
  2
STDGX5
 10
2094.2680839999998
 20
145.21683400000001
 30
0.0
 41
0.3
 42
0.3
 43
0.3
  0
INSERT
  5
6CB
  8
0
  2
STDGX5
 10
2262.888551
 20
173.57327100000001
 30
0.0
 41
0.3
 42
0.3
 43
0.3
  0
INSERT
  5
6CC
  8
0
  2
STDGX5
 10
2230.5170290000001
 20
203.44977499999999
 30
0.0
 41
0.3
 42
0.3
 43
0.3
  0
INSERT
  5
6CD
  8
0
  2
STDGX5
 10
2230.5170290000001
 20
203.44977499999999
 30
0.0
 41
0.3
 42
0.3
 43
0.3
  0
INSERT
  5
6CE
  8
0
  6
CONTINUOUS
 62
     3
  2
STDGX5
 10
2041.9286179999999
 20
103.41201
 30
0.0
  0
INSERT
  5
6CF
  8
0
  6
CONTINUOUS
 62
     4
  2
STDGX5
 10
2041.9286179999999
 20
103.41201
 30
0.0
  0
LINE
  5
6D0
  8
0
 10
184.60748599999999
 20
69.506118000000001
 30
0.0
 11
191.95595499999999
 21
69.506118000000001
 31
0.0
  0
LINE
  5
6D1
  8
0
 10
184.60748599999999
 20
78.506118000000001
 30
0.0
 11
184.60748599999999
 21
69.506118000000001
 31
0.0
  0
LINE
  5
6D2
  8
0
 10
191.95595499999999
 20
78.506118000000001
 30
0.0
 11
191.95595499999999
 21
69.506118000000001
 31
0.0
  0
LINE
  5
6D3
  8
0
 10
186.16040000000001
 20
78.506118000000001
 30
0.0
 11
186.16040000000001
 21
69.506118000000001
 31
0.0
  0
LINE
  5
6D4
  8
0
 10
166.84188399999999
 20
78.506118000000001
 30
0.0
 11
166.84188399999999
 21
69.506118000000001
 31
0.0
  0
LINE
  5
6D5
  8
0
 10
172.637439
 20
78.506118000000001
 30
0.0
 11
172.637439
 21
69.506118000000001
 31
0.0
  0
LINE
  5
6D6
  8
0
 10
165.28896900000001
 20
78.506118000000001
 30
0.0
 11
165.28896900000001
 21
69.506118000000001
 31
0.0
  0
LINE
  5
6D7
  8
0
 10
165.28896900000001
 20
69.506118000000001
 30
0.0
 11
172.637439
 21
69.506118000000001
 31
0.0
  0
ARC
  5
6D8
  8
1
 10
120.672906
 20
114.360921
 30
0.0
 40
59.999693000000001
 50
356.01782400000002
 51
33.982178000000012
  0
LINE
  5
6D9
  8
1
 10
154.48000400000001
 20
123.419506
 30
0.0
 11
202.77630400000001
 21
136.36046200000001
 31
0.0
  0
LINE
  5
6DA
  8
0
 10
119.55854600000001
 20
129.42158900000001
 30
0.0
 11
110.55854600000001
 21
129.42158900000001
 31
0.0
  0
LINE
  5
6DB
  8
0
 10
119.55854600000001
 20
123.626034
 30
0.0
 11
110.55854600000001
 21
123.626034
 31
0.0
  0
LINE
  5
6DC
  8
0
 10
119.55854600000001
 20
130.974503
 30
0.0
 11
110.55854600000001
 21
130.974503
 31
0.0
  0
LINE
  5
6DD
  8
0
 10
110.55854600000001
 20
136.15088399999999
 30
0.0
 11
110.55854600000001
 21
123.626034
 31
0.0
  0
LINE
  5
6DE
  8
0
 10
119.55854600000001
 20
134.59797
 30
0.0
 11
110.55854600000001
 21
134.59797
 31
0.0
  0
LINE
  5
6DF
  8
0
 10
119.55854600000001
 20
136.15088399999999
 30
0.0
 11
110.55854600000001
 21
136.15088399999999
 31
0.0
  0
LINE
  5
6E0
  8
0
 10
246.63724999999999
 20
130.35533000000001
 30
0.0
 11
255.63724999999999
 21
130.35533000000001
 31
0.0
  0
LINE
  5
6E1
  8
0
 10
246.63724999999999
 20
136.15088399999999
 30
0.0
 11
255.63724999999999
 21
136.15088399999999
 31
0.0
  0
LINE
  5
6E2
  8
0
 10
246.63724999999999
 20
128.802415
 30
0.0
 11
255.63724999999999
 21
128.802415
 31
0.0
  0
LINE
  5
6E3
  8
0
 10
255.63724999999999
 20
123.626034
 30
0.0
 11
255.63724999999999
 21
136.15088399999999
 31
0.0
  0
LINE
  5
6E4
  8
0
 10
246.63724999999999
 20
125.17894800000001
 30
0.0
 11
255.63724999999999
 21
125.17894800000001
 31
0.0
  0
LINE
  5
6E5
  8
0
 10
246.63724999999999
 20
123.626034
 30
0.0
 11
255.63724999999999
 21
123.626034
 31
0.0
  0
LINE
  5
6E6
  8
0
 10
172.637439
 20
193.74874800000001
 30
0.0
 11
165.28896900000001
 21
193.74874800000001
 31
0.0
  0
LINE
  5
6E7
  8
0
 10
172.637439
 20
184.74874800000001
 30
0.0
 11
172.637439
 21
193.74874800000001
 31
0.0
  0
LINE
  5
6E8
  8
0
 10
165.28896900000001
 20
184.74874800000001
 30
0.0
 11
165.28896900000001
 21
193.74874800000001
 31
0.0
  0
LINE
  5
6E9
  8
0
 10
171.08452399999999
 20
184.74874800000001
 30
0.0
 11
171.08452399999999
 21
193.74874800000001
 31
0.0
  0
LINE
  5
6EA
  8
0
 10
190.403041
 20
184.74874800000001
 30
0.0
 11
190.403041
 21
193.74874800000001
 31
0.0
  0
LINE
  5
6EB
  8
0
 10
184.60748599999999
 20
184.74874800000001
 30
0.0
 11
184.60748599999999
 21
193.74874800000001
 31
0.0
  0
LINE
  5
6EC
  8
0
 10
191.95595499999999
 20
184.74874800000001
 30
0.0
 11
191.95595499999999
 21
193.74874800000001
 31
0.0
  0
LINE
  5
6ED
  8
0
 10
191.95595499999999
 20
193.74874800000001
 30
0.0
 11
184.60748599999999
 21
193.74874800000001
 31
0.0
  0
ARC
  5
6EE
  8
0
 10
198.06156999999999
 20
183.24874800000001
 30
0.0
 40
2.5
 50
270.0
 51
0.0
  0
ARC
  5
6EF
  8
0
 10
159.11957000000001
 20
183.24874800000001
 30
0.0
 40
2.5
 50
180.0
 51
270.0
  0
LINE
  5
6F0
  8
0
 10
198.06156999999999
 20
180.74874800000001
 30
0.0
 11
159.11957000000001
 21
180.74874800000001
 31
0.0
  0
LINE
  5
6F1
  8
0
 10
200.56156999999999
 20
184.74874800000001
 30
0.0
 11
200.56156999999999
 21
183.24874800000001
 31
0.0
  0
LINE
  5
6F2
  8
0
 10
156.6195699999999
 20
184.74874800000001
 30
0.0
 11
200.56156999999999
 21
184.74874800000001
 31
0.0
  0
LINE
  5
6F3
  8
0
 10
156.6195699999999
 20
183.24874800000001
 30
0.0
 11
156.6195699999999
 21
184.74874800000001
 31
0.0
  0
LINE
  5
6F4
  8
0
 10
192.45463100000001
 20
184.74874800000001
 30
0.0
 11
192.45463100000001
 21
183.24874800000001
 31
0.0
  0
ARC
  5
6F5
  8
0
 10
189.95463100000001
 20
183.24874800000001
 30
0.0
 40
2.5
 50
270.0
 51
0.0
  0
INSERT
  5
6F6
  8
0
  2
STDGX5
 10
0.0
 20
0.0
 30
0.0
  0
TEXT
  5
861
  8
0
 62
     3
 10
0.0
 20
0.0
 30
0.0
 40
10.0
  1
ECPR48D30
  7
STANDARD1
  0
ENDSEC
  0
EOF
