  0
SECTION
  2
HEADER
  9
$ACADVER
  1
AC1009
  9
$INSBASE
 10
0.0
 20
0.0
 30
0.0
  9
$EXTMIN
 10
0.0
 20
-2.960436562073669
 30
0.0
  9
$EXTMAX
 10
271.92442342839178
 20
211.29734369212349
 30
0.0
  9
$LIMMIN
 10
0.0
 20
0.0
  9
$LIMMAX
 10
390.0
 20
270.0
  9
$ORTHOMODE
 70
     1
  9
$REGENMODE
 70
     1
  9
$FILLMODE
 70
     1
  9
$QTEXTMODE
 70
     0
  9
$MIRRTEXT
 70
     0
  9
$DRAGMODE
 70
     2
  9
$LTSCALE
 40
10.0
  9
$OSMODE
 70
  3071
  9
$ATTMODE
 70
     1
  9
$TEXTSIZE
 40
0.2
  9
$TRACEWID
 40
0.05
  9
$TEXTSTYLE
  7
STANDARD
  9
$CLAYER
  8
0
  9
$CELTYPE
  6
BYLAYER
  9
$CECOLOR
 62
   256
  9
$DIMSCALE
 40
1.0
  9
$DIMASZ
 40
3.0
  9
$DIMEXO
 40
1.0
  9
$DIMDLI
 40
6.0
  9
$DIMRND
 40
0.0
  9
$DIMDLE
 40
0.0
  9
$DIMEXE
 40
1.0
  9
$DIMTP
 40
495.0
  9
$DIMTM
 40
0.0
  9
$DIMTXT
 40
3.0
  9
$DIMCEN
 40
0.0
  9
$DIMTSZ
 40
0.0
  9
$DIMTOL
 70
     0
  9
$DIMLIM
 70
     0
  9
$DIMTIH
 70
     0
  9
$DIMTOH
 70
     0
  9
$DIMSE1
 70
     0
  9
$DIMSE2
 70
     0
  9
$DIMTAD
 70
     1
  9
$DIMZIN
 70
     0
  9
$DIMBLK
  1

  9
$DIMASO
 70
     0
  9
$DIMSHO
 70
     0
  9
$DIMPOST
  1

  9
$DIMAPOST
  1

  9
$DIMALT
 70
     0
  9
$DIMALTD
 70
     2
  9
$DIMALTF
 40
25.399999999999999
  9
$DIMLFAC
 40
1.0
  9
$DIMTOFL
 70
     1
  9
$DIMTVP
 40
0.0
  9
$DIMTIX
 70
     1
  9
$DIMSOXD
 70
     0
  9
$DIMSAH
 70
     0
  9
$DIMBLK1
  1

  9
$DIMBLK2
  1

  9
$DIMSTYLE
  2
STANDARD
  9
$DIMCLRD
 70
     0
  9
$DIMCLRE
 70
     0
  9
$DIMCLRT
 70
     0
  9
$DIMTFAC
 40
1.0
  9
$DIMGAP
 40
0.09
  9
$LUNITS
 70
     2
  9
$LUPREC
 70
     2
  9
$SKETCHINC
 40
0.1
  9
$FILLETRAD
 40
0.0
  9
$AUNITS
 70
     0
  9
$AUPREC
 70
     2
  9
$MENU
  1
E:\r13\win\SUPPORT\ACAD
  9
$ELEVATION
 40
0.0
  9
$PELEVATION
 40
0.0
  9
$THICKNESS
 40
0.0
  9
$LIMCHECK
 70
     0
  9
$BLIPMODE
 70
     0
  9
$CHAMFERA
 40
0.0
  9
$CHAMFERB
 40
0.0
  9
$SKPOLY
 70
     0
  9
$TDCREATE
 40
2449840.6557407412
  9
$TDUPDATE
 40
2456598.643557766
  9
$TDINDWG
 40
0.0132698148
  9
$TDUSRTIMER
 40
0.0132698148
  9
$USRTIMER
 70
     1
  9
$ANGBASE
 50
0.0
  9
$ANGDIR
 70
     0
  9
$PDMODE
 70
     0
  9
$PDSIZE
 40
0.0
  9
$PLINEWID
 40
0.0
  9
$COORDS
 70
     1
  9
$SPLFRAME
 70
     0
  9
$SPLINETYPE
 70
     6
  9
$SPLINESEGS
 70
     8
  9
$ATTDIA
 70
     0
  9
$ATTREQ
 70
     1
  9
$HANDLING
 70
     1
  9
$HANDSEED
  5
4E6
  9
$SURFTAB1
 70
     6
  9
$SURFTAB2
 70
     6
  9
$SURFTYPE
 70
     6
  9
$SURFU
 70
     6
  9
$SURFV
 70
     6
  9
$UCSNAME
  2

  9
$UCSORG
 10
0.0
 20
0.0
 30
0.0
  9
$UCSXDIR
 10
1.0
 20
0.0
 30
0.0
  9
$UCSYDIR
 10
0.0
 20
1.0
 30
0.0
  9
$PUCSNAME
  2

  9
$PUCSORG
 10
0.0
 20
0.0
 30
0.0
  9
$PUCSXDIR
 10
1.0
 20
0.0
 30
0.0
  9
$PUCSYDIR
 10
0.0
 20
1.0
 30
0.0
  9
$USERI1
 70
     3
  9
$USERI2
 70
     1
  9
$USERI3
 70
     0
  9
$USERI4
 70
     1
  9
$USERI5
 70
     0
  9
$USERR1
 40
1.0
  9
$USERR2
 40
3.0
  9
$USERR3
 40
3.0
  9
$USERR4
 40
3.0
  9
$USERR5
 40
10.0
  9
$WORLDVIEW
 70
     1
  9
$SHADEDGE
 70
     3
  9
$SHADEDIF
 70
    70
  9
$TILEMODE
 70
     1
  9
$MAXACTVP
 70
    16
  9
$PLIMCHECK
 70
     0
  9
$PEXTMIN
 10
1.0000000000000000E+020
 20
1.0000000000000000E+020
 30
1.0000000000000000E+020
  9
$PEXTMAX
 10
-1.0000000000000000E+020
 20
-1.0000000000000000E+020
 30
-1.0000000000000000E+020
  9
$PLIMMIN
 10
0.0
 20
0.0
  9
$PLIMMAX
 10
12.0
 20
9.0
  9
$UNITMODE
 70
     0
  9
$VISRETAIN
 70
     0
  9
$PLINEGEN
 70
     0
  9
$PSLTSCALE
 70
     0
  0
ENDSEC
  0
SECTION
  2
TABLES
  0
TABLE
  2
VPORT
 70
     1
  0
VPORT
  2
*ACTIVE
 70
     0
 10
0.0
 20
0.0
 11
1.0
 21
1.0
 12
202.55787946771341
 22
133.5127261426681
 13
0.0
 23
0.0
 14
10.0
 24
10.0
 15
10.0
 25
10.0
 16
0.0
 26
0.0
 36
1.0
 17
0.0
 27
0.0
 37
0.0
 40
275.42274993631997
 41
1.831871345029239
 42
50.0
 43
0.0
 44
0.0
 50
0.0
 51
0.0
 71
     0
 72
   100
 73
     1
 74
     0
 75
     0
 76
     0
 77
     0
 78
     0
  0
ENDTAB
  0
TABLE
  2
LTYPE
 70
     3
  0
LTYPE
  2
CONTINUOUS
 70
     0
  3
Solid Line
 72
    65
 73
     0
 40
0.0
  0
LTYPE
  2
CENTER
 70
     0
  3
____ _ ____ _ ____ _ ____ _ ____ _ ____ _ ____
 72
    65
 73
     4
 40
2.0
 49
1.25
 49
-0.25
 49
0.25
 49
-0.25
  0
LTYPE
  2
PHANTOM2
 70
     0
  3
___ _ _ ___ _ _ ___ _ _ ___ _ _
 72
    65
 73
     6
 40
1.25
 49
0.625
 49
-0.125
 49
0.125
 49
-0.125
 49
0.125
 49
-0.125
  0
ENDTAB
  0
TABLE
  2
LAYER
 70
     3
  0
LAYER
  2
0
 70
     0
 62
     7
  6
CONTINUOUS
  0
LAYER
  2
1
 70
     0
 62
     1
  6
CENTER
  0
LAYER
  2
ITEM_HILFE
 70
     0
 62
     3
  6
CONTINUOUS
  0
ENDTAB
  0
TABLE
  2
STYLE
 70
     2
  0
STYLE
  2
STANDARD
 70
     0
 40
0.0
 41
1.0
 50
0.0
 71
     0
 42
0.2
  3
TXT
  4
BIGFONT
  0
STYLE
  2
STANDARD1
 70
     0
 40
0.0
 41
1.0
 50
0.0
 71
     0
 42
3.0
  3
txt
  4

  0
ENDTAB
  0
TABLE
  2
VIEW
 70
     0
  0
ENDTAB
  0
TABLE
  2
UCS
 70
     0
  0
ENDTAB
  0
TABLE
  2
APPID
 70
    46
  0
APPID
  2
ACAD
 70
     0
  0
APPID
  2
GENIUS_GENOENT_13
 70
     0
  0
APPID
  2
GENIUS_GENODEF_13
 70
     0
  0
APPID
  2
GENIUS_GENOBJ-N-FIL_13
 70
     0
  0
APPID
  2
GENIUS_GENOBJ_13
 70
     0
  0
APPID
  2
GENIUS_GENOLIS_13
 70
     0
  0
APPID
  2
GENIUS_GENOREF_13
 70
     0
  0
APPID
  2
GENIUS_GENOBJ-N-CRS_13
 70
     0
  0
APPID
  2
GENIUS_GENOBJ-N-TIT_13
 70
     0
  0
APPID
  2
GENIUS_GENTITLE_13
 70
     0
  0
APPID
  2
GENIUS_GENZVEED_13
 70
     0
  0
APPID
  2
GENIUS_GENBH_13
 70
     0
  0
APPID
  2
GENIUS_GENOBJ-NBEHI-BHF_13
 70
     0
  0
APPID
  2
GENIUS_GENOBJ-NBEHI-BHB_13
 70
     0
  0
APPID
  2
GENIUS_GENOBJ-F-PART_13
 70
     0
  0
APPID
  2
GENIUS_GEFSTDP_13
 70
     0
  0
APPID
  2
GENIUS_GENOBJ-N-ZOO_13
 70
     0
  0
APPID
  2
GENIUS_GENZOO_13
 70
     0
  0
APPID
  2
GENIUS_GENOBJ-N-LEADER_13
 70
     0
  0
APPID
  2
GENIUS_GEFINERT_13
 70
     0
  0
APPID
  2
GENIUS_GENOBJ-F-INER_13
 70
     0
  0
APPID
  2
GENIUS_GENOBJ-N-REV_13
 70
     0
  0
APPID
  2
GENIUS_GENOBJ-N-RSSYM_13
 70
     0
  0
APPID
  2
GENIUS_GENSYMENT_13
 70
     0
  0
APPID
  2
GENIUS_GENOBJ-F-TOL_13
 70
     0
  0
APPID
  2
GENIUS_GENREC_13
 70
     0
  0
APPID
  2
GENIUS_GENOBJ-N-REC_13
 70
     0
  0
APPID
  2
GENIUS_GENOBJ-N-CEN_13
 70
     0
  0
APPID
  2
GEVIT
 70
     0
  0
APPID
  2
GENIUS_GENOBJ-N-SEC_13
 70
     0
  0
APPID
  2
GENIUS_GENOBJ-F-ROD_13
 70
     0
  0
APPID
  2
GENIUS_GENOBJ-F-SPR_13
 70
     0
  0
APPID
  2
GENIUS_GEFSPRING_13
 70
     0
  0
APPID
  2
GENIUS_GENOBJ-N-FITL_13
 70
     0
  0
APPID
  2
GENIUS_GENFIL_13
 70
     0
  0
APPID
  2
GENIUS_GENOBJ-N-CHA_13
 70
     0
  0
APPID
  2
GENIUS_GENOBJ-F-EDG_13
 70
     0
  0
APPID
  2
GENIUS_GEFPARTINS_13
 70
     0
  0
APPID
  2
GENIUS_GENCFG_13
 70
     0
  0
APPID
  2
GENIUS_GEVCFG0_13
 70
     0
  0
APPID
  2
GENIUS_GENCFG0_13
 70
     0
  0
APPID
  2
GENIUS_GENCFG1_13
 70
     0
  0
APPID
  2
GENIUS_GENCFG2_13
 70
     0
  0
APPID
  2
GENIUS_GENCFG3_13
 70
     0
  0
APPID
  2
ACAD_MLEADERVER
 70
     0
  0
APPID
  2
ACAD_NAV_VCDISPLAY
 70
     0
  0
ENDTAB
  0
TABLE
  2
DIMSTYLE
 70
     1
  0
DIMSTYLE
  2
STANDARD
 70
     0
  3

  4

  5

  6

  7

 40
1.0
 41
0.18
 42
0.0625
 43
0.38
 44
0.18
 45
0.0
 46
0.0
 47
0.0
 48
0.0
140
0.18
141
0.09
142
0.0
143
25.399999999999999
144
1.0
145
0.0
146
1.0
147
0.09
 71
     0
 72
     0
 73
     1
 74
     1
 75
     0
 76
     0
 77
     0
 78
     0
170
     0
171
     2
172
     0
173
     0
174
     0
175
     0
176
     0
177
     0
178
     0
  0
ENDTAB
  0
ENDSEC
  0
SECTION
  2
BLOCKS
  0
BLOCK
  8
0
  2
$MODEL_SPACE
 70
     0
 10
0.0
 20
0.0
 30
0.0
  3
$MODEL_SPACE
  1

  0
ENDBLK
  5
330
  8
0
  0
BLOCK
 67
     1
  8
0
  2
$PAPER_SPACE
 70
     0
 10
0.0
 20
0.0
 30
0.0
  3
$PAPER_SPACE
  1

  0
ENDBLK
  5
32E
 67
     1
  8
0
  0
BLOCK
  8
0
  2
ACAD
 70
     0
 10
0.0
 20
0.0
 30
0.0
  3
ACAD
  1

  0
ENDBLK
  5
2E
  8
0
  0
BLOCK
  8
0
  2
37346B
 70
     0
 10
0.0
 20
0.0
 30
0.0
  3
37346B
  1

  0
ENDBLK
  5
30
  8
0
  0
BLOCK
  8
0
  2
37390B
 70
     0
 10
0.0
 20
0.0
 30
0.0
  3
37390B
  1

  0
ENDBLK
  5
32
  8
0
  0
BLOCK
  8
0
  2
STDGX5
 70
     0
 10
0.0
 20
0.0
 30
0.0
  3
STDGX5
  1

  0
ENDBLK
  5
206
  8
0
  0
ENDSEC
  0
SECTION
  2
ENTITIES
  0
INSERT
  5
3E
  8
0
  2
ACAD
 10
-39.07825600000001
 20
-31.896606999999999
 30
0.0
  0
INSERT
  5
3F
  8
ITEM_HILFE
  2
ACAD
 10
144.12264200000001
 20
106.69976
 30
0.0
  0
INSERT
  5
40
  8
0
  2
ACAD
 10
340.68383799999998
 20
295.48077899999998
 30
0.0
  0
INSERT
  5
41
  8
0
  2
37346B
 10
139.52114700000001
 20
-10.988166
 30
0.0
  0
INSERT
  5
42
  8
0
  2
37390B
 10
139.52114700000001
 20
-10.988166
 30
0.0
  0
INSERT
  5
43
  8
0
  2
37346B
 10
139.52114700000001
 20
-10.988166
 30
0.0
  0
INSERT
  5
44
  8
0
  2
37390B
 10
139.52114700000001
 20
-10.988166
 30
0.0
  0
INSERT
  5
45
  8
0
  2
37346B
 10
158.30576199999999
 20
396.68875700000001
 30
0.0
  0
INSERT
  5
46
  8
0
  2
37390B
 10
158.30576199999999
 20
396.68875700000001
 30
0.0
  0
INSERT
  5
47
  8
0
  2
37346B
 10
158.30576199999999
 20
396.68875700000001
 30
0.0
  0
INSERT
  5
48
  8
0
  2
37390B
 10
158.30576199999999
 20
396.68875700000001
 30
0.0
  0
INSERT
  5
49
  8
0
  2
37390B
 10
652.92548599999986
 20
307.17464999999999
 30
0.0
  0
LINE
  5
176
  8
1
 10
115.12414293686891
 20
108.597343694722
 30
0.0
 11
115.124142936886
 21
211.29734369208569
 31
0.0
1001
GENIUS_GENODEF_13
1002
{
1000
HIER
1070
     0
1002
}
1002
{
1000
MANEDIT
1070
     0
1002
}
1002
{
1000
NOSEL
1070
     0
1002
}
1002
{
1000
BEHIND
1070
     0
1002
}
1002
{
1000
REACTOR
1002
}
1001
GENIUS_GENOBJ-N-CEN_13
1002
{
1000
OWNER
1000
GEN
1002
}
  0
LINE
  5
187
  8
0
 10
202.0247039200697
 20
82.193385798118527
 30
0.0
 11
202.02470392007399
 21
76.69338579811
 31
0.0
  0
LINE
  5
188
  8
0
 10
208.22470392007051
 20
82.193385798122165
 30
0.0
 11
208.22470392007381
 21
76.693385798113638
 31
0.0
  0
LINE
  5
189
  8
1
 10
205.124703920065
 20
91.193385798111336
 30
0.0
 11
205.1247039200789
 21
68.193385798111819
 31
0.0
  0
LINE
  5
18A
  8
0
 10
208.22470392007381
 20
76.693385798113638
 30
0.0
 11
202.02470392007399
 21
76.69338579810875
 31
0.0
  0
LINE
  5
18B
  8
0
 10
202.8247039201575
 20
73.193385798110569
 30
0.0
 11
207.42470391999029
 21
73.19338579811307
 31
0.0
  0
LINE
  5
18C
  8
0
 10
208.22470392007381
 20
76.693385798132056
 30
0.0
 11
207.42470391999029
 21
73.19338579811307
 31
0.0
  0
LINE
  5
18E
  8
0
 10
202.0247039200739
 20
76.693385798128645
 30
0.0
 11
202.8247039201614
 21
73.193385798110569
 31
0.0
  0
LINE
  5
193
  8
0
 10
96.324423428495862
 20
129.49784875591951
 30
0.0
 11
96.324423428451084
 21
202.29734369207381
 31
0.0
  0
ARC
  5
194
  8
0
 10
109.8244234284733
 20
162.31769537217221
 30
0.0
 40
7.9999999999343059
 50
135.0000000006807
 51
180.0000000006134
  0
ARC
  5
196
  8
0
 10
109.8244234285559
 20
135.87699201232249
 30
0.0
 40
8.0
 50
180.00000000004019
 51
224.99999999997141
  0
LINE
  5
197
  8
0
 10
107.3462480272303
 20
116.819169907708
 30
0.0
 11
97.495996303751468
 21
126.6694216311739
 31
0.0
  0
ARC
  5
198
  8
0
 10
115.3244234285057
 20
122.5973436922293
 30
0.0
 40
8.9999999999656666
 50
270.00000000000108
 51
26.041649952309189
  0
ARC
  5
199
  8
0
 10
115.1244234287791
 20
124.59734369226361
 30
0.0
 40
11.00000000000022
 50
224.99999404443341
 51
270.00000000003371
  0
LINE
  5
19A
  8
0
 10
115.32442342850629
 20
113.59734369226361
 30
0.0
 11
115.1244234287861
 21
113.59734369226339
 31
0.0
  0
LINE
  5
19B
  8
0
 10
107.3462488357319
 20
116.81916909920641
 30
0.0
 11
107.3462480272303
 21
116.819169907708
 31
0.0
  0
LINE
  5
19C
  8
0
 10
109.0472174996795
 20
126.99734369171409
 30
0.0
 11
122.6919196112627
 21
126.9973436917502
 31
0.0
  0
ARC
  5
19D
  8
0
 10
122.69191961126501
 20
126.1973436917504
 30
0.0
 40
0.8
 50
26.04164995223309
 51
90.00000000015747
1001
GENIUS_GENODEF_13
1002
{
1000
HIER
1070
     0
1002
}
1002
{
1000
MANEDIT
1070
     0
1002
}
1002
{
1000
NOSEL
1070
     0
1002
}
1002
{
1000
BEHIND
1070
     0
1002
}
1002
{
1000
REACTOR
1002
}
1001
GENIUS_GENOBJ-N-FIL_13
1002
{
1000
OWNER
1000
GEN
1002
}
  0
LINE
  5
19E
  8
0
 10
104.16756917906061
 20
130.22013776283291
 30
0.0
 11
106.2187903749203
 21
128.16891656697001
 31
0.0
  0
ARC
  5
19F
  8
0
 10
109.0472174996688
 20
130.99734369171441
 30
0.0
 40
4.0000000000002727
 50
224.9999999999622
 51
270.00000000015092
  0
LINE
  5
1A0
  8
0
 10
101.82442342853901
 20
162.31769537208669
 30
0.0
 11
101.8244234285559
 21
135.87699201231709
 31
0.0
  0
ARC
  5
1A1
  8
0
 10
100.32442342849581
 20
129.49784875592201
 30
0.0
 40
4.0
 50
180.00000000003359
 51
225.0000000000359
1001
GENIUS_GENODEF_13
1002
{
1000
HIER
1070
     0
1002
}
1002
{
1000
MANEDIT
1070
     0
1002
}
1002
{
1000
NOSEL
1070
     0
1002
}
1002
{
1000
BEHIND
1070
     0
1002
}
1002
{
1000
REACTOR
1002
}
1001
GENIUS_GENOBJ-N-FIL_13
1002
{
1000
OWNER
1000
GEN
1002
}
  0
LINE
  5
1A4
  8
0
 10
100.3244234284473
 20
206.29734369207631
 30
0.0
 11
131.1244234284473
 21
206.29734369209589
 31
0.0
  0
ARC
  5
1A5
  8
0
 10
131.1244234284039
 20
202.2973436920806
 30
0.0
 40
4.0000000000153468
 50
0.000000000255076
 51
89.999999999375774
  0
ARC
  5
1A6
  8
0
 10
132.62442342846921
 20
171.8529053212979
 30
0.0
 40
2.4999999999998859
 50
269.99999999987728
 51
0.0000000000336531
  0
LINE
  5
1A7
  8
0
 10
135.12442342841919
 20
202.29734369209839
 30
0.0
 11
135.12442342846899
 21
171.85290532129949
 31
0.0
  0
LINE
  5
1A8
  8
0
 10
125.0575407950455
 20
171.19734369270941
 30
0.0
 11
109.0472174995739
 21
171.19734369269901
 31
0.0
  0
LINE
  5
1A9
  8
0
 10
132.6244234284637
 20
169.35290532129801
 30
0.0
 11
126.6575407950442
 21
169.35290532131091
 31
0.0
  0
ARC
  5
1AA
  8
0
 10
126.657540795046
 20
170.1529053213107
 30
0.0
 40
0.799999999999841
 50
180.00000000002061
 51
269.99999999987091
  0
LINE
  5
1AB
  8
0
 10
125.85754079504621
 20
170.15290532131041
 30
0.0
 11
125.85754079504611
 21
170.39734369271
 31
0.0
  0
ARC
  5
1AC
  8
0
 10
125.05754079504609
 20
170.39734369270931
 30
0.0
 40
0.8000000000000682
 50
0.0000000000466827
 51
90.000000000040188
  0
ARC
  5
1AD
  8
0
 10
109.0472174995765
 20
167.19734369269901
 30
0.0
 40
4.0
 50
90.000000000040188
 51
135.0000000003399
  0
LINE
  5
1AE
  8
0
 10
106.21879037481359
 20
170.02577081742859
 30
0.0
 11
104.16756917896031
 21
167.97454962155109
 31
0.0
  0
ARC
  5
1AF
  8
0
 10
100.3244234284529
 20
202.29734369207461
 30
0.0
 40
4.0000000000018181
 50
90.000000000079297
 51
180.00000000000759
  0
ARC
  5
1B4
  8
0
 10
222.62498441164871
 20
83.693385798121696
 30
0.0
 40
2.5
 50
0.000000000032534
 51
90.000000000032514
  0
LINE
  5
1B5
  8
0
 10
225.12498441164959
 20
82.193385798123188
 30
0.0
 11
225.12498441164871
 21
83.693385798123188
 31
0.0
  0
LINE
  5
1B6
  8
0
 10
222.6249844116472
 20
86.193385798121767
 30
0.0
 11
188.82498441166331
 21
86.193385798101588
 31
0.0
  0
ARC
  5
1B7
  8
0
 10
188.8249844116649
 20
83.693385798101701
 30
0.0
 40
2.5
 50
90.000000000032514
 51
180.00000000003249
  0
LINE
  5
1B8
  8
0
 10
225.12498441164959
 20
82.193385798123188
 30
0.0
 11
186.32498441166581
 21
82.193385798100223
 31
0.0
  0
LINE
  5
1B9
  8
0
 10
186.32498441166581
 20
82.193385798100223
 30
0.0
 11
186.3249844116649
 21
83.693385798100223
 31
0.0
  0
LINE
  5
1DD
  8
1
 10
205.12470392002041
 20
108.5973436947597
 30
0.0
 11
205.1247039200033
 21
211.29734369212349
 31
0.0
1001
GENIUS_GENODEF_13
1002
{
1000
HIER
1070
     0
1002
}
1002
{
1000
MANEDIT
1070
     0
1002
}
1002
{
1000
NOSEL
1070
     0
1002
}
1002
{
1000
BEHIND
1070
     0
1002
}
1002
{
1000
REACTOR
1002
}
1001
GENIUS_GENOBJ-N-CEN_13
1002
{
1000
OWNER
1000
GEN
1002
}
  0
LINE
  5
1DE
  8
0
 10
185.1244234284701
 20
202.29734369213611
 30
0.0
 11
185.1244234284203
 21
171.8529053213372
 31
0.0
  0
LINE
  5
1DF
  8
0
 10
223.92442342839351
 20
129.49784875595731
 30
0.0
 11
223.92442342843819
 21
202.2973436921115
 31
0.0
  0
ARC
  5
1E0
  8
0
 10
189.1244234284853
 20
202.29734369211829
 30
0.0
 40
4.0000000000153468
 50
90.000000000624212
 51
179.99999999974489
  0
LINE
  5
1E1
  8
0
 10
219.924423428442
 20
206.29734369211411
 30
0.0
 11
189.12442342844199
 21
206.29734369213361
 31
0.0
  0
ARC
  5
1E3
  8
0
 10
219.9244234284364
 20
202.29734369211229
 30
0.0
 40
4.0000000000018181
 50
359.99999999999238
 51
89.999999999920703
  0
LINE
  5
1E4
  8
0
 10
187.6244234284255
 20
169.3529053213357
 30
0.0
 11
193.5913060618451
 21
169.3529053213486
 31
0.0
  0
ARC
  5
1E6
  8
0
 10
187.6244234284201
 20
171.85290532133561
 30
0.0
 40
2.4999999999998859
 50
179.99999999996629
 51
270.00000000012272
  0
ARC
  5
1E7
  8
0
 10
205.12442342811019
 20
124.59734369230129
 30
0.0
 40
11.00000000000022
 50
269.99999999996629
 51
315.00000595556668
  0
ARC
  5
1E8
  8
0
 10
204.92442342838359
 20
122.597343692267
 30
0.0
 40
8.9999999999656666
 50
153.9583500476985
 51
269.99999999999892
  0
LINE
  5
1E9
  8
0
 10
218.4244234283502
 20
162.3176953721244
 30
0.0
 11
218.4244234283334
 21
135.8769920123548
 31
0.0
  0
ARC
  5
1EA
  8
0
 10
210.42442342841599
 20
162.3176953722099
 30
0.0
 40
7.9999999999343059
 50
359.9999999993866
 51
44.999999999319257
  0
LINE
  5
1EB
  8
0
 10
214.03005648207571
 20
170.02577081746631
 30
0.0
 11
216.08127767792899
 21
167.97454962158881
 31
0.0
  0
LINE
  5
1EC
  8
0
 10
195.1913060618437
 20
171.1973436927471
 30
0.0
 11
211.2016293573154
 21
171.19734369273681
 31
0.0
  0
ARC
  5
1ED
  8
0
 10
195.19130606184319
 20
170.397343692747
 30
0.0
 40
0.8000000000000682
 50
89.999999999959797
 51
179.9999999999533
  0
LINE
  5
1EE
  8
0
 10
194.39130606184301
 20
170.1529053213481
 30
0.0
 11
194.3913060618431
 21
170.39734369274771
 31
0.0
  0
ARC
  5
1EF
  8
0
 10
193.59130606184331
 20
170.1529053213485
 30
0.0
 40
0.799999999999841
 50
270.00000000012921
 51
359.99999999997942
  0
ARC
  5
1F0
  8
0
 10
211.20162935731281
 20
167.19734369273669
 30
0.0
 40
4.0
 50
44.999999999660112
 51
89.999999999959797
  0
LINE
  5
1F1
  8
0
 10
212.9025988296589
 20
116.8191699077457
 30
0.0
 11
222.75285055313779
 21
126.66942163121161
 31
0.0
  0
ARC
  5
1F2
  8
0
 10
210.4244234283334
 20
135.8769920123602
 30
0.0
 40
8.0
 50
315.00000000002848
 51
359.99999999995981
  0
ARC
  5
1F3
  8
0
 10
197.55692724562419
 20
126.19734369178811
 30
0.0
 40
0.8
 50
89.999999999842515
 51
153.9583500477747
1001
GENIUS_GENODEF_13
1002
{
1000
HIER
1070
     0
1002
}
1002
{
1000
MANEDIT
1070
     0
1002
}
1002
{
1000
NOSEL
1070
     0
1002
}
1002
{
1000
BEHIND
1070
     0
1002
}
1002
{
1000
REACTOR
1002
}
1001
GENIUS_GENOBJ-N-FIL_13
1002
{
1000
OWNER
1000
GEN
1002
}
  0
LINE
  5
1F4
  8
0
 10
211.20162935720981
 20
126.99734369175179
 30
0.0
 11
197.5569272456265
 21
126.9973436917879
 31
0.0
  0
ARC
  5
1F5
  8
0
 10
211.2016293572205
 20
130.99734369175209
 30
0.0
 40
4.0000000000002727
 50
269.99999999984908
 51
315.00000000003769
  0
LINE
  5
1F6
  8
0
 10
216.08127767782869
 20
130.22013776287059
 30
0.0
 11
214.0300564819689
 21
128.1689165670077
 31
0.0
  0
LINE
  5
1F7
  8
0
 10
212.90259802115739
 20
116.81916909924411
 30
0.0
 11
212.9025988296589
 21
116.8191699077457
 31
0.0
  0
ARC
  5
1F8
  8
0
 10
219.92442342839351
 20
129.49784875595969
 30
0.0
 40
4.0
 50
314.99999999996407
 51
359.99999999996629
1001
GENIUS_GENODEF_13
1002
{
1000
HIER
1070
     0
1002
}
1002
{
1000
MANEDIT
1070
     0
1002
}
1002
{
1000
NOSEL
1070
     0
1002
}
1002
{
1000
BEHIND
1070
     0
1002
}
1002
{
1000
REACTOR
1002
}
1001
GENIUS_GENOBJ-N-FIL_13
1002
{
1000
OWNER
1000
GEN
1002
}
  0
LINE
  5
1F9
  8
0
 10
204.92442342838299
 20
113.59734369230129
 30
0.0
 11
205.12442342810311
 21
113.5973436923011
 31
0.0
  0
INSERT
  5
2A4
  8
0
  2
STDGX5
 10
0.0
 20
0.0
 30
0.0
  0
INSERT
  5
2A5
  8
0
  2
STDGX5
 10
0.0
 20
0.0
 30
0.0
  0
INSERT
  5
2A6
  8
0
  2
STDGX5
 10
275.0
 20
0.0
 30
0.0
  0
INSERT
  5
2A7
  8
0
  2
STDGX5
 10
275.0
 20
0.0
 30
0.0
  0
LINE
  5
2BB
  8
0
 10
253.92442342845101
 20
203.79734369204621
 30
0.0
 11
253.9244234283791
 21
116.0973436922287
 31
0.0
  0
LINE
  5
2BC
  8
0
 10
257.92442342872789
 20
113.597343692226
 30
0.0
 11
257.92442342843788
 21
206.29734369204351
 31
0.0
  0
LINE
  5
2BD
  8
0
 10
256.42442342837728
 20
113.5973436922189
 30
0.0
 11
257.92442342837739
 21
113.597343692226
 31
0.0
  0
ARC
  5
2BE
  8
0
 10
256.42442342837808
 20
116.09734369221781
 30
0.0
 40
2.4999999999989759
 50
179.99999999975239
 51
269.99999999998039
  0
LINE
  5
2BF
  8
1
 10
271.92442342839041
 20
127.6711235512452
 30
0.0
 11
248.92442342838871
 21
127.67112355125511
 31
0.0
  0
LINE
  5
2C0
  8
0
 10
266.92442342863791
 20
126.27112355125161
 30
0.0
 11
266.92442342863978
 21
129.07112355125079
 31
0.0
  0
LINE
  5
2C1
  8
0
 10
263.42442342863762
 20
125.6711235512513
 30
0.0
 11
263.4244234286403
 21
129.67112355124939
 31
0.0
  0
LINE
  5
2C2
  8
0
 10
266.92442342863791
 20
126.27112355125161
 30
0.0
 11
263.42442342863762
 21
125.6711235512512
 31
0.0
  0
LINE
  5
2C3
  8
0
 10
263.42442342863762
 20
125.6711235512512
 30
0.0
 11
257.92442342869009
 21
125.6711235512504
 31
0.0
  0
LINE
  5
2C4
  8
0
 10
263.4244234286403
 20
129.67112355124939
 30
0.0
 11
266.92442342863978
 21
129.07112355125079
 31
0.0
  0
LINE
  5
2C5
  8
0
 10
257.92442342869151
 20
129.67112355124931
 30
0.0
 11
263.4244234286403
 21
129.67112355124939
 31
0.0
  0
ARC
  5
2C6
  8
0
 10
256.4244234284501
 20
203.79734369204539
 30
0.0
 40
2.4999999999990901
 50
90.000000000280096
 51
179.99999999998701
  0
LINE
  5
2C7
  8
1
 10
271.92442342839178
 20
186.2973436920395
 30
0.0
 11
248.9244234284368
 21
186.29734369204959
 31
0.0
1001
GENIUS_GENODEF_13
1002
{
1000
HIER
1070
     0
1002
}
1002
{
1000
MANEDIT
1070
     0
1002
}
1002
{
1000
NOSEL
1070
     0
1002
}
1002
{
1000
BEHIND
1070
     0
1002
}
1002
{
1000
REACTOR
1002
}
1001
GENIUS_GENOBJ-N-CEN_13
1002
{
1000
OWNER
1000
GEN
1002
}
  0
LINE
  5
2C8
  8
0
 10
263.42442342839411
 20
189.39734369203649
 30
0.0
 11
266.92442342839308
 21
188.59734369203889
 31
0.0
  0
LINE
  5
2C9
  8
0
 10
263.4244234283899
 20
183.19734369204949
 30
0.0
 11
266.92442342839001
 21
183.99734369204231
 31
0.0
  0
LINE
  5
2CA
  8
0
 10
266.92442342839308
 20
188.59734369203889
 30
0.0
 11
266.92442342839041
 21
183.99734369204231
 31
0.0
  0
LINE
  5
2CB
  8
0
 10
263.4244234283899
 20
183.19734369204949
 30
0.0
 11
263.42442342839411
 21
189.3973436920493
 31
0.0
  0
LINE
  5
2CC
  8
0
 10
263.4244234283899
 20
183.19734369204949
 30
0.0
 11
257.92442342841173
 21
183.19734369205321
 31
0.0
  0
LINE
  5
2CD
  8
0
 10
263.42442342839411
 20
189.39734369203649
 30
0.0
 11
257.92442342841588
 21
189.39734369204029
 31
0.0
  0
LINE
  5
2CE
  8
0
 10
263.42442342839382
 20
189.3973436920493
 30
0.0
 11
257.92442342841582
 21
189.397343692053
 31
0.0
  0
LINE
  5
2CF
  8
0
 10
257.92442342843788
 20
206.29734369204351
 30
0.0
 11
256.42442342843788
 21
206.29734369204459
 31
0.0
  0
LINE
  5
2D1
  8
0
 10
195.92442342843941
 20
86.193385798105822
 30
0.0
 11
195.9244234284418
 21
82.193385798105908
 31
0.0
  0
TEXT
  5
451
  8
0
 62
     3
 10
0.0
 20
0.0
 30
0.0
 40
10.0
  1
ECPC9339
  7
STANDARD1
  0
ENDSEC
  0
EOF
