  0
SECTION
  2
HEADER
  9
$ACADVER
  1
AC1009
  9
$INSBASE
 10
0.0
 20
0.0
 30
0.0
  9
$EXTMIN
 10
0.0
 20
-2.960436562073669
 30
0.0
  9
$EXTMAX
 10
263.75135399999999
 20
226.608721
 30
0.0
  9
$LIMMIN
 10
0.0
 20
0.0
  9
$LIMMAX
 10
390.0
 20
270.0
  9
$ORTHOMODE
 70
     1
  9
$REGENMODE
 70
     1
  9
$FILLMODE
 70
     1
  9
$QTEXTMODE
 70
     0
  9
$MIRRTEXT
 70
     0
  9
$DRAGMODE
 70
     2
  9
$LTSCALE
 40
10.0
  9
$OSMODE
 70
  3071
  9
$ATTMODE
 70
     1
  9
$TEXTSIZE
 40
0.2
  9
$TRACEWID
 40
0.05
  9
$TEXTSTYLE
  7
STANDARD
  9
$CLAYER
  8
0
  9
$CELTYPE
  6
BYLAYER
  9
$CECOLOR
 62
   256
  9
$DIMSCALE
 40
1.0
  9
$DIMASZ
 40
3.0
  9
$DIMEXO
 40
2.0
  9
$DIMDLI
 40
0.38
  9
$DIMRND
 40
0.0
  9
$DIMDLE
 40
0.0
  9
$DIMEXE
 40
2.0
  9
$DIMTP
 40
0.0
  9
$DIMTM
 40
0.0
  9
$DIMTXT
 40
3.0
  9
$DIMCEN
 40
0.0
  9
$DIMTSZ
 40
0.0
  9
$DIMTOL
 70
     0
  9
$DIMLIM
 70
     0
  9
$DIMTIH
 70
     0
  9
$DIMTOH
 70
     0
  9
$DIMSE1
 70
     0
  9
$DIMSE2
 70
     0
  9
$DIMTAD
 70
     1
  9
$DIMZIN
 70
     0
  9
$DIMBLK
  1

  9
$DIMASO
 70
     0
  9
$DIMSHO
 70
     0
  9
$DIMPOST
  1

  9
$DIMAPOST
  1

  9
$DIMALT
 70
     0
  9
$DIMALTD
 70
     2
  9
$DIMALTF
 40
25.399999999999999
  9
$DIMLFAC
 40
1.0
  9
$DIMTOFL
 70
     1
  9
$DIMTVP
 40
1.6000000000000001
  9
$DIMTIX
 70
     1
  9
$DIMSOXD
 70
     0
  9
$DIMSAH
 70
     0
  9
$DIMBLK1
  1

  9
$DIMBLK2
  1

  9
$DIMSTYLE
  2
STANDARD
  9
$DIMCLRD
 70
     0
  9
$DIMCLRE
 70
     0
  9
$DIMCLRT
 70
     0
  9
$DIMTFAC
 40
1.0
  9
$DIMGAP
 40
0.09
  9
$LUNITS
 70
     2
  9
$LUPREC
 70
     4
  9
$SKETCHINC
 40
0.1
  9
$FILLETRAD
 40
0.0
  9
$AUNITS
 70
     0
  9
$AUPREC
 70
     4
  9
$MENU
  1
E:\r13\win\SUPPORT\ACAD
  9
$ELEVATION
 40
0.0
  9
$PELEVATION
 40
0.0
  9
$THICKNESS
 40
0.0
  9
$LIMCHECK
 70
     0
  9
$BLIPMODE
 70
     0
  9
$CHAMFERA
 40
0.0
  9
$CHAMFERB
 40
0.0
  9
$SKPOLY
 70
     0
  9
$TDCREATE
 40
2449840.656203704
  9
$TDUPDATE
 40
2456598.6435068292
  9
$TDINDWG
 40
0.0001161921
  9
$TDUSRTIMER
 40
0.0001161921
  9
$USRTIMER
 70
     1
  9
$ANGBASE
 50
0.0
  9
$ANGDIR
 70
     0
  9
$PDMODE
 70
     0
  9
$PDSIZE
 40
0.0
  9
$PLINEWID
 40
0.0
  9
$COORDS
 70
     1
  9
$SPLFRAME
 70
     0
  9
$SPLINETYPE
 70
     6
  9
$SPLINESEGS
 70
     8
  9
$ATTDIA
 70
     0
  9
$ATTREQ
 70
     1
  9
$HANDLING
 70
     1
  9
$HANDSEED
  5
274
  9
$SURFTAB1
 70
     6
  9
$SURFTAB2
 70
     6
  9
$SURFTYPE
 70
     6
  9
$SURFU
 70
     6
  9
$SURFV
 70
     6
  9
$UCSNAME
  2

  9
$UCSORG
 10
0.0
 20
0.0
 30
0.0
  9
$UCSXDIR
 10
1.0
 20
0.0
 30
0.0
  9
$UCSYDIR
 10
0.0
 20
1.0
 30
0.0
  9
$PUCSNAME
  2

  9
$PUCSORG
 10
0.0
 20
0.0
 30
0.0
  9
$PUCSXDIR
 10
1.0
 20
0.0
 30
0.0
  9
$PUCSYDIR
 10
0.0
 20
1.0
 30
0.0
  9
$USERI1
 70
     3
  9
$USERI2
 70
     1
  9
$USERI3
 70
     0
  9
$USERI4
 70
     0
  9
$USERI5
 70
     0
  9
$USERR1
 40
1.0
  9
$USERR2
 40
3.0
  9
$USERR3
 40
3.0
  9
$USERR4
 40
3.0
  9
$USERR5
 40
10.0
  9
$WORLDVIEW
 70
     1
  9
$SHADEDGE
 70
     3
  9
$SHADEDIF
 70
    70
  9
$TILEMODE
 70
     1
  9
$MAXACTVP
 70
    16
  9
$PLIMCHECK
 70
     0
  9
$PEXTMIN
 10
1.0000000000000000E+020
 20
1.0000000000000000E+020
 30
1.0000000000000000E+020
  9
$PEXTMAX
 10
-1.0000000000000000E+020
 20
-1.0000000000000000E+020
 30
-1.0000000000000000E+020
  9
$PLIMMIN
 10
0.0
 20
0.0
  9
$PLIMMAX
 10
12.0
 20
9.0
  9
$UNITMODE
 70
     0
  9
$VISRETAIN
 70
     0
  9
$PLINEGEN
 70
     0
  9
$PSLTSCALE
 70
     0
  0
ENDSEC
  0
SECTION
  2
TABLES
  0
TABLE
  2
VPORT
 70
     1
  0
VPORT
  2
*ACTIVE
 70
     0
 10
0.0
 20
0.0
 11
1.0
 21
1.0
 12
202.55787946771341
 22
133.5127261426681
 13
0.0
 23
0.0
 14
10.0
 24
10.0
 15
10.0
 25
10.0
 16
0.0
 26
0.0
 36
1.0
 17
0.0
 27
0.0
 37
0.0
 40
275.42274993631997
 41
1.831871345029239
 42
50.0
 43
0.0
 44
0.0
 50
0.0
 51
0.0
 71
     0
 72
   100
 73
     1
 74
     0
 75
     0
 76
     0
 77
     0
 78
     2
  0
ENDTAB
  0
TABLE
  2
LTYPE
 70
     3
  0
LTYPE
  2
CONTINUOUS
 70
     0
  3
Solid Line
 72
    65
 73
     0
 40
0.0
  0
LTYPE
  2
CENTER
 70
     0
  3
____ _ ____ _ ____ _ ____ _ ____ _ ____ _ ____
 72
    65
 73
     4
 40
2.0
 49
1.25
 49
-0.25
 49
0.25
 49
-0.25
  0
LTYPE
  2
PHANTOM2
 70
     0
  3
___ _ _ ___ _ _ ___ _ _ ___ _ _
 72
    65
 73
     6
 40
1.25
 49
0.625
 49
-0.125
 49
0.125
 49
-0.125
 49
0.125
 49
-0.125
  0
ENDTAB
  0
TABLE
  2
LAYER
 70
     2
  0
LAYER
  2
0
 70
     0
 62
     7
  6
CONTINUOUS
  0
LAYER
  2
1
 70
     0
 62
     1
  6
CENTER
  0
ENDTAB
  0
TABLE
  2
STYLE
 70
     2
  0
STYLE
  2
STANDARD
 70
     0
 40
0.0
 41
1.0
 50
0.0
 71
     0
 42
0.2
  3
ROMANS
  4
BIGFONT
  0
STYLE
  2
STANDARD1
 70
     0
 40
0.0
 41
1.0
 50
0.0
 71
     0
 42
3.0
  3
txt
  4

  0
ENDTAB
  0
TABLE
  2
VIEW
 70
     0
  0
ENDTAB
  0
TABLE
  2
UCS
 70
     0
  0
ENDTAB
  0
TABLE
  2
APPID
 70
     3
  0
APPID
  2
ACAD
 70
     0
  0
APPID
  2
ACAD_MLEADERVER
 70
     0
  0
APPID
  2
ACAD_NAV_VCDISPLAY
 70
     0
  0
ENDTAB
  0
TABLE
  2
DIMSTYLE
 70
     1
  0
DIMSTYLE
  2
STANDARD
 70
     0
  3

  4

  5

  6

  7

 40
1.0
 41
0.18
 42
0.0625
 43
0.38
 44
0.18
 45
0.0
 46
0.0
 47
0.0
 48
0.0
140
0.18
141
0.09
142
0.0
143
25.399999999999999
144
1.0
145
0.0
146
1.0
147
0.09
 71
     0
 72
     0
 73
     1
 74
     1
 75
     0
 76
     0
 77
     0
 78
     0
170
     0
171
     2
172
     0
173
     0
174
     0
175
     0
176
     0
177
     0
178
     0
  0
ENDTAB
  0
ENDSEC
  0
SECTION
  2
BLOCKS
  0
BLOCK
  8
0
  2
$MODEL_SPACE
 70
     0
 10
0.0
 20
0.0
 30
0.0
  3
$MODEL_SPACE
  1

  0
ENDBLK
  5
C0
  8
0
  0
BLOCK
 67
     1
  8
0
  2
$PAPER_SPACE
 70
     0
 10
0.0
 20
0.0
 30
0.0
  3
$PAPER_SPACE
  1

  0
ENDBLK
  5
BE
 67
     1
  8
0
  0
BLOCK
  8
0
  2
STDGX5
 70
     0
 10
0.0
 20
0.0
 30
0.0
  3
STDGX5
  1

  0
ENDBLK
  5
27
  8
0
  0
ENDSEC
  0
SECTION
  2
ENTITIES
  0
INSERT
  5
2F
  8
0
  2
STDGX5
 10
0.0
 20
0.0
 30
0.0
  0
LINE
  5
30
  8
0
 10
249.75135399999999
 20
180.900172
 30
0.0
 11
248.25135399999999
 21
180.900172
 31
0.0
  0
ARC
  5
31
  8
0
 10
248.25135399999999
 20
178.400172
 30
0.0
 40
2.5
 50
90.0
 51
180.0
  0
LINE
  5
32
  8
0
 10
249.75135399999999
 20
162.900172
 30
0.0
 11
258.551354
 21
162.900172
 31
0.0
  0
LINE
  5
33
  8
0
 10
258.75135399999999
 20
162.70017200000001
 30
0.0
 11
258.75135399999999
 21
159.10017199999999
 31
0.0
  0
LINE
  5
34
  8
0
 10
258.551354
 20
158.900172
 30
0.0
 11
249.75135399999999
 21
158.900172
 31
0.0
  0
ARC
  5
35
  8
0
 10
258.551354
 20
159.10017199999999
 30
0.0
 40
0.2
 50
270.0
 51
0.0
  0
ARC
  5
36
  8
0
 10
258.551354
 20
162.70017200000001
 30
0.0
 40
0.2
 50
0.0
 51
90.0
  0
ARC
  5
37
  8
0
 10
258.551354
 20
119.100172
 30
0.0
 40
0.2
 50
270.0
 51
0.0
  0
ARC
  5
38
  8
0
 10
258.551354
 20
122.70017199999999
 30
0.0
 40
0.2
 50
0.0
 51
90.0
  0
LINE
  5
39
  8
0
 10
258.551354
 20
122.900172
 30
0.0
 11
249.75135399999999
 21
122.900172
 31
0.0
  0
LINE
  5
3A
  8
0
 10
258.75135399999999
 20
119.100172
 30
0.0
 11
258.75135399999999
 21
122.70017199999999
 31
0.0
  0
LINE
  5
3B
  8
0
 10
249.75135399999999
 20
118.900172
 30
0.0
 11
258.551354
 21
118.900172
 31
0.0
  0
LINE
  5
3C
  8
1
 10
263.75135399999999
 20
120.900172
 30
0.0
 11
240.75135399999999
 21
120.900172
 31
0.0
  0
LINE
  5
3D
  8
1
 10
263.75135399999999
 20
160.900172
 30
0.0
 11
240.75135399999999
 21
160.900172
 31
0.0
  0
LINE
  5
3E
  8
1
 10
157.23503400000001
 20
51.497203000000013
 30
0.0
 11
157.23503400000001
 21
74.497202999999999
 31
0.0
  0
LINE
  5
3F
  8
0
 10
155.23503400000001
 20
65.497202999999999
 30
0.0
 11
155.23503400000001
 21
56.697203000000002
 31
0.0
  0
LINE
  5
40
  8
0
 10
155.435034
 20
56.497203000000013
 30
0.0
 11
159.035034
 21
56.497203000000013
 31
0.0
  0
LINE
  5
41
  8
0
 10
159.23503400000001
 20
56.697203000000002
 30
0.0
 11
159.23503400000001
 21
65.497202999999999
 31
0.0
  0
ARC
  5
42
  8
0
 10
159.035034
 20
56.697203000000002
 30
0.0
 40
0.2
 50
270.0
 51
360.0
  0
ARC
  5
43
  8
0
 10
155.435034
 20
56.697203000000002
 30
0.0
 40
0.2
 50
180.0
 51
270.0
  0
ARC
  5
44
  8
0
 10
199.035034
 20
56.697203000000002
 30
0.0
 40
0.2
 50
270.0
 51
0.0
  0
ARC
  5
45
  8
0
 10
195.435034
 20
56.697203000000002
 30
0.0
 40
0.2
 50
180.0
 51
270.0
  0
LINE
  5
46
  8
0
 10
195.23503400000001
 20
56.697203000000002
 30
0.0
 11
195.23503400000001
 21
65.497202999999999
 31
0.0
  0
LINE
  5
47
  8
0
 10
199.035034
 20
56.497203000000013
 30
0.0
 11
195.435034
 21
56.497203000000013
 31
0.0
  0
LINE
  5
48
  8
0
 10
199.23503400000001
 20
65.497202999999999
 30
0.0
 11
199.23503400000001
 21
56.697203000000002
 31
0.0
  0
LINE
  5
4A
  8
0
 10
217.23503400000001
 20
65.497202999999999
 30
0.0
 11
137.23503400000001
 21
65.497202999999999
 31
0.0
  0
LINE
  5
4B
  8
0
 10
249.75135399999999
 20
100.900172
 30
0.0
 11
249.75135399999999
 21
180.900172
 31
0.0
  0
ARC
  5
4C
  8
0
 10
214.73503400000001
 20
66.997202999999999
 30
0.0
 40
2.5
 50
0.0
 51
90.0
  0
ARC
  5
4D
  8
0
 10
139.73503400000001
 20
66.997202999999999
 30
0.0
 40
2.5
 50
90.0
 51
180.0
  0
LINE
  5
4E
  8
0
 10
217.23503400000001
 20
66.997202999999999
 30
0.0
 11
217.23503400000001
 21
65.497202999999999
 31
0.0
  0
LINE
  5
4F
  8
0
 10
139.73503400000001
 20
69.497202999999999
 30
0.0
 11
214.73503400000001
 21
69.497202999999999
 31
0.0
  0
LINE
  5
50
  8
0
 10
137.23503400000001
 20
65.497202999999999
 30
0.0
 11
137.23503400000001
 21
66.997202999999999
 31
0.0
  0
ARC
  5
51
  8
0
 10
248.25135399999999
 20
103.400172
 30
0.0
 40
2.5
 50
180.0
 51
270.0
  0
ARC
  5
52
  8
0
 10
248.25135399999999
 20
178.400172
 30
0.0
 40
2.5
 50
90.0
 51
180.0
  0
LINE
  5
53
  8
0
 10
248.25135399999999
 20
100.900172
 30
0.0
 11
249.75135399999999
 21
100.900172
 31
0.0
  0
LINE
  5
54
  8
0
 10
245.75135399999999
 20
178.400172
 30
0.0
 11
245.75135399999999
 21
103.400172
 31
0.0
  0
LINE
  5
55
  8
0
 10
249.75135399999999
 20
180.900172
 30
0.0
 11
248.25135399999999
 21
180.900172
 31
0.0
  0
ARC
  5
56
  8
0
 10
141.23503400000001
 20
139.241443
 30
0.0
 40
4.0
 50
135.0
 51
180.0
  0
LINE
  5
57
  8
0
 10
176.06439800000001
 20
179.72766200000001
 30
0.0
 11
138.40660700000001
 21
142.06987000000001
 31
0.0
  0
LINE
  5
58
  8
0
 10
137.23503400000001
 20
139.241443
 30
0.0
 11
137.23503400000001
 21
104.900172
 31
0.0
  0
LINE
  5
59
  8
0
 10
141.23503400000001
 20
100.900172
 30
0.0
 11
213.23503400000001
 21
100.900172
 31
0.0
  0
LINE
  5
5A
  8
0
 10
217.23503400000001
 20
104.900172
 30
0.0
 11
217.23503400000001
 21
176.89829700000001
 31
0.0
  0
LINE
  5
5B
  8
0
 10
178.80623399999999
 20
180.89829700000001
 30
0.0
 11
213.23503400000001
 21
180.89829700000001
 31
0.0
  0
ARC
  5
5C
  8
0
 10
141.23503400000001
 20
104.900172
 30
0.0
 40
4.0
 50
180.0
 51
270.0
  0
ARC
  5
5D
  8
0
 10
213.23503400000001
 20
104.900172
 30
0.0
 40
4.0
 50
270.0
 51
0.0
  0
ARC
  5
5E
  8
0
 10
213.23503400000001
 20
176.89829700000001
 30
0.0
 40
4.0
 50
0.0
 51
90.0
  0
ARC
  5
5F
  8
0
 10
178.89282600000001
 20
176.899235
 30
0.0
 40
4.0
 50
90.0
 51
135.0
  0
LINE
  5
60
  8
1
 10
197.23503400000001
 20
51.497203000000013
 30
0.0
 11
197.23503400000001
 21
74.497202999999999
 31
0.0
  0
LINE
  5
61
  8
0
 10
107.45183299999999
 20
180.900172
 30
0.0
 11
108.95183299999999
 21
180.900172
 31
0.0
  0
LINE
  5
62
  8
0
 10
111.45183299999999
 20
178.400172
 30
0.0
 11
111.45183299999999
 21
103.400172
 31
0.0
  0
LINE
  5
63
  8
0
 10
108.95183299999999
 20
100.900172
 30
0.0
 11
107.45183299999999
 21
100.900172
 31
0.0
  0
ARC
  5
64
  8
0
 10
108.95183299999999
 20
178.400172
 30
0.0
 40
2.5
 50
0.0
 51
90.0
  0
ARC
  5
65
  8
0
 10
108.95183299999999
 20
103.400172
 30
0.0
 40
2.5
 50
270.0
 51
0.0
  0
LINE
  5
66
  8
0
 10
107.45183299999999
 20
100.900172
 30
0.0
 11
107.45183299999999
 21
180.900172
 31
0.0
  0
LINE
  5
67
  8
1
 10
93.451832999999993
 20
160.900172
 30
0.0
 11
116.45183299999999
 21
160.900172
 31
0.0
  0
LINE
  5
68
  8
1
 10
93.451832999999993
 20
120.900172
 30
0.0
 11
116.45183299999999
 21
120.900172
 31
0.0
  0
LINE
  5
69
  8
0
 10
107.45183299999999
 20
118.900172
 30
0.0
 11
98.651832999999996
 21
118.900172
 31
0.0
  0
LINE
  5
6A
  8
0
 10
98.451832999999993
 20
119.100172
 30
0.0
 11
98.451832999999993
 21
122.70017199999999
 31
0.0
  0
LINE
  5
6B
  8
0
 10
98.651832999999996
 20
122.900172
 30
0.0
 11
107.45183299999999
 21
122.900172
 31
0.0
  0
ARC
  5
6C
  8
0
 10
98.651832999999996
 20
122.70017199999999
 30
0.0
 40
0.2
 50
90.0
 51
180.0
  0
ARC
  5
6D
  8
0
 10
98.651832999999996
 20
119.100172
 30
0.0
 40
0.2
 50
180.0
 51
270.0
  0
ARC
  5
6E
  8
0
 10
98.651832999999996
 20
162.70017200000001
 30
0.0
 40
0.2
 50
90.0
 51
180.0
  0
ARC
  5
6F
  8
0
 10
98.651832999999996
 20
159.10017199999999
 30
0.0
 40
0.2
 50
180.0
 51
270.0
  0
LINE
  5
70
  8
0
 10
98.651832999999996
 20
158.900172
 30
0.0
 11
107.45183299999999
 21
158.900172
 31
0.0
  0
LINE
  5
71
  8
0
 10
98.451832999999993
 20
162.70017200000001
 30
0.0
 11
98.451832999999993
 21
159.10017199999999
 31
0.0
  0
LINE
  5
72
  8
0
 10
107.45183299999999
 20
162.900172
 30
0.0
 11
98.651832999999996
 21
162.900172
 31
0.0
  0
ARC
  5
73
  8
0
 10
108.95183299999999
 20
178.400172
 30
0.0
 40
2.5
 50
0.0
 51
90.0
  0
LINE
  5
74
  8
0
 10
107.45183299999999
 20
180.900172
 30
0.0
 11
108.95183299999999
 21
180.900172
 31
0.0
  0
LINE
  5
75
  8
0
 10
137.23503400000001
 20
212.608721
 30
0.0
 11
137.23503400000001
 21
211.108721
 31
0.0
  0
LINE
  5
76
  8
0
 10
139.73503400000001
 20
208.608721
 30
0.0
 11
214.73503400000001
 21
208.608721
 31
0.0
  0
LINE
  5
77
  8
0
 10
217.23503400000001
 20
211.108721
 30
0.0
 11
217.23503400000001
 21
212.608721
 31
0.0
  0
ARC
  5
78
  8
0
 10
139.73503400000001
 20
211.108721
 30
0.0
 40
2.5
 50
180.0
 51
270.0
  0
ARC
  5
79
  8
0
 10
214.73503400000001
 20
211.108721
 30
0.0
 40
2.5
 50
270.0
 51
0.0
  0
LINE
  5
7A
  8
0
 10
217.23503400000001
 20
212.608721
 30
0.0
 11
137.23503400000001
 21
212.608721
 31
0.0
  0
LINE
  5
7B
  8
0
 10
199.23503400000001
 20
212.608721
 30
0.0
 11
199.23503400000001
 21
221.40872100000001
 31
0.0
  0
LINE
  5
7C
  8
0
 10
199.035034
 20
221.608721
 30
0.0
 11
195.435034
 21
221.608721
 31
0.0
  0
LINE
  5
7D
  8
0
 10
195.23503400000001
 20
221.40872100000001
 30
0.0
 11
195.23503400000001
 21
212.608721
 31
0.0
  0
ARC
  5
7E
  8
0
 10
195.435034
 20
221.40872100000001
 30
0.0
 40
0.2
 50
90.0
 51
180.0
  0
ARC
  5
7F
  8
0
 10
199.035034
 20
221.40872100000001
 30
0.0
 40
0.2
 50
0.0
 51
90.0
  0
ARC
  5
80
  8
0
 10
155.435034
 20
221.40872100000001
 30
0.0
 40
0.2
 50
90.0
 51
180.0
  0
ARC
  5
81
  8
0
 10
159.035034
 20
221.40872100000001
 30
0.0
 40
0.2
 50
0.0
 51
90.0
  0
LINE
  5
82
  8
0
 10
159.23503400000001
 20
221.40872100000001
 30
0.0
 11
159.23503400000001
 21
212.608721
 31
0.0
  0
LINE
  5
83
  8
0
 10
155.435034
 20
221.608721
 30
0.0
 11
159.035034
 21
221.608721
 31
0.0
  0
LINE
  5
84
  8
0
 10
155.23503400000001
 20
212.608721
 30
0.0
 11
155.23503400000001
 21
221.40872100000001
 31
0.0
  0
LINE
  5
85
  8
1
 10
157.23503400000001
 20
226.608721
 30
0.0
 11
157.23503400000001
 21
203.608721
 31
0.0
  0
LINE
  5
86
  8
1
 10
197.23503400000001
 20
226.608721
 30
0.0
 11
197.23503400000001
 21
203.608721
 31
0.0
  0
LINE
  5
87
  8
0
 10
111.45183299999999
 20
140.772177
 30
0.0
 11
107.45183299999999
 21
140.772177
 31
0.0
  0
LINE
  5
88
  8
0
 10
177.36209199999999
 20
208.608721
 30
0.0
 11
177.36209199999999
 21
212.608721
 31
0.0
  0
LINE
  5
89
  8
1
 10
177.36209199999999
 20
185.8982969999999
 30
0.0
 11
177.36209199999999
 21
95.900171999999998
 31
0.0
  0
LINE
  5
8A
  8
1
 10
222.23503400000001
 20
139.761690647482
 30
0.0
 11
132.23503400000001
 21
139.761690647482
 31
0.0
  0
TEXT
  5
1E1
  8
0
 62
     3
 10
0.0
 20
0.0
 30
0.0
 40
10.0
  1
ECP8080-45
  7
STANDARD1
  0
ENDSEC
  0
EOF
