  0
SECTION
  2
HEADER
  9
$ACADVER
  1
AC1009
  9
$INSBASE
 10
0.0
 20
0.0
 30
0.0
  9
$EXTMIN
 10
0.0
 20
-2.960436562073669
 30
0.0
  9
$EXTMAX
 10
134.0000401228624
 20
207.7630039576359
 30
0.0
  9
$LIMMIN
 10
0.0
 20
0.0
  9
$LIMMAX
 10
385.0
 20
270.0
  9
$ORTHOMODE
 70
     1
  9
$REGENMODE
 70
     1
  9
$FILLMODE
 70
     1
  9
$QTEXTMODE
 70
     0
  9
$MIRRTEXT
 70
     0
  9
$DRAGMODE
 70
     2
  9
$LTSCALE
 40
5.0
  9
$OSMODE
 70
    37
  9
$ATTMODE
 70
     1
  9
$TEXTSIZE
 40
4.000000000000048
  9
$TRACEWID
 40
0.05
  9
$TEXTSTYLE
  7
STANDARD
  9
$CLAYER
  8
0
  9
$CELTYPE
  6
BYLAYER
  9
$CECOLOR
 62
   256
  9
$DIMSCALE
 40
1.0
  9
$DIMASZ
 40
3.0
  9
$DIMEXO
 40
2.0
  9
$DIMDLI
 40
0.38
  9
$DIMRND
 40
0.0
  9
$DIMDLE
 40
0.0
  9
$DIMEXE
 40
2.0
  9
$DIMTP
 40
0.0
  9
$DIMTM
 40
0.0
  9
$DIMTXT
 40
3.0
  9
$DIMCEN
 40
0.0
  9
$DIMTSZ
 40
0.0
  9
$DIMTOL
 70
     0
  9
$DIMLIM
 70
     0
  9
$DIMTIH
 70
     0
  9
$DIMTOH
 70
     0
  9
$DIMSE1
 70
     0
  9
$DIMSE2
 70
     0
  9
$DIMTAD
 70
     1
  9
$DIMZIN
 70
     8
  9
$DIMBLK
  1

  9
$DIMASO
 70
     0
  9
$DIMSHO
 70
     0
  9
$DIMPOST
  1

  9
$DIMAPOST
  1

  9
$DIMALT
 70
     0
  9
$DIMALTD
 70
     2
  9
$DIMALTF
 40
25.399999999999999
  9
$DIMLFAC
 40
1.0
  9
$DIMTOFL
 70
     1
  9
$DIMTVP
 40
1.6000000000000001
  9
$DIMTIX
 70
     1
  9
$DIMSOXD
 70
     0
  9
$DIMSAH
 70
     0
  9
$DIMBLK1
  1

  9
$DIMBLK2
  1

  9
$DIMSTYLE
  2
STANDARD
  9
$DIMCLRD
 70
     0
  9
$DIMCLRE
 70
     0
  9
$DIMCLRT
 70
     0
  9
$DIMTFAC
 40
1.0
  9
$DIMGAP
 40
1.0
  9
$LUNITS
 70
     2
  9
$LUPREC
 70
     4
  9
$SKETCHINC
 40
0.1
  9
$FILLETRAD
 40
0.0
  9
$AUNITS
 70
     0
  9
$AUPREC
 70
     4
  9
$MENU
  1
E:\r13\win\SUPPORT\ACAD
  9
$ELEVATION
 40
0.0
  9
$PELEVATION
 40
0.0
  9
$THICKNESS
 40
0.0
  9
$LIMCHECK
 70
     0
  9
$BLIPMODE
 70
     0
  9
$CHAMFERA
 40
0.0
  9
$CHAMFERB
 40
0.0
  9
$SKPOLY
 70
     0
  9
$TDCREATE
 40
2450280.598206134
  9
$TDUPDATE
 40
2456807.462444514
  9
$TDINDWG
 40
0.2467275116
  9
$TDUSRTIMER
 40
0.2467275116
  9
$USRTIMER
 70
     1
  9
$ANGBASE
 50
0.0
  9
$ANGDIR
 70
     0
  9
$PDMODE
 70
     0
  9
$PDSIZE
 40
0.0
  9
$PLINEWID
 40
0.0
  9
$COORDS
 70
     1
  9
$SPLFRAME
 70
     0
  9
$SPLINETYPE
 70
     6
  9
$SPLINESEGS
 70
     8
  9
$ATTDIA
 70
     0
  9
$ATTREQ
 70
     1
  9
$HANDLING
 70
     1
  9
$HANDSEED
  5
2337
  9
$SURFTAB1
 70
     6
  9
$SURFTAB2
 70
     6
  9
$SURFTYPE
 70
     6
  9
$SURFU
 70
     6
  9
$SURFV
 70
     6
  9
$UCSNAME
  2

  9
$UCSORG
 10
0.0
 20
0.0
 30
0.0
  9
$UCSXDIR
 10
1.0
 20
0.0
 30
0.0
  9
$UCSYDIR
 10
0.0
 20
1.0
 30
0.0
  9
$PUCSNAME
  2

  9
$PUCSORG
 10
0.0
 20
0.0
 30
0.0
  9
$PUCSXDIR
 10
1.0
 20
0.0
 30
0.0
  9
$PUCSYDIR
 10
0.0
 20
1.0
 30
0.0
  9
$USERI1
 70
     3
  9
$USERI2
 70
     1
  9
$USERI3
 70
     1
  9
$USERI4
 70
     0
  9
$USERI5
 70
     0
  9
$USERR1
 40
1.0
  9
$USERR2
 40
3.0
  9
$USERR3
 40
3.0
  9
$USERR4
 40
3.0
  9
$USERR5
 40
10.0
  9
$WORLDVIEW
 70
     1
  9
$SHADEDGE
 70
     3
  9
$SHADEDIF
 70
    70
  9
$TILEMODE
 70
     1
  9
$MAXACTVP
 70
    16
  9
$PLIMCHECK
 70
     0
  9
$PEXTMIN
 10
1.0000000000000000E+020
 20
1.0000000000000000E+020
 30
1.0000000000000000E+020
  9
$PEXTMAX
 10
-1.0000000000000000E+020
 20
-1.0000000000000000E+020
 30
-1.0000000000000000E+020
  9
$PLIMMIN
 10
0.0
 20
0.0
  9
$PLIMMAX
 10
12.0
 20
9.0
  9
$UNITMODE
 70
     0
  9
$VISRETAIN
 70
     0
  9
$PLINEGEN
 70
     0
  9
$PSLTSCALE
 70
     0
  0
ENDSEC
  0
SECTION
  2
TABLES
  0
TABLE
  2
VPORT
 70
     1
  0
VPORT
  2
*ACTIVE
 70
     0
 10
0.0
 20
0.0
 11
1.0
 21
1.0
 12
289.7295683288275
 22
133.5156169910021
 13
0.0
 23
0.0
 14
5.0
 24
5.0
 15
10.0
 25
10.0
 16
0.0
 26
0.0
 36
1.0
 17
0.0
 27
0.0
 37
0.0
 40
275.370250763022
 41
2.6019575856443709
 42
50.0
 43
0.0
 44
0.0
 50
0.0
 51
0.0
 71
     0
 72
   500
 73
     1
 74
     0
 75
     0
 76
     0
 77
     0
 78
     2
  0
ENDTAB
  0
TABLE
  2
LTYPE
 70
     3
  0
LTYPE
  2
CONTINUOUS
 70
     0
  3
Solid Line
 72
    65
 73
     0
 40
0.0
  0
LTYPE
  2
CENTER
 70
     0
  3
____ _ ____ _ ____ _ ____ _ ____ _ ____ _ ____
 72
    65
 73
     4
 40
2.0
 49
1.25
 49
-0.25
 49
0.25
 49
-0.25
  0
LTYPE
  2
PHANTOM2
 70
     0
  3
___ _ _ ___ _ _ ___ _ _ ___ _ _
 72
    65
 73
     6
 40
1.25
 49
0.625
 49
-0.125
 49
0.125
 49
-0.125
 49
0.125
 49
-0.125
  0
ENDTAB
  0
TABLE
  2
LAYER
 70
     3
  0
LAYER
  2
0
 70
     0
 62
     7
  6
CONTINUOUS
  0
LAYER
  2
1
 70
     0
 62
     1
  6
CENTER
  0
LAYER
  2
3
 70
     0
 62
     3
  6
CONTINUOUS
  0
ENDTAB
  0
TABLE
  2
STYLE
 70
     2
  0
STYLE
  2
STANDARD
 70
     0
 40
0.0
 41
1.0
 50
0.0
 71
     0
 42
4.000000000000048
  3
SIMPLEX
  4
BIGFONT
  0
STYLE
  2
STANDARD1
 70
     0
 40
0.0
 41
1.0
 50
0.0
 71
     0
 42
3.0
  3
txt
  4

  0
ENDTAB
  0
TABLE
  2
VIEW
 70
     2
  0
VIEW
  2
OLE1
 70
     0
 40
100.4021213141917
 10
119.5958647627379
 20
30.845687992436051
 41
193.4756206346469
 11
0.0
 21
0.0
 31
1.0
 12
0.0
 22
0.0
 32
0.0
 42
50.0
 43
0.0
 44
0.0
 50
0.0
 71
     0
  0
VIEW
  2
OLE2
 70
     0
 40
132.5110991231077
 10
142.99576892107009
 20
-91.953711750729923
 41
177.41763827038309
 11
0.0
 21
0.0
 31
1.0
 12
0.0
 22
0.0
 32
0.0
 42
50.0
 43
0.0
 44
0.0
 50
0.0
 71
     0
  0
ENDTAB
  0
TABLE
  2
UCS
 70
     0
  0
ENDTAB
  0
TABLE
  2
APPID
 70
     6
  0
APPID
  2
ACAD
 70
     0
  0
APPID
  2
GENIUS_GENODEF_13
 70
     0
  0
APPID
  2
GENIUS_GENOBJ-N-FIL_13
 70
     0
  0
APPID
  2
ACAD_MLEADERVER
 70
     0
  0
APPID
  2
ACAD_EXEMPT_FROM_CAD_STANDARDS
 70
     0
  0
APPID
  2
ACAD_NAV_VCDISPLAY
 70
     0
  0
ENDTAB
  0
TABLE
  2
DIMSTYLE
 70
     1
  0
DIMSTYLE
  2
STANDARD
 70
     0
  3

  4

  5

  6

  7

 40
1.0
 41
0.18
 42
0.0625
 43
0.38
 44
0.18
 45
0.0
 46
0.0
 47
0.0
 48
0.0
140
0.18
141
0.09
142
0.0
143
25.399999999999999
144
1.0
145
0.0
146
1.0
147
0.09
 71
     0
 72
     0
 73
     1
 74
     1
 75
     0
 76
     0
 77
     0
 78
     0
170
     0
171
     2
172
     0
173
     0
174
     0
175
     0
176
     0
177
     0
178
     0
  0
ENDTAB
  0
ENDSEC
  0
SECTION
  2
BLOCKS
  0
BLOCK
  8
0
  2
$MODEL_SPACE
 70
     0
 10
0.0
 20
0.0
 30
0.0
  3
$MODEL_SPACE
  1

  0
ENDBLK
  5
175
  8
0
  0
BLOCK
 67
     1
  8
0
  2
$PAPER_SPACE
 70
     0
 10
0.0
 20
0.0
 30
0.0
  3
$PAPER_SPACE
  1

  0
ENDBLK
  5
173
 67
     1
  8
0
  0
ENDSEC
  0
SECTION
  2
ENTITIES
  0
LINE
  5
FA5
  8
1
 10
50.000000000000078
 20
207.7630039576359
 30
0.0
 11
50.000000000000078
 21
203.86234897299249
 31
0.0
  0
LINE
  5
1365
  8
1
 10
41.500000000000078
 20
124.4279040693026
 30
0.0
 11
58.500000000000078
 21
124.427903805236
 31
0.0
  0
POLYLINE
  5
1366
  8
0
 66
     1
 10
0.0
 20
0.0
 30
0.0
 70
     2
  0
VERTEX
  5
1367
  8
0
 10
42.030313941124092
 20
183.25500983492751
 30
0.0
 42
-0.0632055303446419
  0
VERTEX
  5
1368
  8
0
 10
41.532742973357237
 20
183.31927789994319
 30
0.0
 42
-0.0632055303446354
 70
     1
  0
VERTEX
  5
1369
  8
0
 10
41.067002776397032
 20
183.50580757876321
 30
0.0
 42
-0.063205667945688
  0
VERTEX
  5
136A
  8
0
 10
40.662625779451552
 20
183.8027715222309
 30
0.0
 42
-0.0632056679456209
 70
     1
  0
VERTEX
  5
136B
  8
0
 10
40.345255247211178
 20
184.19133848511291
 30
0.0
  0
SEQEND
  5
136C
  8
0
  0
POLYLINE
  5
136D
  8
0
 66
     1
 10
0.0
 20
0.0
 30
0.0
 70
     2
  0
VERTEX
  5
136E
  8
0
 10
42.030313941124092
 20
203.25498816027491
 30
0.0
 42
0.0632055303446419
  0
VERTEX
  5
136F
  8
0
 10
41.532742973357237
 20
203.19072009525931
 30
0.0
 42
0.0632055303446354
 70
     1
  0
VERTEX
  5
1370
  8
0
 10
41.067002776397032
 20
203.0041904164392
 30
0.0
 42
0.063205667945688
  0
VERTEX
  5
1371
  8
0
 10
40.662625779451552
 20
202.7072264729716
 30
0.0
 42
0.0632056679456209
 70
     1
  0
VERTEX
  5
1372
  8
0
 10
40.345255247211178
 20
202.31865951008959
 30
0.0
  0
SEQEND
  5
1373
  8
0
  0
POLYLINE
  5
1374
  8
0
 66
     1
 10
0.0
 20
0.0
 30
0.0
 70
     2
  0
VERTEX
  5
1375
  8
0
 10
54.476585898472763
 20
188.59833969691681
 30
0.0
 42
0.0985511227959313
  0
VERTEX
  5
1376
  8
0
 10
55.428815326078848
 20
188.78691604294451
 30
0.0
 42
0.0985511227959288
 70
     1
  0
VERTEX
  5
1377
  8
0
 10
56.236268110064032
 20
189.32573133849101
 30
0.0
 42
0.0985410598154389
  0
VERTEX
  5
1378
  8
0
 10
56.775832678830142
 20
190.13256668270321
 30
0.0
 42
0.0985410598154406
 70
     1
  0
VERTEX
  5
1379
  8
0
 10
56.96537556308084
 20
191.084505069138
 30
0.0
  0
SEQEND
  5
137A
  8
0
  0
POLYLINE
  5
137B
  8
0
 66
     1
 10
0.0
 20
0.0
 30
0.0
 70
     2
  0
VERTEX
  5
137C
  8
0
 10
54.476585898472763
 20
197.9116582982856
 30
0.0
 42
-0.0985511227959313
  0
VERTEX
  5
137D
  8
0
 10
55.428815326078848
 20
197.7230819522579
 30
0.0
 42
-0.0985511227959288
 70
     1
  0
VERTEX
  5
137E
  8
0
 10
56.236268110064032
 20
197.1842666567114
 30
0.0
 42
-0.0985410598154389
  0
VERTEX
  5
137F
  8
0
 10
56.775832678830142
 20
196.3774313124992
 30
0.0
 42
-0.0985410598154406
 70
     1
  0
VERTEX
  5
1380
  8
0
 10
56.96537556308084
 20
195.42549292606449
 30
0.0
  0
SEQEND
  5
1381
  8
0
  0
LINE
  5
1581
  8
0
 10
54.476585898472763
 20
188.59834023341151
 30
0.0
 11
53.289896484812111
 21
188.59838945341701
 31
0.0
  0
LINE
  5
1582
  8
0
 10
54.476585898472763
 20
197.9116582982856
 30
0.0
 11
53.289898505436348
 21
197.91160907887789
 31
0.0
  0
LINE
  5
1583
  8
0
 10
45.954129598526293
 20
188.60496445331071
 30
0.0
 11
41.761648674378641
 21
188.6298018826904
 31
0.0
  0
LINE
  5
1584
  8
0
 10
45.95414026046268
 20
197.9050342848532
 30
0.0
 11
41.761648674378641
 21
197.88019664900651
 31
0.0
  0
LINE
  5
1585
  8
0
 10
53.289898505436348
 20
197.91160907887789
 30
0.0
 11
45.95414026046268
 21
197.9050342848532
 31
0.0
  0
LINE
  5
1586
  8
0
 10
53.289896484812111
 20
188.59838945341701
 30
0.0
 11
45.954129598526293
 21
188.60496445331071
 31
0.0
  0
POLYLINE
  5
1597
  8
0
 66
     1
 10
0.0
 20
0.0
 30
0.0
 70
     2
  0
VERTEX
  5
1598
  8
0
 10
125.2676201542932
 20
119.64779381967659
 30
0.0
 42
-0.0577944293441145
  0
VERTEX
  5
1599
  8
0
 10
124.7597066832991
 20
119.2924060604641
 30
0.0
 42
-0.0577944293441055
 70
     1
  0
VERTEX
  5
159A
  8
0
 10
124.18393621729599
 20
119.06269989186229
 30
0.0
 42
-0.0577944293595482
  0
VERTEX
  5
159B
  8
0
 10
123.5708751991681
 20
118.9708699312264
 30
0.0
 42
-0.0577944293595578
 70
     1
  0
VERTEX
  5
159C
  8
0
 10
122.9530697491078
 20
119.021791238106
 30
0.0
  0
SEQEND
  5
159D
  8
0
  0
POLYLINE
  5
159E
  8
0
 66
     1
 10
0.0
 20
0.0
 30
0.0
 70
     2
  0
VERTEX
  5
159F
  8
0
 10
129.003428040698
 20
126.0020955008017
 30
0.0
 42
-0.0144024110851705
  0
VERTEX
  5
15A0
  8
0
 10
128.78688253166871
 20
125.14318242430279
 30
0.0
 42
-0.0259355907986343
 70
     1
  0
VERTEX
  5
15A1
  8
0
 10
128.62851743768641
 20
124.67723890768541
 30
0.0
 42
-0.0028730607565136
  0
VERTEX
  5
15A2
  8
0
 10
128.19464938402371
 20
123.6072753530826
 30
0.0
 42
-0.014917545178298
 70
     1
  0
VERTEX
  5
15A3
  8
0
 10
128.10379127273751
 20
123.404263886565
 30
0.0
 42
-0.0128910138954595
  0
VERTEX
  5
15A4
  8
0
 10
127.79638899708441
 20
122.80861651047429
 30
0.0
 42
-0.0141495891631069
 70
     1
  0
VERTEX
  5
15A5
  8
0
 10
127.4873964573995
 20
122.2818636976203
 30
0.0
 42
-0.0126115137557429
  0
VERTEX
  5
15A6
  8
0
 10
127.1109849558829
 20
121.7123529166672
 30
0.0
 42
-0.0143900017069927
 70
     1
  0
VERTEX
  5
15A7
  8
0
 10
126.75461917768121
 20
121.2317388413785
 30
0.0
 42
-0.0103880046824238
  0
VERTEX
  5
15A8
  8
0
 10
126.6410631952984
 20
121.0934708617045
 30
0.0
 42
-0.0020455480401007
 70
     1
  0
VERTEX
  5
15A9
  8
0
 10
126.0471676090456
 20
120.4059247164645
 30
0.0
 42
-0.0207000432309457
  0
VERTEX
  5
15AA
  8
0
 10
125.7819461344077
 20
120.12571807787781
 30
0.0
 42
-0.0113718064442804
 70
     1
  0
VERTEX
  5
15AB
  8
0
 10
125.2676201542932
 20
119.64779381967659
 30
0.0
  0
SEQEND
  5
15AC
  8
0
  0
CIRCLE
  5
15AD
  8
0
 10
50.000000000000078
 20
124.42790393726931
 30
0.0
 40
5.5
  0
CIRCLE
  5
15AE
  8
0
 10
50.000000000000107
 20
193.25499899760121
 30
0.0
 40
3.3235000000000001
  0
CIRCLE
  5
15AF
  8
3
 10
50.000000000000107
 20
193.25499899760121
 30
0.0
 40
4.0
  0
POLYLINE
  5
15B0
  8
0
 66
     1
 10
0.0
 20
0.0
 30
0.0
  0
VERTEX
  5
15B1
  8
0
 10
119.27150615192291
 20
183.25502171216331
 30
0.0
 42
0.0000001608710891
 50
314.21172692790691
  0
VERTEX
  5
15B2
  8
0
 10
119.2715122471696
 20
183.2550217121632
 30
0.0
 42
0.1009719458560545
  0
VERTEX
  5
15B3
  8
0
 10
122.9815500159055
 20
184.01195957694929
 30
0.0
 42
0.0994844944033212
  0
VERTEX
  5
15B4
  8
0
 10
126.1506215407438
 20
186.18394958337231
 30
0.0
 42
0.097450726559322
 70
     2
 50
45.788307977180679
  0
VERTEX
  5
15B5
  8
0
 10
128.2554879262878
 20
189.41529640104821
 30
0.0
 42
0.096059825628347
 50
45.788307977180679
  0
VERTEX
  5
15B6
  8
0
 10
129.00004012286189
 20
193.25500278244431
 30
0.0
 42
0.0960598256283442
  0
VERTEX
  5
15B7
  8
0
 10
128.2554855871054
 20
197.09470871025209
 30
0.0
 42
0.0974507265593076
  0
VERTEX
  5
15B8
  8
0
 10
126.15061723299721
 20
200.32605424562431
 30
0.0
 42
0.0994844944033068
 70
     2
 50
134.2117269279068
  0
VERTEX
  5
15B9
  8
0
 10
122.9815443849641
 20
202.4980423214212
 30
0.0
 42
0.1009719459406426
 50
134.2117269279068
  0
VERTEX
  5
15BA
  8
0
 10
119.27150615192291
 20
203.25497792601971
 30
0.0
 42
0.1009719458560501
  0
SEQEND
  5
15BB
  8
0
  0
POLYLINE
  5
15BC
  8
0
 66
     1
 10
0.0
 20
0.0
 30
0.0
  0
VERTEX
  5
15BD
  8
0
 10
119.27150615192291
 20
183.25502171216331
 30
0.0
 42
0.0000001608710891
 50
314.21172692790691
  0
VERTEX
  5
15BE
  8
0
 10
119.2715122471696
 20
183.2550217121632
 30
0.0
 42
0.1009719458560545
  0
VERTEX
  5
15BF
  8
0
 10
122.9815500159055
 20
184.01195957694929
 30
0.0
 42
0.0994844944033212
  0
VERTEX
  5
15C0
  8
0
 10
126.1506215407438
 20
186.18394958337231
 30
0.0
 42
0.097450726559322
 70
     2
 50
45.788307977180679
  0
VERTEX
  5
15C1
  8
0
 10
128.2554879262878
 20
189.41529640104821
 30
0.0
 42
0.096059825628347
 50
45.788307977180679
  0
VERTEX
  5
15C2
  8
0
 10
129.00004012286189
 20
193.25500278244431
 30
0.0
 42
0.0960598256283442
  0
VERTEX
  5
15C3
  8
0
 10
128.2554855871054
 20
197.09470871025209
 30
0.0
 42
0.0974507265593076
  0
VERTEX
  5
15C4
  8
0
 10
126.15061723299721
 20
200.32605424562431
 30
0.0
 42
0.0994844944033068
 70
     2
 50
134.2117269279068
  0
VERTEX
  5
15C5
  8
0
 10
122.9815443849641
 20
202.4980423214212
 30
0.0
 42
0.1009719458560303
 50
134.2117269279068
  0
VERTEX
  5
15C6
  8
0
 10
119.27150615509591
 20
203.25497792601971
 30
0.0
 42
0.1009719458560501
  0
SEQEND
  5
15C7
  8
0
  0
POLYLINE
  5
15C8
  8
0
 66
     1
 10
0.0
 20
0.0
 30
0.0
 70
     2
  0
VERTEX
  5
15C9
  8
0
 10
43.093118796307969
 20
191.31122788034719
 30
0.0
 42
0.0692012836003717
  0
VERTEX
  5
15CA
  8
0
 10
43.187275633761587
 20
190.5111238748317
 30
0.0
 42
0.0692012836003613
 70
     1
  0
VERTEX
  5
15CB
  8
0
 10
43.49617591621449
 20
189.7670724349554
 30
0.0
 42
0.0689621009045868
  0
VERTEX
  5
15CC
  8
0
 10
43.994364277924888
 20
189.1374662902727
 30
0.0
 42
0.080298626352583
 70
     1
  0
VERTEX
  5
15CD
  8
0
 10
44.762812661954847
 20
188.607850571966
 30
0.0
  0
SEQEND
  5
15CE
  8
0
  0
POLYLINE
  5
15CF
  8
0
 66
     1
 10
0.0
 20
0.0
 30
0.0
 70
     2
  0
VERTEX
  5
15D0
  8
0
 10
43.093118796307969
 20
195.19877011485531
 30
0.0
 42
-0.0692012836003717
  0
VERTEX
  5
15D1
  8
0
 10
43.187275633761587
 20
195.9988741203708
 30
0.0
 42
-0.0692012836003613
 70
     1
  0
VERTEX
  5
15D2
  8
0
 10
43.49617591621449
 20
196.7429255602471
 30
0.0
 42
-0.0689621009045868
  0
VERTEX
  5
15D3
  8
0
 10
43.994364277924888
 20
197.3725317049298
 30
0.0
 42
-0.080298626352583
 70
     1
  0
VERTEX
  5
15D4
  8
0
 10
44.762812661954847
 20
197.9021474232365
 30
0.0
  0
SEQEND
  5
15D5
  8
0
  0
LINE
  5
15D6
  8
0
 10
128.91697243629289
 20
126.6854460039898
 30
0.0
 11
129.00342804109661
 21
126.0020955022965
 31
0.0
  0
POLYLINE
  5
15D7
  8
0
 66
     1
 10
0.0
 20
0.0
 30
0.0
  0
VERTEX
  5
228D
  8
0
 10
120.88129337196629
 20
120.1035047182508
 30
0.0
  0
VERTEX
  5
228E
  8
0
 10
120.87312007199399
 20
120.1145901864805
 30
0.0
  0
VERTEX
  5
228F
  8
0
 10
120.8642582402945
 20
120.1267297069691
 30
0.0
  0
VERTEX
  5
2290
  8
0
 10
120.8546489251231
 20
120.1400383782682
 30
0.0
  0
SEQEND
  5
2291
  8
0
  0
POLYLINE
  5
15D8
  8
0
 66
     1
 10
0.0
 20
0.0
 30
0.0
  0
VERTEX
  5
2292
  8
0
 10
120.8973623208304
 20
120.0820163280744
 30
0.0
  0
VERTEX
  5
2293
  8
0
 10
120.8891781088092
 20
120.092910055929
 30
0.0
  0
VERTEX
  5
2294
  8
0
 10
120.88129337196629
 20
120.1035047182508
 30
0.0
  0
SEQEND
  5
2295
  8
0
  0
LINE
  5
15D9
  8
0
 10
120.9162650896879
 20
120.0572622045518
 30
0.0
 11
120.8973623208302
 21
120.0820163280744
 31
0.0
  0
LINE
  5
15DA
  8
0
 10
120.9275661430131
 20
120.0427080253076
 30
0.0
 11
120.9162650896879
 21
120.0572622045518
 31
0.0
  0
LINE
  5
15DB
  8
0
 10
120.939449601053
 20
120.02758800333299
 30
0.0
 11
120.9275661430131
 21
120.0427080253076
 31
0.0
  0
POLYLINE
  5
15DC
  8
0
 66
     1
 10
0.0
 20
0.0
 30
0.0
  0
VERTEX
  5
2296
  8
0
 10
120.2798395612846
 20
120.87300369674711
 30
0.0
  0
VERTEX
  5
2297
  8
0
 10
120.251380309732
 20
120.9074708293947
 30
0.0
  0
VERTEX
  5
2298
  8
0
 10
120.2192272888114
 20
120.9458219302595
 30
0.0
  0
VERTEX
  5
2299
  8
0
 10
120.1829155464012
 20
120.98832449379211
 30
0.0
  0
VERTEX
  5
229A
  8
0
 10
120.1421579013637
 20
121.03497310402619
 30
0.0
  0
SEQEND
  5
229B
  8
0
  0
POLYLINE
  5
15DD
  8
0
 66
     1
 10
0.0
 20
0.0
 30
0.0
  0
VERTEX
  5
229C
  8
0
 10
120.34624412816279
 20
120.7921221536551
 30
0.0
  0
VERTEX
  5
229D
  8
0
 10
120.32773932790469
 20
120.8143664848685
 30
0.0
  0
VERTEX
  5
229E
  8
0
 10
120.2798395612846
 20
120.87300369674711
 30
0.0
  0
SEQEND
  5
229F
  8
0
  0
LINE
  5
15DE
  8
0
 10
120.3478040912871
 20
120.7902861401645
 30
0.0
 11
120.34677274668709
 21
120.791512552623
 31
0.0
  0
LINE
  5
15DF
  8
0
 10
120.1421579013639
 20
121.03497310402619
 30
0.0
 11
120.0939550981137
 21
121.08887369181259
 31
0.0
  0
LINE
  5
15E0
  8
0
 10
120.0939550981137
 20
121.08887369181259
 30
0.0
 11
120.0859276111175
 21
121.09773510270639
 31
0.0
  0
LINE
  5
15E1
  8
0
 10
120.0859534451737
 20
121.0977214894509
 30
0.0
 11
120.0664277126377
 21
121.11898610611139
 31
0.0
  0
LINE
  5
15E2
  8
0
 10
120.0680233953121
 20
121.1172796119605
 30
0.0
 11
120.0443661320249
 21
121.14253888674649
 31
0.0
  0
LINE
  5
15E3
  8
0
 10
120.0474845678668
 20
121.1392447492713
 30
0.0
 11
120.04381491993669
 21
121.1431205723144
 31
0.0
  0
LINE
  5
15E4
  8
0
 10
120.0438202163275
 20
121.1431156614543
 30
0.0
 11
119.9983364837792
 21
121.1899565480601
 31
0.0
  0
LINE
  5
15E5
  8
0
 10
120.0015808715297
 20
121.1866906061546
 30
0.0
 11
119.9523051007945
 21
121.2351714337605
 31
0.0
  0
LINE
  5
15E6
  8
0
 10
119.9557858138861
 20
121.2318314854728
 30
0.0
 11
119.90548174144431
 21
121.2789634703054
 31
0.0
  0
LINE
  5
15E7
  8
0
 10
119.9072822752337
 20
121.2773627387613
 30
0.0
 11
119.8510003878236
 21
121.3273991224424
 31
0.0
  0
LINE
  5
15E8
  8
0
 10
119.851014286366
 20
121.3273875082876
 30
0.0
 11
119.6499685987423
 21
121.50047279649201
 31
0.0
  0
LINE
  5
15E9
  8
0
 10
119.6483190858347
 20
121.50185942258589
 30
0.0
 11
119.6442315430689
 21
121.5053710335503
 31
0.0
  0
LINE
  5
15EA
  8
0
 10
119.6499685987423
 20
121.50047279649201
 30
0.0
 11
119.4430295826146
 21
121.67432786408951
 31
0.0
  0
LINE
  5
15EB
  8
0
 10
119.4493362020042
 20
121.6691299330304
 30
0.0
 11
119.2277954959565
 21
121.8475102729906
 31
0.0
  0
LINE
  5
15EC
  8
0
 10
119.23461897473059
 20
121.8421525581693
 30
0.0
 11
118.9988113078437
 21
122.0219372139024
 31
0.0
  0
LINE
  5
15ED
  8
0
 10
119.00607777434131
 20
122.0165622714612
 30
0.0
 11
118.75666701353479
 21
122.195119246739
 31
0.0
  0
LINE
  5
15EE
  8
0
 10
118.76427159927429
 20
122.18985692993201
 30
0.0
 11
118.50220020001829
 21
122.3649151772938
 31
0.0
  0
LINE
  5
15EF
  8
0
 10
118.5100240269693
 20
122.3598744860312
 30
0.0
 11
118.2366433136242
 21
122.5295389671009
 31
0.0
  0
LINE
  5
15F0
  8
0
 10
118.2445490149165
 20
122.52481529551061
 30
0.0
 11
118.05537128069309
 21
122.63507176224179
 31
0.0
  0
LINE
  5
15F1
  8
0
 10
118.05539023976441
 20
122.63506139874551
 30
0.0
 11
118.0386119891341
 21
122.64456047719931
 31
0.0
  0
LINE
  5
15F2
  8
0
 10
118.0553896832408
 20
122.635062762602
 30
0.0
 11
117.93359955663659
 21
122.7029586434971
 31
0.0
  0
LINE
  5
15F3
  8
0
 10
117.9417202759381
 20
122.69851734910461
 30
0.0
 11
117.8282340884697
 21
122.7597798932768
 31
0.0
  0
LINE
  5
15F4
  8
0
 10
117.83647485783909
 20
122.7554171939706
 30
0.0
 11
117.72481527318131
 21
122.8138888881501
 31
0.0
  0
LINE
  5
15F5
  8
0
 10
117.7310299893455
 20
122.8107244757841
 30
0.0
 11
117.6130161112027
 21
122.87067566017031
 31
0.0
  0
LINE
  5
15F6
  8
0
 10
117.6255559883099
 20
122.864429780078
 30
0.0
 11
117.5506220663131
 21
122.9017438535238
 31
0.0
  0
LINE
  5
15F7
  8
0
 10
117.5590827675417
 20
122.8975971030217
 30
0.0
 11
117.4978759661111
 21
122.92760242981871
 31
0.0
  0
LINE
  5
15F8
  8
0
 10
117.497879044977
 20
122.9276352035298
 30
0.0
 11
116.666460383596
 21
123.3106710307822
 31
0.0
  0
LINE
  5
15F9
  8
0
 10
116.67440368824811
 20
123.3072353508649
 30
0.0
 11
115.713785551481
 21
123.69918070144981
 31
0.0
  0
LINE
  5
15FA
  8
0
 10
115.7218984598216
 20
123.6961030542559
 30
0.0
 11
114.7274174520016
 21
124.04907117633471
 31
0.0
  0
LINE
  5
15FB
  8
0
 10
114.73567188106129
 20
124.0463612306275
 30
0.0
 11
113.7173680253922
 21
124.3562222912189
 31
0.0
  0
LINE
  5
1600
  8
0
 10
40.312548991529148
 20
116.6003723406299
 30
0.0
 11
43.426981209851697
 21
116.6003723406299
 31
0.0
  0
LINE
  5
1606
  8
0
 10
122.9530697491078
 20
119.021791238106
 30
0.0
 11
122.402701722187
 21
119.13203762782361
 31
0.0
  0
LINE
  5
160A
  8
0
 10
54.436980994123331
 20
134.32030456912381
 30
0.0
 11
54.436559696870397
 21
134.324123378937
 31
0.0
  0
LINE
  5
160B
  8
0
 10
113.7173680253922
 20
124.3562222912189
 30
0.0
 11
112.6602869419566
 21
124.62580984615531
 31
0.0
  0
LINE
  5
160C
  8
0
 10
112.66873839712051
 20
124.6238577004833
 30
0.0
 11
111.9934734637602
 21
124.7698833202149
 31
0.0
  0
LINE
  5
160D
  8
0
 10
111.9934725019758
 20
124.7698835540844
 30
0.0
 11
111.6860105315284
 21
124.8297399637428
 31
0.0
  0
LINE
  5
1610
  8
0
 10
53.247934547361517
 20
134.18525382506741
 30
0.0
 11
53.247493367218482
 21
134.18906872018309
 31
0.0
  0
LINE
  5
1611
  8
0
 10
53.606013392101552
 20
134.23055169237639
 30
0.0
 11
54.531234786630563
 21
134.33478687740219
 31
0.0
  0
LINE
  5
1612
  8
0
 10
53.247493367318206
 20
134.18906872028271
 30
0.0
 11
53.606013392101552
 21
134.23055169237639
 31
0.0
  0
LINE
  5
1613
  8
0
 10
54.531234786630563
 20
134.33478687740219
 30
0.0
 11
54.633481856821113
 21
134.34674940713541
 31
0.0
  0
LINE
  5
1614
  8
0
 10
54.633481856821113
 20
134.34674940713541
 30
0.0
 11
54.734656722417242
 21
134.3590438082982
 31
0.0
  0
LINE
  5
1615
  8
0
 10
54.734656722417242
 20
134.3590438082982
 30
0.0
 11
54.834626670420221
 21
134.37164043417459
 31
0.0
  0
LINE
  5
1616
  8
0
 10
54.834626670420221
 20
134.37164043417459
 30
0.0
 11
55.030509038071159
 21
134.3976258916779
 31
0.0
  0
LINE
  5
1617
  8
0
 10
55.030509038071159
 20
134.3976258916779
 30
0.0
 11
55.220312970385521
 21
134.4244782635204
 31
0.0
  0
LINE
  5
1618
  8
0
 10
55.220312970385521
 20
134.4244782635204
 30
0.0
 11
55.403316621444731
 21
134.45196980837639
 31
0.0
  0
LINE
  5
1619
  8
0
 10
55.403316621444731
 20
134.45196980837639
 30
0.0
 11
55.492068476905217
 21
134.4658840300927
 31
0.0
  0
LINE
  5
161A
  8
1
 10
50.000000000000078
 20
138.74699403756651
 30
0.0
 11
50.0
 21
50.0
 31
0.0
  0
LINE
  5
161D
  8
0
 10
45.852476947881883
 20
132.624293432569
 30
0.0
 11
45.852284739967239
 21
132.62513050398891
 31
0.0
  0
POLYLINE
  5
161E
  8
0
 66
     1
 10
0.0
 20
0.0
 30
0.0
  0
VERTEX
  5
22A0
  8
0
 10
126.2117996629332
 20
129.65263283424471
 30
0.0
  0
VERTEX
  5
22A1
  8
0
 10
126.4017409724816
 20
129.60489131105729
 30
0.0
  0
VERTEX
  5
22A2
  8
0
 10
126.6877000626111
 20
129.51092152237109
 30
0.0
  0
VERTEX
  5
22A3
  8
0
 10
126.96449538769269
 20
129.392642688661
 30
0.0
  0
VERTEX
  5
22A4
  8
0
 10
127.2300639029889
 20
129.25093527863069
 30
0.0
  0
VERTEX
  5
22A5
  8
0
 10
127.4824263804053
 20
129.0868544839926
 30
0.0
  0
VERTEX
  5
22A6
  8
0
 10
127.7197021737548
 20
128.90162225315791
 30
0.0
  0
VERTEX
  5
22A7
  8
0
 10
127.9401229574672
 20
128.69661834301499
 30
0.0
  0
VERTEX
  5
22A8
  8
0
 10
128.1420461309873
 20
128.47336985847741
 30
0.0
  0
VERTEX
  5
22A9
  8
0
 10
128.32396692288961
 20
128.23353997184441
 30
0.0
  0
VERTEX
  5
22AA
  8
0
 10
128.48452962647571
 20
127.97891553778339
 30
0.0
  0
VERTEX
  5
22AB
  8
0
 10
128.6225377574051
 20
127.7113937247065
 30
0.0
  0
VERTEX
  5
22AC
  8
0
 10
128.7369629790941
 20
127.4329678609344
 30
0.0
  0
VERTEX
  5
22AD
  8
0
 10
128.82695277407711
 20
127.14571256490331
 30
0.0
  0
VERTEX
  5
22AE
  8
0
 10
128.89183680481409
 20
126.851768262249
 30
0.0
  0
VERTEX
  5
22AF
  8
0
 10
128.91696809122359
 20
126.6854454743704
 30
0.0
  0
SEQEND
  5
22B0
  8
0
  0
LINE
  5
161F
  8
0
 10
126.21165896090621
 20
129.6526639554246
 30
0.0
 11
119.4292106946407
 21
131.15629653569141
 31
0.0
  0
LINE
  5
1620
  8
0
 10
55.492068476905217
 20
134.4658840300927
 30
0.0
 11
55.663714024341232
 21
134.49390901255919
 31
0.0
  0
LINE
  5
1621
  8
0
 10
55.663714024341232
 20
134.49390901255919
 30
0.0
 11
55.827141200764828
 21
134.52201516446991
 31
0.0
  0
LINE
  5
1622
  8
0
 10
55.827141200764828
 20
134.52201516446991
 30
0.0
 11
55.981922216180578
 21
134.54999058554321
 31
0.0
  0
LINE
  5
1623
  8
0
 10
55.981922216180578
 20
134.54999058554321
 30
0.0
 11
56.127712778468691
 21
134.57763503499129
 31
0.0
  0
LINE
  5
1624
  8
0
 10
56.127712778468691
 20
134.57763503499129
 30
0.0
 11
56.197159048886867
 21
134.5912760159637
 31
0.0
  0
LINE
  5
1625
  8
0
 10
56.197159048886867
 20
134.5912760159637
 30
0.0
 11
56.26427398294765
 21
134.6047675859374
 31
0.0
  0
LINE
  5
1626
  8
0
 10
56.26427398294765
 20
134.6047675859374
 30
0.0
 11
56.329038056486887
 21
134.6180891685849
 31
0.0
  0
LINE
  5
1627
  8
0
 10
45.852284740465471
 20
132.62513050418821
 30
0.0
 11
47.14726762571501
 21
132.97298728012009
 31
0.0
  0
LINE
  5
1628
  8
0
 10
47.14726762571501
 20
132.97298728012009
 30
0.0
 11
48.490994097039952
 21
133.31091399434291
 31
0.0
  0
LINE
  5
1629
  8
0
 10
48.490994097039952
 20
133.31091399434291
 30
0.0
 11
49.782790202755677
 21
133.6053090890058
 31
0.0
  0
LINE
  5
162A
  8
0
 10
49.782790202755677
 20
133.6053090890058
 30
0.0
 11
51.022783115236791
 21
133.85250275893679
 31
0.0
  0
LINE
  5
162B
  8
0
 10
51.022783115236791
 20
133.85250275893679
 30
0.0
 11
52.210494071108769
 21
134.05076144510039
 31
0.0
  0
LINE
  5
162C
  8
0
 10
52.210494071108769
 20
134.05076144510039
 30
0.0
 11
53.247492932462528
 21
134.18907245043579
 31
0.0
  0
LINE
  5
1638
  8
0
 10
42.346533187079778
 20
130.4049868781108
 30
0.0
 11
42.633736814201932
 21
130.7104429028453
 31
0.0
  0
LINE
  5
1639
  8
0
 10
42.633736814201932
 20
130.7104429028453
 30
0.0
 11
43.002919050719839
 21
131.05948958448141
 31
0.0
  0
LINE
  5
163A
  8
0
 10
43.002919050719839
 20
131.05948958448141
 30
0.0
 11
43.38928623905565
 21
131.37962460699359
 31
0.0
  0
LINE
  5
163B
  8
0
 10
43.38928623905565
 20
131.37962460699359
 30
0.0
 11
43.790829239837933
 21
131.66969358961839
 31
0.0
  0
LINE
  5
163C
  8
0
 10
43.790829239837933
 20
131.66969358961839
 30
0.0
 11
44.205190047220611
 21
131.92908848131901
 31
0.0
  0
LINE
  5
163D
  8
0
 10
44.205190047220611
 20
131.92908848131901
 30
0.0
 11
44.630100889908412
 21
132.15740066810071
 31
0.0
  0
LINE
  5
163E
  8
0
 10
44.630100889908412
 20
132.15740066810071
 30
0.0
 11
45.063485081808153
 21
132.3541300730794
 31
0.0
  0
LINE
  5
163F
  8
0
 10
45.063485081808153
 20
132.3541300730794
 30
0.0
 11
45.503284337480522
 21
132.51870241708519
 31
0.0
  0
LINE
  5
1640
  8
0
 10
45.503284337480522
 20
132.51870241708519
 30
0.0
 11
45.852284738273113
 21
132.6251305097683
 31
0.0
  0
ARC
  5
1641
  8
0
 10
40.312548991529148
 20
116.2878114477397
 30
0.0
 40
0.312560892890177
 50
90.0
 51
179.50000000000031
  0
ARC
  5
164B
  8
0
 10
122.89199322891101
 20
121.57466724835901
 30
0.0
 40
2.4911561742547952
 50
218.28988951080299
 51
258.67280129399978
  0
ARC
  5
164C
  8
0
 10
123.2830486473996
 20
121.88339046276769
 30
0.0
 40
2.9893838424121042
 50
215.6764642908991
 51
218.28986376549821
  0
ARC
  5
164D
  8
0
 10
80.307027607575776
 20
98.184201826537375
 30
0.0
 40
29.893838424121061
 50
88.577594202199819
 51
139.47751887050021
  0
ARC
  5
164E
  8
0
 10
50.008582724090473
 20
124.08208537456819
 30
0.0
 40
9.9646128080403518
 50
315.78042431429873
 51
319.47751887050032
  0
ARC
  5
164F
  8
0
 10
77.630793456258402
 20
-53.915287491402999
 30
0.0
 40
189.73296734602701
 50
77.27327025345113
 51
96.446319974450745
  0
ARC
  5
1650
  8
0
 10
50.008582724090473
 20
124.0820853746219
 30
0.0
 40
9.9646128080942198
 50
224.2437521559271
 51
315.7562478440741
  0
ARC
  5
1651
  8
0
 10
50.008582724090473
 20
124.08208537456819
 30
0.0
 40
9.9646128080403518
 50
149.5094308170998
 51
224.24363562639991
  0
ARC
  5
1652
  8
0
 10
112.355492826792
 20
114.0379495654641
 30
0.0
 40
10.462843448442371
 50
35.676464290899141
 51
40.192936598801317
  0
ARC
  5
1653
  8
0
 10
76.294471710362643
 20
-63.411937404040678
 30
0.0
 40
191.53978739615161
 50
79.352053904701464
 51
88.577594202199819
  0
POLYLINE
  5
16A6
  8
0
 66
     1
 10
0.0
 20
0.0
 30
0.0
  0
VERTEX
  5
22B1
  8
0
 10
40.040582068865142
 20
185.25406977735301
 30
0.0
  0
VERTEX
  5
22B2
  8
0
 10
40.043276498374702
 20
185.15006779216779
 30
0.0
  0
VERTEX
  5
22B3
  8
0
 10
40.062450174164553
 20
184.95854777117549
 30
0.0
  0
VERTEX
  5
22B4
  8
0
 10
40.099890691372309
 20
184.7697453215095
 30
0.0
  0
VERTEX
  5
22B5
  8
0
 10
40.15522631653041
 20
184.58550992971419
 30
0.0
  0
VERTEX
  5
22B6
  8
0
 10
40.227896120060016
 20
184.4075925321132
 30
0.0
  0
VERTEX
  5
22B7
  8
0
 10
40.317135269101243
 20
184.2377045760671
 30
0.0
  0
VERTEX
  5
22B8
  8
0
 10
40.34537289919529
 20
184.1911461732804
 30
0.0
  0
SEQEND
  5
22B9
  8
0
  0
POLYLINE
  5
16A7
  8
0
 66
     1
 10
0.0
 20
0.0
 30
0.0
  0
VERTEX
  5
22BA
  8
0
 10
40.040587062730509
 20
198.23769777758201
 30
0.0
  0
VERTEX
  5
22BB
  8
0
 10
40.040810922739382
 20
198.2243301809435
 30
0.0
  0
VERTEX
  5
22BC
  8
0
 10
40.047175461440808
 20
198.16546119017801
 30
0.0
  0
VERTEX
  5
22BD
  8
0
 10
40.062074339660278
 20
198.1084728439057
 30
0.0
  0
VERTEX
  5
22BE
  8
0
 10
40.084938403625557
 20
198.05478650864731
 30
0.0
  0
VERTEX
  5
22BF
  8
0
 10
40.090986165691611
 20
198.04349523160371
 30
0.0
  0
SEQEND
  5
22C0
  8
0
  0
LINE
  5
16A8
  8
0
 10
40.040582068665678
 20
201.2559301055588
 30
0.0
 11
40.040581997717879
 21
198.2376984372394
 31
0.0
  0
LINE
  5
16A9
  8
0
 10
40.040581997717879
 20
188.27276965551201
 30
0.0
 11
40.040582068865142
 21
185.25406977735301
 31
0.0
  0
POLYLINE
  5
16AB
  8
0
 66
     1
 10
0.0
 20
0.0
 30
0.0
  0
VERTEX
  5
22C1
  8
0
 10
40.345252625920068
 20
202.31866105580039
 30
0.0
  0
VERTEX
  5
22C2
  8
0
 10
40.309054617607522
 20
202.25842685568401
 30
0.0
  0
VERTEX
  5
22C3
  8
0
 10
40.222274962598789
 20
202.0902276968358
 30
0.0
  0
VERTEX
  5
22C4
  8
0
 10
40.151668860076477
 20
201.91433956891731
 30
0.0
  0
VERTEX
  5
22C5
  8
0
 10
40.097955676962442
 20
201.73240707248141
 30
0.0
  0
VERTEX
  5
22C6
  8
0
 10
40.061662856953262
 20
201.54611309730481
 30
0.0
  0
VERTEX
  5
22C7
  8
0
 10
40.04313832506773
 20
201.35723223749579
 30
0.0
  0
VERTEX
  5
22C8
  8
0
 10
40.040582068665678
 20
201.2559301055588
 30
0.0
  0
SEQEND
  5
22C9
  8
0
  0
LINE
  5
16AD
  8
0
 10
43.09311879630814
 20
195.19877011485531
 30
0.0
 11
43.09311879630814
 21
191.31122841704101
 31
0.0
  0
POLYLINE
  5
16AE
  8
0
 66
     1
 10
0.0
 20
0.0
 30
0.0
  0
VERTEX
  5
22CA
  8
0
 10
40.084059396232469
 20
188.45349565835201
 30
0.0
  0
VERTEX
  5
22CB
  8
0
 10
40.06127096786355
 20
188.3991523768976
 30
0.0
  0
VERTEX
  5
22CC
  8
0
 10
40.04683563386601
 20
188.3426649108562
 30
0.0
  0
VERTEX
  5
22CD
  8
0
 10
40.04077011246855
 20
188.28438983851649
 30
0.0
  0
VERTEX
  5
22CE
  8
0
 10
40.040587031242183
 20
188.27230084140521
 30
0.0
  0
SEQEND
  5
22CF
  8
0
  0
LINE
  5
16AF
  8
0
 10
56.96537556308084
 20
195.42549292606449
 30
0.0
 11
56.96537556308084
 21
191.08450560583179
 31
0.0
  0
LINE
  5
16B1
  8
0
 10
54.491979464514429
 20
183.2575444153203
 30
0.0
 11
45.523838919277857
 21
183.25246254350159
 31
0.0
  0
LINE
  5
16B2
  8
0
 10
42.030314022036862
 20
183.25501145438949
 30
0.0
 11
45.523838919277857
 21
183.25500198003559
 31
0.0
  0
LINE
  5
16B3
  8
0
 10
54.491979464514429
 20
183.25500198003559
 30
0.0
 11
119.2715060102102
 21
183.25502171216129
 31
0.0
  0
LINE
  5
16B7
  8
0
 10
50.000000000000107
 20
203.25499763462881
 30
0.0
 11
42.030313941124092
 21
203.25498816027491
 31
0.0
  0
LINE
  5
16B8
  8
0
 10
119.27150615509591
 20
203.25497792601971
 30
0.0
 11
50.000000000000107
 21
203.25499899760121
 31
0.0
  0
ARC
  5
16BB
  8
0
 10
50.005194805758208
 20
193.25499926584851
 30
0.0
 40
10.129245541485901
 50
180.0000015173336
 51
206.91310687099991
  0
ARC
  5
16BC
  8
0
 10
50.005194805758208
 20
193.25499926584851
 30
0.0
 40
10.129245541485901
 50
152.91839935672149
 51
180.0000015173336
  0
LINE
  5
16C5
  8
1
 10
35.491995039965452
 20
193.25499899760121
 30
0.0
 11
134.0000401228624
 21
193.25499899760121
 31
0.0
  0
LINE
  5
16C6
  8
1
 10
50.000000000000142
 20
207.7630039576359
 30
0.0
 11
50.000000000000078
 21
178.74699403756651
 31
0.0
  0
LINE
  5
16C7
  8
1
 10
41.500000000000078
 20
123.4279040693026
 30
0.0
 11
58.500000000000078
 21
123.427903805236
 31
0.0
  0
LINE
  5
16C8
  8
0
 10
44.500000000000107
 20
197.7605268840386
 30
0.0
 11
44.500000000000107
 21
188.7494711111639
 31
0.0
  0
LINE
  5
16C9
  8
0
 10
55.500000000000107
 20
197.69207015366061
 30
0.0
 11
55.500000000000107
 21
188.8179283756499
 31
0.0
  0
LINE
  5
1F54
  8
0
 10
40.000000000000057
 20
103.42790393726931
 30
0.0
 11
60.0
 21
103.42790393726931
 31
0.0
  0
LINE
  5
1F56
  8
0
 10
40.000000000000057
 20
116.290539021467
 30
0.0
 11
40.000000000000057
 21
103.42790393726931
 31
0.0
  0
LINE
  5
1F5D
  8
0
 10
60.0
 20
116.290539021467
 30
0.0
 11
60.0
 21
103.42790393726931
 31
0.0
  0
ARC
  5
1F5E
  8
0
 10
59.687451008470887
 20
116.2878114477397
 30
0.0
 40
0.312560892890177
 50
0.4999999999996912
 51
90.0
  0
LINE
  5
1F5F
  8
0
 10
59.687451008470902
 20
116.6003723406299
 30
0.0
 11
56.590184238329222
 21
116.6003723406299
 31
0.0
  0
POLYLINE
  5
1F6A
  8
0
 66
     1
 10
0.0
 20
0.0
 30
0.0
  0
VERTEX
  5
22D0
  8
0
 10
40.090986165691611
 20
198.04349523160371
 30
0.0
  0
VERTEX
  5
22D1
  8
0
 10
40.116346267685323
 20
198.0016042471666
 30
0.0
  0
VERTEX
  5
22D2
  8
0
 10
40.144486572389809
 20
197.96900006976509
 30
0.0
  0
VERTEX
  5
22D3
  8
0
 10
40.178385676204101
 20
197.9370338790132
 30
0.0
  0
VERTEX
  5
22D4
  8
0
 10
40.201410998159957
 20
197.9178546178384
 30
0.0
  0
VERTEX
  5
22D5
  8
0
 10
40.237097565230599
 20
197.8937930775609
 30
0.0
  0
VERTEX
  5
22D6
  8
0
 10
40.27880127961506
 20
197.87246351085989
 30
0.0
  0
VERTEX
  5
22D7
  8
0
 10
40.31398011656492
 20
197.85967658128271
 30
0.0
  0
VERTEX
  5
22D8
  8
0
 10
40.352994203127842
 20
197.8481690245778
 30
0.0
  0
VERTEX
  5
22D9
  8
0
 10
40.399046821936359
 20
197.84049732010789
 30
0.0
  0
VERTEX
  5
22DA
  8
0
 10
40.438904429163522
 20
197.83872115754701
 30
0.0
  0
VERTEX
  5
22DB
  8
0
 10
40.493788546800353
 20
197.84128942076131
 30
0.0
  0
VERTEX
  5
22DC
  8
0
 10
40.538516009846568
 20
197.84410653410151
 30
0.0
  0
VERTEX
  5
22DD
  8
0
 10
40.573589790368203
 20
197.84755486571871
 30
0.0
  0
VERTEX
  5
22DE
  8
0
 10
40.626679511604607
 20
197.854911238451
 30
0.0
  0
VERTEX
  5
22DF
  8
0
 10
40.6833490175039
 20
197.860029003748
 30
0.0
  0
VERTEX
  5
22E0
  8
0
 10
40.761470010780009
 20
197.86241890400291
 30
0.0
  0
VERTEX
  5
22E1
  8
0
 10
40.940543779400599
 20
197.86511816545749
 30
0.0
  0
VERTEX
  5
22E2
  8
0
 10
41.27703262328108
 20
197.8747140285966
 30
0.0
  0
VERTEX
  5
22E3
  8
0
 10
41.761648674378641
 20
197.88019664900659
 30
0.0
  0
SEQEND
  5
22E4
  8
0
  0
POLYLINE
  5
1F6B
  8
0
 66
     1
 10
0.0
 20
0.0
 30
0.0
  0
VERTEX
  5
22E5
  8
0
 10
40.090986751692711
 20
188.46650332640891
 30
0.0
  0
VERTEX
  5
22E6
  8
0
 10
40.116346848559928
 20
188.50839431394951
 30
0.0
  0
VERTEX
  5
22E7
  8
0
 10
40.144487149274418
 20
188.54099849479471
 30
0.0
  0
VERTEX
  5
22E8
  8
0
 10
40.178386249176789
 20
188.57296468969511
 30
0.0
  0
VERTEX
  5
22E9
  8
0
 10
40.201411568785552
 20
188.59214395368761
 30
0.0
  0
VERTEX
  5
22EA
  8
0
 10
40.237098132911612
 20
188.61620549833231
 30
0.0
  0
VERTEX
  5
22EB
  8
0
 10
40.278801844685837
 20
188.63753507013689
 30
0.0
  0
VERTEX
  5
22EC
  8
0
 10
40.31398068007087
 20
188.65032200401919
 30
0.0
  0
VERTEX
  5
22ED
  8
0
 10
40.352994765225539
 20
188.66182956549849
 30
0.0
  0
VERTEX
  5
22EE
  8
0
 10
40.399047383095208
 20
188.66950127560409
 30
0.0
  0
VERTEX
  5
22EF
  8
0
 10
40.438904990105009
 20
188.6712774430427
 30
0.0
  0
VERTEX
  5
22F0
  8
0
 10
40.493789108056127
 20
188.6687091865449
 30
0.0
  0
VERTEX
  5
22F1
  8
0
 10
40.538516571447097
 20
188.66589207867841
 30
0.0
  0
VERTEX
  5
22F2
  8
0
 10
40.573590352390717
 20
188.66244375135341
 30
0.0
  0
VERTEX
  5
22F3
  8
0
 10
40.626680074527393
 20
188.65508738511809
 30
0.0
  0
VERTEX
  5
22F4
  8
0
 10
40.68334958105298
 20
188.6499696267561
 30
0.0
  0
VERTEX
  5
22F5
  8
0
 10
40.761470574621548
 20
188.6475797360614
 30
0.0
  0
VERTEX
  5
22F6
  8
0
 10
40.940544343572462
 20
188.6448804965213
 30
0.0
  0
VERTEX
  5
22F7
  8
0
 10
41.277033188627257
 20
188.63528467456061
 30
0.0
  0
VERTEX
  5
22F8
  8
0
 10
41.761649240395769
 20
188.62980211345641
 30
0.0
  0
SEQEND
  5
22F9
  8
0
  0
POLYLINE
  5
1F7C
  8
0
 66
     1
 10
0.0
 20
0.0
 30
0.0
  0
VERTEX
  5
22FA
  8
0
 10
42.346533187079778
 20
130.4049868781108
 30
0.0
  0
VERTEX
  5
22FB
  8
0
 10
41.997957871120668
 20
129.98630691035771
 30
0.0
  0
VERTEX
  5
22FC
  8
0
 10
41.678495593865811
 20
129.5450317589584
 30
0.0
  0
VERTEX
  5
22FD
  8
0
 10
41.421949577493649
 20
129.1380952767723
 30
0.0
  0
SEQEND
  5
22FE
  8
0
  0
LINE
  5
206C
  8
0
 10
54.000000000000028
 20
54.194903937269359
 30
0.0
 11
54.000000000000028
 21
103.4279039372697
 31
0.0
  0
LINE
  5
206D
  8
3
 10
53.233000000000033
 20
53.427903937269363
 30
0.0
 11
53.233000000000033
 21
103.4279039372697
 31
0.0
  0
LINE
  5
206E
  8
0
 10
53.233000000000033
 20
53.427903937269363
 30
0.0
 11
46.767000000000017
 21
53.427903937269363
 31
0.0
  0
LINE
  5
206F
  8
0
 10
54.000000000000028
 20
54.194903937269359
 30
0.0
 11
46.000000000000028
 21
54.194903937269359
 31
0.0
  0
LINE
  5
2070
  8
0
 10
46.000000000000028
 20
54.194903937269352
 30
0.0
 11
46.767000000000017
 21
53.427903937269363
 31
0.0
  0
LINE
  5
2071
  8
0
 10
46.000000000000028
 20
103.4279039372697
 30
0.0
 11
46.000000000000028
 21
54.194903937269359
 31
0.0
  0
LINE
  5
2072
  8
3
 10
46.767000000000017
 20
53.427903937269363
 30
0.0
 11
46.767000000000017
 21
103.4279039372697
 31
0.0
  0
LINE
  5
207B
  8
0
 10
54.000000000000028
 20
54.19490393726943
 30
0.0
 11
53.233000000000061
 21
53.42790393726942
 31
0.0
  0
TEXT
  5
218D
  8
0
 62
     3
 10
0.0
 20
0.0
 30
0.0
 40
10.0
  1
ECLN08X50
  7
STANDARD1
  0
ENDSEC
  0
EOF
