  0
SECTION
  2
HEADER
  9
$ACADVER
  1
AC1009
  9
$INSBASE
 10
0.0
 20
0.0
 30
0.0
  9
$EXTMIN
 10
0.0
 20
-2.960436562073669
 30
0.0
  9
$EXTMAX
 10
134.00004012286229
 20
144.3351000203665
 30
0.0
  9
$LIMMIN
 10
0.0
 20
0.0
  9
$LIMMAX
 10
385.0
 20
270.0
  9
$ORTHOMODE
 70
     1
  9
$REGENMODE
 70
     1
  9
$FILLMODE
 70
     1
  9
$QTEXTMODE
 70
     0
  9
$MIRRTEXT
 70
     0
  9
$DRAGMODE
 70
     2
  9
$LTSCALE
 40
5.0
  9
$OSMODE
 70
    37
  9
$ATTMODE
 70
     1
  9
$TEXTSIZE
 40
4.000000000000048
  9
$TRACEWID
 40
0.05
  9
$TEXTSTYLE
  7
STANDARD
  9
$CLAYER
  8
0
  9
$CELTYPE
  6
BYLAYER
  9
$CECOLOR
 62
   256
  9
$DIMSCALE
 40
1.0
  9
$DIMASZ
 40
3.0
  9
$DIMEXO
 40
2.0
  9
$DIMDLI
 40
0.38
  9
$DIMRND
 40
0.0
  9
$DIMDLE
 40
0.0
  9
$DIMEXE
 40
2.0
  9
$DIMTP
 40
0.0
  9
$DIMTM
 40
0.0
  9
$DIMTXT
 40
3.0
  9
$DIMCEN
 40
0.0
  9
$DIMTSZ
 40
0.0
  9
$DIMTOL
 70
     0
  9
$DIMLIM
 70
     0
  9
$DIMTIH
 70
     0
  9
$DIMTOH
 70
     0
  9
$DIMSE1
 70
     0
  9
$DIMSE2
 70
     0
  9
$DIMTAD
 70
     1
  9
$DIMZIN
 70
     8
  9
$DIMBLK
  1

  9
$DIMASO
 70
     0
  9
$DIMSHO
 70
     0
  9
$DIMPOST
  1

  9
$DIMAPOST
  1

  9
$DIMALT
 70
     0
  9
$DIMALTD
 70
     2
  9
$DIMALTF
 40
25.399999999999999
  9
$DIMLFAC
 40
1.0
  9
$DIMTOFL
 70
     1
  9
$DIMTVP
 40
1.6000000000000001
  9
$DIMTIX
 70
     1
  9
$DIMSOXD
 70
     0
  9
$DIMSAH
 70
     0
  9
$DIMBLK1
  1

  9
$DIMBLK2
  1

  9
$DIMSTYLE
  2
STANDARD
  9
$DIMCLRD
 70
     0
  9
$DIMCLRE
 70
     0
  9
$DIMCLRT
 70
     0
  9
$DIMTFAC
 40
1.0
  9
$DIMGAP
 40
1.0
  9
$LUNITS
 70
     2
  9
$LUPREC
 70
     4
  9
$SKETCHINC
 40
0.1
  9
$FILLETRAD
 40
0.0
  9
$AUNITS
 70
     0
  9
$AUPREC
 70
     4
  9
$MENU
  1
E:\r13\win\SUPPORT\ACAD
  9
$ELEVATION
 40
0.0
  9
$PELEVATION
 40
0.0
  9
$THICKNESS
 40
0.0
  9
$LIMCHECK
 70
     0
  9
$BLIPMODE
 70
     0
  9
$CHAMFERA
 40
0.0
  9
$CHAMFERB
 40
0.0
  9
$SKPOLY
 70
     0
  9
$TDCREATE
 40
2450280.598206134
  9
$TDUPDATE
 40
2456807.4624276622
  9
$TDINDWG
 40
0.2363256019
  9
$TDUSRTIMER
 40
0.2363256019
  9
$USRTIMER
 70
     1
  9
$ANGBASE
 50
0.0
  9
$ANGDIR
 70
     0
  9
$PDMODE
 70
     0
  9
$PDSIZE
 40
0.0
  9
$PLINEWID
 40
0.0
  9
$COORDS
 70
     1
  9
$SPLFRAME
 70
     0
  9
$SPLINETYPE
 70
     6
  9
$SPLINESEGS
 70
     8
  9
$ATTDIA
 70
     0
  9
$ATTREQ
 70
     1
  9
$HANDLING
 70
     1
  9
$HANDSEED
  5
2242
  9
$SURFTAB1
 70
     6
  9
$SURFTAB2
 70
     6
  9
$SURFTYPE
 70
     6
  9
$SURFU
 70
     6
  9
$SURFV
 70
     6
  9
$UCSNAME
  2

  9
$UCSORG
 10
0.0
 20
0.0
 30
0.0
  9
$UCSXDIR
 10
1.0
 20
0.0
 30
0.0
  9
$UCSYDIR
 10
0.0
 20
1.0
 30
0.0
  9
$PUCSNAME
  2

  9
$PUCSORG
 10
0.0
 20
0.0
 30
0.0
  9
$PUCSXDIR
 10
1.0
 20
0.0
 30
0.0
  9
$PUCSYDIR
 10
0.0
 20
1.0
 30
0.0
  9
$USERI1
 70
     3
  9
$USERI2
 70
     1
  9
$USERI3
 70
     1
  9
$USERI4
 70
     0
  9
$USERI5
 70
     0
  9
$USERR1
 40
1.0
  9
$USERR2
 40
3.0
  9
$USERR3
 40
3.0
  9
$USERR4
 40
3.0
  9
$USERR5
 40
10.0
  9
$WORLDVIEW
 70
     1
  9
$SHADEDGE
 70
     3
  9
$SHADEDIF
 70
    70
  9
$TILEMODE
 70
     1
  9
$MAXACTVP
 70
    16
  9
$PLIMCHECK
 70
     0
  9
$PEXTMIN
 10
1.0000000000000000E+020
 20
1.0000000000000000E+020
 30
1.0000000000000000E+020
  9
$PEXTMAX
 10
-1.0000000000000000E+020
 20
-1.0000000000000000E+020
 30
-1.0000000000000000E+020
  9
$PLIMMIN
 10
0.0
 20
0.0
  9
$PLIMMAX
 10
12.0
 20
9.0
  9
$UNITMODE
 70
     0
  9
$VISRETAIN
 70
     0
  9
$PLINEGEN
 70
     0
  9
$PSLTSCALE
 70
     0
  0
ENDSEC
  0
SECTION
  2
TABLES
  0
TABLE
  2
VPORT
 70
     1
  0
VPORT
  2
*ACTIVE
 70
     0
 10
0.0
 20
0.0
 11
1.0
 21
1.0
 12
289.7295683288275
 22
133.5156169910021
 13
0.0
 23
0.0
 14
5.0
 24
5.0
 15
10.0
 25
10.0
 16
0.0
 26
0.0
 36
1.0
 17
0.0
 27
0.0
 37
0.0
 40
275.370250763022
 41
2.6019575856443709
 42
50.0
 43
0.0
 44
0.0
 50
0.0
 51
0.0
 71
     0
 72
   500
 73
     1
 74
     0
 75
     0
 76
     0
 77
     0
 78
     2
  0
ENDTAB
  0
TABLE
  2
LTYPE
 70
     3
  0
LTYPE
  2
CONTINUOUS
 70
     0
  3
Solid Line
 72
    65
 73
     0
 40
0.0
  0
LTYPE
  2
CENTER
 70
     0
  3
____ _ ____ _ ____ _ ____ _ ____ _ ____ _ ____
 72
    65
 73
     4
 40
2.0
 49
1.25
 49
-0.25
 49
0.25
 49
-0.25
  0
LTYPE
  2
PHANTOM2
 70
     0
  3
___ _ _ ___ _ _ ___ _ _ ___ _ _
 72
    65
 73
     6
 40
1.25
 49
0.625
 49
-0.125
 49
0.125
 49
-0.125
 49
0.125
 49
-0.125
  0
ENDTAB
  0
TABLE
  2
LAYER
 70
     3
  0
LAYER
  2
0
 70
     0
 62
     7
  6
CONTINUOUS
  0
LAYER
  2
1
 70
     0
 62
     1
  6
CENTER
  0
LAYER
  2
3
 70
     0
 62
     3
  6
CONTINUOUS
  0
ENDTAB
  0
TABLE
  2
STYLE
 70
     2
  0
STYLE
  2
STANDARD
 70
     0
 40
0.0
 41
1.0
 50
0.0
 71
     0
 42
4.000000000000048
  3
SIMPLEX
  4
BIGFONT
  0
STYLE
  2
STANDARD1
 70
     0
 40
0.0
 41
1.0
 50
0.0
 71
     0
 42
3.0
  3
txt
  4

  0
ENDTAB
  0
TABLE
  2
VIEW
 70
     2
  0
VIEW
  2
OLE1
 70
     0
 40
100.4021213141917
 10
119.5958647627379
 20
30.845687992436051
 41
193.4756206346469
 11
0.0
 21
0.0
 31
1.0
 12
0.0
 22
0.0
 32
0.0
 42
50.0
 43
0.0
 44
0.0
 50
0.0
 71
     0
  0
VIEW
  2
OLE2
 70
     0
 40
132.5110991231077
 10
142.99576892107009
 20
-91.953711750729923
 41
177.41763827038309
 11
0.0
 21
0.0
 31
1.0
 12
0.0
 22
0.0
 32
0.0
 42
50.0
 43
0.0
 44
0.0
 50
0.0
 71
     0
  0
ENDTAB
  0
TABLE
  2
UCS
 70
     0
  0
ENDTAB
  0
TABLE
  2
APPID
 70
     6
  0
APPID
  2
ACAD
 70
     0
  0
APPID
  2
GENIUS_GENODEF_13
 70
     0
  0
APPID
  2
GENIUS_GENOBJ-N-FIL_13
 70
     0
  0
APPID
  2
ACAD_MLEADERVER
 70
     0
  0
APPID
  2
ACAD_NAV_VCDISPLAY
 70
     0
  0
APPID
  2
ACAD_EXEMPT_FROM_CAD_STANDARDS
 70
     0
  0
ENDTAB
  0
TABLE
  2
DIMSTYLE
 70
     1
  0
DIMSTYLE
  2
STANDARD
 70
     0
  3

  4

  5

  6

  7

 40
1.0
 41
0.18
 42
0.0625
 43
0.38
 44
0.18
 45
0.0
 46
0.0
 47
0.0
 48
0.0
140
0.18
141
0.09
142
0.0
143
25.399999999999999
144
1.0
145
0.0
146
1.0
147
0.09
 71
     0
 72
     0
 73
     1
 74
     1
 75
     0
 76
     0
 77
     0
 78
     0
170
     0
171
     2
172
     0
173
     0
174
     0
175
     0
176
     0
177
     0
178
     0
  0
ENDTAB
  0
ENDSEC
  0
SECTION
  2
BLOCKS
  0
BLOCK
  8
0
  2
$MODEL_SPACE
 70
     0
 10
0.0
 20
0.0
 30
0.0
  3
$MODEL_SPACE
  1

  0
ENDBLK
  5
175
  8
0
  0
BLOCK
 67
     1
  8
0
  2
$PAPER_SPACE
 70
     0
 10
0.0
 20
0.0
 30
0.0
  3
$PAPER_SPACE
  1

  0
ENDBLK
  5
173
 67
     1
  8
0
  0
ENDSEC
  0
SECTION
  2
ENTITIES
  0
LINE
  5
FA5
  8
1
 10
50.000000000000028
 20
144.3351000203665
 30
0.0
 11
50.000000000000028
 21
140.43444503572309
 31
0.0
  0
LINE
  5
1365
  8
1
 10
41.500000000000028
 20
61.000000132033271
 30
0.0
 11
58.500000000000028
 21
60.999999867966721
 31
0.0
  0
POLYLINE
  5
1366
  8
0
 66
     1
 10
0.0
 20
0.0
 30
0.0
 70
     2
  0
VERTEX
  5
1367
  8
0
 10
42.030313941124028
 20
119.8271058976582
 30
0.0
 42
-0.0632055303446419
  0
VERTEX
  5
1368
  8
0
 10
41.532742973357188
 20
119.8913739626738
 30
0.0
 42
-0.0632055303446354
 70
     1
  0
VERTEX
  5
1369
  8
0
 10
41.067002776396968
 20
120.0779036414939
 30
0.0
 42
-0.063205667945688
  0
VERTEX
  5
136A
  8
0
 10
40.662625779451503
 20
120.37486758496151
 30
0.0
 42
-0.0632056679456209
 70
     1
  0
VERTEX
  5
136B
  8
0
 10
40.345255247211128
 20
120.7634345478435
 30
0.0
  0
SEQEND
  5
136C
  8
0
  0
POLYLINE
  5
136D
  8
0
 66
     1
 10
0.0
 20
0.0
 30
0.0
 70
     2
  0
VERTEX
  5
136E
  8
0
 10
42.030313941124028
 20
139.8270842230055
 30
0.0
 42
0.0632055303446419
  0
VERTEX
  5
136F
  8
0
 10
41.532742973357188
 20
139.7628161579899
 30
0.0
 42
0.0632055303446354
 70
     1
  0
VERTEX
  5
1370
  8
0
 10
41.067002776396968
 20
139.57628647916991
 30
0.0
 42
0.063205667945688
  0
VERTEX
  5
1371
  8
0
 10
40.662625779451503
 20
139.27932253570219
 30
0.0
 42
0.0632056679456209
 70
     1
  0
VERTEX
  5
1372
  8
0
 10
40.345255247211128
 20
138.89075557282021
 30
0.0
  0
SEQEND
  5
1373
  8
0
  0
POLYLINE
  5
1374
  8
0
 66
     1
 10
0.0
 20
0.0
 30
0.0
 70
     2
  0
VERTEX
  5
1375
  8
0
 10
54.476585898472713
 20
125.1704357596475
 30
0.0
 42
0.0985511227959313
  0
VERTEX
  5
1376
  8
0
 10
55.428815326078791
 20
125.35901210567521
 30
0.0
 42
0.0985511227959288
 70
     1
  0
VERTEX
  5
1377
  8
0
 10
56.236268110063968
 20
125.8978274012217
 30
0.0
 42
0.0985410598154389
  0
VERTEX
  5
1378
  8
0
 10
56.775832678830078
 20
126.70466274543389
 30
0.0
 42
0.0985410598154406
 70
     1
  0
VERTEX
  5
1379
  8
0
 10
56.965375563080777
 20
127.6566011318686
 30
0.0
  0
SEQEND
  5
137A
  8
0
  0
POLYLINE
  5
137B
  8
0
 66
     1
 10
0.0
 20
0.0
 30
0.0
 70
     2
  0
VERTEX
  5
137C
  8
0
 10
54.476585898472713
 20
134.48375436101631
 30
0.0
 42
-0.0985511227959313
  0
VERTEX
  5
137D
  8
0
 10
55.428815326078791
 20
134.29517801498849
 30
0.0
 42
-0.0985511227959288
 70
     1
  0
VERTEX
  5
137E
  8
0
 10
56.236268110063968
 20
133.756362719442
 30
0.0
 42
-0.0985410598154389
  0
VERTEX
  5
137F
  8
0
 10
56.775832678830078
 20
132.94952737522979
 30
0.0
 42
-0.0985410598154406
 70
     1
  0
VERTEX
  5
1380
  8
0
 10
56.965375563080777
 20
131.99758898879509
 30
0.0
  0
SEQEND
  5
1381
  8
0
  0
LINE
  5
1581
  8
0
 10
54.476585898472713
 20
125.1704362961421
 30
0.0
 11
53.289896484812061
 21
125.17048551614759
 31
0.0
  0
LINE
  5
1582
  8
0
 10
54.476585898472713
 20
134.48375436101631
 30
0.0
 11
53.289898505436298
 21
134.4837051416086
 31
0.0
  0
LINE
  5
1583
  8
0
 10
45.954129598526229
 20
125.17706051604129
 30
0.0
 11
41.761648674378591
 21
125.20189794542109
 31
0.0
  0
LINE
  5
1584
  8
0
 10
45.954140260462623
 20
134.4771303475838
 30
0.0
 11
41.761648674378591
 21
134.45229271173719
 31
0.0
  0
LINE
  5
1585
  8
0
 10
53.289898505436298
 20
134.4837051416086
 30
0.0
 11
45.954140260462623
 21
134.4771303475838
 31
0.0
  0
LINE
  5
1586
  8
0
 10
53.289896484812061
 20
125.17048551614759
 30
0.0
 11
45.954129598526229
 21
125.17706051604129
 31
0.0
  0
POLYLINE
  5
1597
  8
0
 66
     1
 10
0.0
 20
0.0
 30
0.0
 70
     2
  0
VERTEX
  5
1598
  8
0
 10
125.2676201542931
 20
56.219889882407237
 30
0.0
 42
-0.0577944293441145
  0
VERTEX
  5
1599
  8
0
 10
124.7597066832991
 20
55.864502123194761
 30
0.0
 42
-0.0577944293441055
 70
     1
  0
VERTEX
  5
159A
  8
0
 10
124.18393621729589
 20
55.63479595459296
 30
0.0
 42
-0.0577944293595482
  0
VERTEX
  5
159B
  8
0
 10
123.5708751991681
 20
55.542965993957068
 30
0.0
 42
-0.0577944293595578
 70
     1
  0
VERTEX
  5
159C
  8
0
 10
122.9530697491077
 20
55.593887300836677
 30
0.0
  0
SEQEND
  5
159D
  8
0
  0
POLYLINE
  5
159E
  8
0
 66
     1
 10
0.0
 20
0.0
 30
0.0
 70
     2
  0
VERTEX
  5
159F
  8
0
 10
129.00342804069791
 20
62.574191563532402
 30
0.0
 42
-0.0144024110851705
  0
VERTEX
  5
15A0
  8
0
 10
128.78688253166871
 20
61.715278487033459
 30
0.0
 42
-0.0259355907986343
 70
     1
  0
VERTEX
  5
15A1
  8
0
 10
128.62851743768641
 20
61.249334970416101
 30
0.0
 42
-0.0028730607565136
  0
VERTEX
  5
15A2
  8
0
 10
128.19464938402359
 20
60.17937141581325
 30
0.0
 42
-0.014917545178298
 70
     1
  0
VERTEX
  5
15A3
  8
0
 10
128.10379127273751
 20
59.97635994929567
 30
0.0
 42
-0.0128910138954595
  0
VERTEX
  5
15A4
  8
0
 10
127.79638899708441
 20
59.38071257320496
 30
0.0
 42
-0.0141495891631069
 70
     1
  0
VERTEX
  5
15A5
  8
0
 10
127.4873964573995
 20
58.853959760351017
 30
0.0
 42
-0.0126115137557429
  0
VERTEX
  5
15A6
  8
0
 10
127.1109849558829
 20
58.284448979397837
 30
0.0
 42
-0.0143900017069927
 70
     1
  0
VERTEX
  5
15A7
  8
0
 10
126.75461917768111
 20
57.803834904109117
 30
0.0
 42
-0.0103880046824238
  0
VERTEX
  5
15A8
  8
0
 10
126.6410631952983
 20
57.665566924435147
 30
0.0
 42
-0.0020455480401007
 70
     1
  0
VERTEX
  5
15A9
  8
0
 10
126.0471676090455
 20
56.978020779195219
 30
0.0
 42
-0.0207000432309457
  0
VERTEX
  5
15AA
  8
0
 10
125.7819461344077
 20
56.6978141406085
 30
0.0
 42
-0.0113718064442804
 70
     1
  0
VERTEX
  5
15AB
  8
0
 10
125.2676201542931
 20
56.219889882407237
 30
0.0
  0
SEQEND
  5
15AC
  8
0
  0
CIRCLE
  5
15AD
  8
0
 10
50.000000000000028
 20
61.0
 30
0.0
 40
5.5
  0
CIRCLE
  5
15AE
  8
0
 10
50.000000000000057
 20
129.82709506033191
 30
0.0
 40
3.3235000000000001
  0
CIRCLE
  5
15AF
  8
3
 10
50.000000000000057
 20
129.82709506033191
 30
0.0
 40
4.0
  0
POLYLINE
  5
15B0
  8
0
 66
     1
 10
0.0
 20
0.0
 30
0.0
  0
VERTEX
  5
15B1
  8
0
 10
119.27150615192279
 20
119.82711777489391
 30
0.0
 42
0.0000001608710891
 50
314.21172692790691
  0
VERTEX
  5
15B2
  8
0
 10
119.2715122471695
 20
119.82711777489379
 30
0.0
 42
0.1009719458560545
  0
VERTEX
  5
15B3
  8
0
 10
122.9815500159055
 20
120.5840556396799
 30
0.0
 42
0.0994844944033212
  0
VERTEX
  5
15B4
  8
0
 10
126.1506215407437
 20
122.7560456461029
 30
0.0
 42
0.097450726559322
 70
     2
 50
45.788307977180679
  0
VERTEX
  5
15B5
  8
0
 10
128.2554879262878
 20
125.9873924637789
 30
0.0
 42
0.096059825628347
 50
45.788307977180679
  0
VERTEX
  5
15B6
  8
0
 10
129.00004012286189
 20
129.8270988451749
 30
0.0
 42
0.0960598256283442
  0
VERTEX
  5
15B7
  8
0
 10
128.25548558710531
 20
133.6668047729828
 30
0.0
 42
0.0974507265593076
  0
VERTEX
  5
15B8
  8
0
 10
126.15061723299711
 20
136.8981503083549
 30
0.0
 42
0.0994844944033068
 70
     2
 50
134.2117269279068
  0
VERTEX
  5
15B9
  8
0
 10
122.981544384964
 20
139.0701383841519
 30
0.0
 42
0.1009719459406426
 50
134.2117269279068
  0
VERTEX
  5
15BA
  8
0
 10
119.27150615192279
 20
139.8270739887503
 30
0.0
 42
0.1009719458560501
  0
SEQEND
  5
15BB
  8
0
  0
POLYLINE
  5
15BC
  8
0
 66
     1
 10
0.0
 20
0.0
 30
0.0
  0
VERTEX
  5
15BD
  8
0
 10
119.27150615192279
 20
119.82711777489391
 30
0.0
 42
0.0000001608710891
 50
314.21172692790691
  0
VERTEX
  5
15BE
  8
0
 10
119.2715122471695
 20
119.82711777489379
 30
0.0
 42
0.1009719458560545
  0
VERTEX
  5
15BF
  8
0
 10
122.9815500159055
 20
120.5840556396799
 30
0.0
 42
0.0994844944033212
  0
VERTEX
  5
15C0
  8
0
 10
126.1506215407437
 20
122.7560456461029
 30
0.0
 42
0.097450726559322
 70
     2
 50
45.788307977180679
  0
VERTEX
  5
15C1
  8
0
 10
128.2554879262878
 20
125.9873924637789
 30
0.0
 42
0.096059825628347
 50
45.788307977180679
  0
VERTEX
  5
15C2
  8
0
 10
129.00004012286189
 20
129.8270988451749
 30
0.0
 42
0.0960598256283442
  0
VERTEX
  5
15C3
  8
0
 10
128.25548558710531
 20
133.6668047729828
 30
0.0
 42
0.0974507265593076
  0
VERTEX
  5
15C4
  8
0
 10
126.15061723299711
 20
136.8981503083549
 30
0.0
 42
0.0994844944033068
 70
     2
 50
134.2117269279068
  0
VERTEX
  5
15C5
  8
0
 10
122.981544384964
 20
139.0701383841519
 30
0.0
 42
0.1009719458560303
 50
134.2117269279068
  0
VERTEX
  5
15C6
  8
0
 10
119.27150615509581
 20
139.8270739887503
 30
0.0
 42
0.1009719458560501
  0
SEQEND
  5
15C7
  8
0
  0
POLYLINE
  5
15C8
  8
0
 66
     1
 10
0.0
 20
0.0
 30
0.0
 70
     2
  0
VERTEX
  5
15C9
  8
0
 10
43.09311879630792
 20
127.8833239430778
 30
0.0
 42
0.0692012836003717
  0
VERTEX
  5
15CA
  8
0
 10
43.187275633761537
 20
127.0832199375623
 30
0.0
 42
0.0692012836003613
 70
     1
  0
VERTEX
  5
15CB
  8
0
 10
43.49617591621444
 20
126.339168497686
 30
0.0
 42
0.0689621009045868
  0
VERTEX
  5
15CC
  8
0
 10
43.994364277924817
 20
125.70956235300331
 30
0.0
 42
0.080298626352583
 70
     1
  0
VERTEX
  5
15CD
  8
0
 10
44.762812661954797
 20
125.17994663469671
 30
0.0
  0
SEQEND
  5
15CE
  8
0
  0
POLYLINE
  5
15CF
  8
0
 66
     1
 10
0.0
 20
0.0
 30
0.0
 70
     2
  0
VERTEX
  5
15D0
  8
0
 10
43.09311879630792
 20
131.7708661775859
 30
0.0
 42
-0.0692012836003717
  0
VERTEX
  5
15D1
  8
0
 10
43.187275633761537
 20
132.57097018310139
 30
0.0
 42
-0.0692012836003613
 70
     1
  0
VERTEX
  5
15D2
  8
0
 10
43.49617591621444
 20
133.31502162297781
 30
0.0
 42
-0.0689621009045868
  0
VERTEX
  5
15D3
  8
0
 10
43.994364277924817
 20
133.94462776766051
 30
0.0
 42
-0.080298626352583
 70
     1
  0
VERTEX
  5
15D4
  8
0
 10
44.762812661954797
 20
134.47424348596709
 30
0.0
  0
SEQEND
  5
15D5
  8
0
  0
LINE
  5
15D6
  8
0
 10
128.91697243629281
 20
63.257542066720482
 30
0.0
 11
129.0034280410965
 21
62.574191565027199
 31
0.0
  0
POLYLINE
  5
15D7
  8
0
 66
     1
 10
0.0
 20
0.0
 30
0.0
  0
VERTEX
  5
2198
  8
0
 10
120.88129337196629
 20
56.675600780981483
 30
0.0
  0
VERTEX
  5
2199
  8
0
 10
120.8731200719939
 20
56.68668624921122
 30
0.0
  0
VERTEX
  5
219A
  8
0
 10
120.8642582402944
 20
56.698825769699788
 30
0.0
  0
VERTEX
  5
219B
  8
0
 10
120.8546489251231
 20
56.712134440998902
 30
0.0
  0
SEQEND
  5
219C
  8
0
  0
POLYLINE
  5
15D8
  8
0
 66
     1
 10
0.0
 20
0.0
 30
0.0
  0
VERTEX
  5
219D
  8
0
 10
120.8973623208303
 20
56.654112390805039
 30
0.0
  0
VERTEX
  5
219E
  8
0
 10
120.88917810880911
 20
56.665006118659669
 30
0.0
  0
VERTEX
  5
219F
  8
0
 10
120.88129337196629
 20
56.675600780981483
 30
0.0
  0
SEQEND
  5
21A0
  8
0
  0
LINE
  5
15D9
  8
0
 10
120.9162650896878
 20
56.629358267282441
 30
0.0
 11
120.8973623208301
 21
56.654112390805089
 31
0.0
  0
LINE
  5
15DA
  8
0
 10
120.927566143013
 20
56.614804088038291
 30
0.0
 11
120.9162650896878
 21
56.629358267282441
 31
0.0
  0
LINE
  5
15DB
  8
0
 10
120.9394496010529
 20
56.599684066063674
 30
0.0
 11
120.927566143013
 21
56.614804088038291
 31
0.0
  0
POLYLINE
  5
15DC
  8
0
 66
     1
 10
0.0
 20
0.0
 30
0.0
  0
VERTEX
  5
21A1
  8
0
 10
120.2798395612846
 20
57.445099759477777
 30
0.0
  0
VERTEX
  5
21A2
  8
0
 10
120.251380309732
 20
57.47956689212532
 30
0.0
  0
VERTEX
  5
21A3
  8
0
 10
120.2192272888113
 20
57.517917992990128
 30
0.0
  0
VERTEX
  5
21A4
  8
0
 10
120.18291554640111
 20
57.560420556522722
 30
0.0
  0
VERTEX
  5
21A5
  8
0
 10
120.1421579013637
 20
57.607069166756901
 30
0.0
  0
SEQEND
  5
21A6
  8
0
  0
POLYLINE
  5
15DD
  8
0
 66
     1
 10
0.0
 20
0.0
 30
0.0
  0
VERTEX
  5
21A7
  8
0
 10
120.3462441281627
 20
57.36421821638578
 30
0.0
  0
VERTEX
  5
21A8
  8
0
 10
120.3277393279046
 20
57.386462547599187
 30
0.0
  0
VERTEX
  5
21A9
  8
0
 10
120.2798395612846
 20
57.445099759477777
 30
0.0
  0
SEQEND
  5
21AA
  8
0
  0
LINE
  5
15DE
  8
0
 10
120.347804091287
 20
57.362382202895162
 30
0.0
 11
120.34677274668699
 21
57.363608615353662
 31
0.0
  0
LINE
  5
15DF
  8
0
 10
120.1421579013638
 20
57.607069166756901
 30
0.0
 11
120.0939550981136
 21
57.660969754543309
 31
0.0
  0
LINE
  5
15E0
  8
0
 10
120.0939550981136
 20
57.660969754543309
 30
0.0
 11
120.0859276111175
 21
57.669831165437067
 31
0.0
  0
LINE
  5
15E1
  8
0
 10
120.0859534451736
 20
57.669817552181598
 30
0.0
 11
120.0664277126376
 21
57.691082168842122
 31
0.0
  0
LINE
  5
15E2
  8
0
 10
120.0680233953121
 20
57.689375674691121
 30
0.0
 11
120.04436613202481
 21
57.714634949477158
 31
0.0
  0
LINE
  5
15E3
  8
0
 10
120.0474845678667
 20
57.711340812001993
 30
0.0
 11
120.04381491993659
 21
57.715216635045117
 31
0.0
  0
LINE
  5
15E4
  8
0
 10
120.0438202163275
 20
57.715211724184989
 30
0.0
 11
119.9983364837792
 21
57.762052610790811
 31
0.0
  0
LINE
  5
15E5
  8
0
 10
120.0015808715297
 20
57.7587866688853
 30
0.0
 11
119.9523051007945
 21
57.807267496491129
 31
0.0
  0
LINE
  5
15E6
  8
0
 10
119.9557858138861
 20
57.803927548203433
 30
0.0
 11
119.90548174144431
 21
57.8510595330361
 31
0.0
  0
LINE
  5
15E7
  8
0
 10
119.9072822752336
 20
57.849458801492013
 30
0.0
 11
119.8510003878236
 21
57.899495185173073
 31
0.0
  0
LINE
  5
15E8
  8
0
 10
119.8510142863659
 20
57.899483571018273
 30
0.0
 11
119.64996859874221
 21
58.072568859222713
 31
0.0
  0
LINE
  5
15E9
  8
0
 10
119.6483190858346
 20
58.07395548531656
 30
0.0
 11
119.6442315430688
 21
58.077467096280998
 31
0.0
  0
LINE
  5
15EA
  8
0
 10
119.64996859874221
 20
58.072568859222713
 30
0.0
 11
119.4430295826146
 21
58.246423926820171
 31
0.0
  0
LINE
  5
15EB
  8
0
 10
119.4493362020042
 20
58.241225995761113
 30
0.0
 11
119.2277954959565
 21
58.419606335721312
 31
0.0
  0
LINE
  5
15EC
  8
0
 10
119.23461897473059
 20
58.414248620899969
 30
0.0
 11
118.9988113078436
 21
58.59403327663307
 31
0.0
  0
LINE
  5
15ED
  8
0
 10
119.00607777434131
 20
58.588658334191912
 30
0.0
 11
118.7566670135347
 21
58.767215309469627
 31
0.0
  0
LINE
  5
15EE
  8
0
 10
118.76427159927429
 20
58.761952992662707
 30
0.0
 11
118.50220020001829
 21
58.937011240024511
 31
0.0
  0
LINE
  5
15EF
  8
0
 10
118.51002402696921
 20
58.93197054876191
 30
0.0
 11
118.2366433136241
 21
59.10163502983152
 31
0.0
  0
LINE
  5
15F0
  8
0
 10
118.2445490149164
 20
59.0969113582413
 30
0.0
 11
118.055371280693
 21
59.20716782497248
 31
0.0
  0
LINE
  5
15F1
  8
0
 10
118.05539023976429
 20
59.207157461476179
 30
0.0
 11
118.038611989134
 21
59.216656539929943
 31
0.0
  0
LINE
  5
15F2
  8
0
 10
118.0553896832408
 20
59.207158825332719
 30
0.0
 11
117.93359955663659
 21
59.27505470622782
 31
0.0
  0
LINE
  5
15F3
  8
0
 10
117.9417202759381
 20
59.270613411835313
 30
0.0
 11
117.8282340884697
 21
59.33187595600748
 31
0.0
  0
LINE
  5
15F4
  8
0
 10
117.83647485783909
 20
59.327513256701252
 30
0.0
 11
117.72481527318131
 21
59.385984950880761
 31
0.0
  0
LINE
  5
15F5
  8
0
 10
117.7310299893455
 20
59.38282053851475
 30
0.0
 11
117.6130161112027
 21
59.442771722900943
 31
0.0
  0
LINE
  5
15F6
  8
0
 10
117.6255559883099
 20
59.436525842808692
 30
0.0
 11
117.550622066313
 21
59.473839916254462
 31
0.0
  0
LINE
  5
15F7
  8
0
 10
117.5590827675417
 20
59.469693165752403
 30
0.0
 11
117.4978759661111
 21
59.499698492549328
 31
0.0
  0
LINE
  5
15F8
  8
0
 10
117.4978790449769
 20
59.499731266260483
 30
0.0
 11
116.666460383596
 21
59.882767093512882
 31
0.0
  0
LINE
  5
15F9
  8
0
 10
116.67440368824801
 20
59.879331413595537
 30
0.0
 11
115.713785551481
 21
60.271276764180527
 31
0.0
  0
LINE
  5
15FA
  8
0
 10
115.7218984598216
 20
60.26819911698658
 30
0.0
 11
114.7274174520016
 21
60.621167239065358
 31
0.0
  0
LINE
  5
15FB
  8
0
 10
114.73567188106119
 20
60.618457293358183
 30
0.0
 11
113.7173680253921
 21
60.928318353949571
 31
0.0
  0
LINE
  5
1600
  8
0
 10
40.312548991529113
 20
53.172468403360533
 30
0.0
 11
43.42698120985164
 21
53.172468403360597
 31
0.0
  0
LINE
  5
1606
  8
0
 10
122.9530697491077
 20
55.593887300836677
 30
0.0
 11
122.4027017221869
 21
55.704133690554272
 31
0.0
  0
LINE
  5
160A
  8
0
 10
54.436980994123267
 20
70.892400631854457
 30
0.0
 11
54.436559696870347
 21
70.896219441667711
 31
0.0
  0
LINE
  5
160B
  8
0
 10
113.7173680253921
 20
60.928318353949571
 30
0.0
 11
112.6602869419565
 21
61.197905908886021
 31
0.0
  0
LINE
  5
160C
  8
0
 10
112.66873839712041
 20
61.195953763213993
 30
0.0
 11
111.9934734637602
 21
61.341979382945567
 31
0.0
  0
LINE
  5
160D
  8
0
 10
111.9934725019757
 20
61.341979616815081
 30
0.0
 11
111.6860105315284
 21
61.401836026473461
 31
0.0
  0
LINE
  5
1610
  8
0
 10
53.247934547361467
 20
70.757349887798057
 30
0.0
 11
53.247493367218432
 21
70.761164782913795
 31
0.0
  0
LINE
  5
1611
  8
0
 10
53.606013392101481
 20
70.802647755107103
 30
0.0
 11
54.531234786630513
 21
70.906882940132846
 31
0.0
  0
LINE
  5
1612
  8
0
 10
53.247493367318157
 20
70.761164783013328
 30
0.0
 11
53.606013392101481
 21
70.802647755107103
 31
0.0
  0
LINE
  5
1613
  8
0
 10
54.531234786630513
 20
70.906882940132846
 30
0.0
 11
54.633481856821049
 21
70.918845469866014
 31
0.0
  0
LINE
  5
1614
  8
0
 10
54.633481856821049
 20
70.918845469866014
 30
0.0
 11
54.734656722417192
 21
70.931139871028847
 31
0.0
  0
LINE
  5
1615
  8
0
 10
54.734656722417192
 20
70.931139871028847
 30
0.0
 11
54.834626670420157
 21
70.943736496905274
 31
0.0
  0
LINE
  5
1616
  8
0
 10
54.834626670420157
 20
70.943736496905274
 30
0.0
 11
55.030509038071102
 21
70.969721954408556
 31
0.0
  0
LINE
  5
1617
  8
0
 10
55.030509038071102
 20
70.969721954408556
 30
0.0
 11
55.220312970385457
 21
70.99657432625105
 31
0.0
  0
LINE
  5
1618
  8
0
 10
55.220312970385457
 20
70.99657432625105
 30
0.0
 11
55.403316621444667
 21
71.024065871107098
 31
0.0
  0
LINE
  5
1619
  8
0
 10
55.403316621444667
 20
71.024065871107098
 30
0.0
 11
55.49206847690516
 21
71.037980092823375
 31
0.0
  0
LINE
  5
161A
  8
1
 10
50.000000000000028
 20
75.319090100297217
 30
0.0
 11
49.999999999999943
 21
35.145246653967611
 31
0.0
  0
LINE
  5
161D
  8
0
 10
45.852476947881819
 20
69.196389495299684
 30
0.0
 11
45.852284739967189
 21
69.197226566719621
 31
0.0
  0
POLYLINE
  5
161E
  8
0
 66
     1
 10
0.0
 20
0.0
 30
0.0
  0
VERTEX
  5
21AB
  8
0
 10
126.2117996629331
 20
66.224728896975364
 30
0.0
  0
VERTEX
  5
21AC
  8
0
 10
126.4017409724816
 20
66.176987373787938
 30
0.0
  0
VERTEX
  5
21AD
  8
0
 10
126.687700062611
 20
66.083017585101786
 30
0.0
  0
VERTEX
  5
21AE
  8
0
 10
126.96449538769269
 20
65.964738751391664
 30
0.0
  0
VERTEX
  5
21AF
  8
0
 10
127.2300639029888
 20
65.823031341361343
 30
0.0
  0
VERTEX
  5
21B0
  8
0
 10
127.4824263804053
 20
65.658950546723247
 30
0.0
  0
VERTEX
  5
21B1
  8
0
 10
127.7197021737547
 20
65.473718315888561
 30
0.0
  0
VERTEX
  5
21B2
  8
0
 10
127.9401229574671
 20
65.268714405745698
 30
0.0
  0
VERTEX
  5
21B3
  8
0
 10
128.14204613098721
 20
65.045465921208063
 30
0.0
  0
VERTEX
  5
21B4
  8
0
 10
128.32396692288961
 20
64.805636034575059
 30
0.0
  0
VERTEX
  5
21B5
  8
0
 10
128.48452962647571
 20
64.551011600514073
 30
0.0
  0
VERTEX
  5
21B6
  8
0
 10
128.62253775740501
 20
64.283489787437134
 30
0.0
  0
VERTEX
  5
21B7
  8
0
 10
128.73696297909399
 20
64.005063923665091
 30
0.0
  0
VERTEX
  5
21B8
  8
0
 10
128.82695277407711
 20
63.717808627633929
 30
0.0
  0
VERTEX
  5
21B9
  8
0
 10
128.89183680481401
 20
63.423864324979661
 30
0.0
  0
VERTEX
  5
21BA
  8
0
 10
128.91696809122351
 20
63.257541537101069
 30
0.0
  0
SEQEND
  5
21BB
  8
0
  0
LINE
  5
161F
  8
0
 10
126.21165896090611
 20
66.224760018155223
 30
0.0
 11
119.4292106946406
 21
67.72839259842209
 31
0.0
  0
LINE
  5
1620
  8
0
 10
55.49206847690516
 20
71.037980092823375
 30
0.0
 11
55.663714024341182
 21
71.066005075289922
 31
0.0
  0
LINE
  5
1621
  8
0
 10
55.663714024341182
 20
71.066005075289922
 30
0.0
 11
55.827141200764771
 21
71.094111227200585
 31
0.0
  0
LINE
  5
1622
  8
0
 10
55.827141200764771
 20
71.094111227200585
 30
0.0
 11
55.981922216180521
 21
71.122086648273864
 31
0.0
  0
LINE
  5
1623
  8
0
 10
55.981922216180521
 20
71.122086648273864
 30
0.0
 11
56.127712778468641
 21
71.149731097721997
 31
0.0
  0
LINE
  5
1624
  8
0
 10
56.127712778468641
 20
71.149731097721997
 30
0.0
 11
56.197159048886817
 21
71.163372078694408
 31
0.0
  0
LINE
  5
1625
  8
0
 10
56.197159048886817
 20
71.163372078694408
 30
0.0
 11
56.2642739829476
 21
71.176863648668075
 31
0.0
  0
LINE
  5
1626
  8
0
 10
56.2642739829476
 20
71.176863648668075
 30
0.0
 11
56.329038056486837
 21
71.190185231315581
 31
0.0
  0
LINE
  5
1627
  8
0
 10
45.852284740465421
 20
69.197226566918914
 30
0.0
 11
47.14726762571496
 21
69.545083342850774
 31
0.0
  0
LINE
  5
1628
  8
0
 10
47.14726762571496
 20
69.545083342850774
 30
0.0
 11
48.490994097039902
 21
69.883010057073591
 31
0.0
  0
LINE
  5
1629
  8
0
 10
48.490994097039902
 20
69.883010057073591
 30
0.0
 11
49.782790202755621
 21
70.17740515173648
 31
0.0
  0
LINE
  5
162A
  8
0
 10
49.782790202755621
 20
70.17740515173648
 30
0.0
 11
51.022783115236727
 21
70.424598821667473
 31
0.0
  0
LINE
  5
162B
  8
0
 10
51.022783115236727
 20
70.424598821667473
 30
0.0
 11
52.210494071108712
 21
70.6228575078311
 31
0.0
  0
LINE
  5
162C
  8
0
 10
52.210494071108712
 20
70.6228575078311
 30
0.0
 11
53.247492932462478
 21
70.761168513166467
 31
0.0
  0
LINE
  5
1638
  8
0
 10
42.346533187079721
 20
66.977082940841456
 30
0.0
 11
42.633736814201882
 21
67.282538965576009
 31
0.0
  0
LINE
  5
1639
  8
0
 10
42.633736814201882
 20
67.282538965576009
 30
0.0
 11
43.002919050719782
 21
67.631585647212091
 31
0.0
  0
LINE
  5
163A
  8
0
 10
43.002919050719782
 20
67.631585647212091
 30
0.0
 11
43.389286239055593
 21
67.951720669724295
 31
0.0
  0
LINE
  5
163B
  8
0
 10
43.389286239055593
 20
67.951720669724295
 30
0.0
 11
43.790829239837869
 21
68.241789652349098
 31
0.0
  0
LINE
  5
163C
  8
0
 10
43.790829239837869
 20
68.241789652349098
 30
0.0
 11
44.205190047220547
 21
68.501184544049693
 31
0.0
  0
LINE
  5
163D
  8
0
 10
44.205190047220547
 20
68.501184544049693
 30
0.0
 11
44.630100889908363
 21
68.729496730831329
 31
0.0
  0
LINE
  5
163E
  8
0
 10
44.630100889908363
 20
68.729496730831329
 30
0.0
 11
45.063485081808089
 21
68.926226135810111
 31
0.0
  0
LINE
  5
163F
  8
0
 10
45.063485081808089
 20
68.926226135810111
 30
0.0
 11
45.503284337480459
 21
69.090798479815874
 31
0.0
  0
LINE
  5
1640
  8
0
 10
45.503284337480459
 20
69.090798479815874
 30
0.0
 11
45.852284738273063
 21
69.197226572498948
 31
0.0
  0
ARC
  5
1641
  8
0
 10
40.312548991529113
 20
52.859907510470357
 30
0.0
 40
0.312560892890177
 50
90.0
 51
179.50000000000031
  0
ARC
  5
164B
  8
0
 10
122.89199322891091
 20
58.146763311089671
 30
0.0
 40
2.4911561742547952
 50
218.28988951080291
 51
258.67280129399973
  0
ARC
  5
164C
  8
0
 10
123.2830486473995
 20
58.455486525498429
 30
0.0
 40
2.9893838424121042
 50
215.6764642908991
 51
218.2898637654983
  0
ARC
  5
164D
  8
0
 10
80.307027607575719
 20
34.756297889268012
 30
0.0
 40
29.893838424121061
 50
88.577594202199819
 51
139.47751887050009
  0
ARC
  5
164E
  8
0
 10
50.008582724090417
 20
60.654181437298917
 30
0.0
 40
9.9646128080403518
 50
315.78042431429873
 51
319.47751887050009
  0
ARC
  5
164F
  8
0
 10
77.630793456258345
 20
-117.3431914286723
 30
0.0
 40
189.73296734602701
 50
77.273270253451116
 51
96.446319974450745
  0
ARC
  5
1650
  8
0
 10
50.008582724090417
 20
60.65418143735257
 30
0.0
 40
9.9646128080942198
 50
224.2437521559269
 51
315.75624784407421
  0
ARC
  5
1651
  8
0
 10
50.008582724090417
 20
60.654181437298917
 30
0.0
 40
9.9646128080403518
 50
149.50943081709991
 51
224.24363562639999
  0
ARC
  5
1652
  8
0
 10
112.355492826792
 20
50.610045628194761
 30
0.0
 40
10.462843448442371
 50
35.676464290899141
 51
40.192936598801253
  0
ARC
  5
1653
  8
0
 10
76.294471710362586
 20
-126.83984134131001
 30
0.0
 40
191.53978739615161
 50
79.352053904701464
 51
88.577594202199819
  0
POLYLINE
  5
16A6
  8
0
 66
     1
 10
0.0
 20
0.0
 30
0.0
  0
VERTEX
  5
21BC
  8
0
 10
40.040582068865092
 20
121.8261658400837
 30
0.0
  0
VERTEX
  5
21BD
  8
0
 10
40.043276498374631
 20
121.7221638548985
 30
0.0
  0
VERTEX
  5
21BE
  8
0
 10
40.062450174164489
 20
121.5306438339062
 30
0.0
  0
VERTEX
  5
21BF
  8
0
 10
40.099890691372252
 20
121.3418413842402
 30
0.0
  0
VERTEX
  5
21C0
  8
0
 10
40.15522631653036
 20
121.1576059924448
 30
0.0
  0
VERTEX
  5
21C1
  8
0
 10
40.22789612005996
 20
120.97968859484379
 30
0.0
  0
VERTEX
  5
21C2
  8
0
 10
40.317135269101179
 20
120.8098006387977
 30
0.0
  0
VERTEX
  5
21C3
  8
0
 10
40.34537289919524
 20
120.7632422360111
 30
0.0
  0
SEQEND
  5
21C4
  8
0
  0
POLYLINE
  5
16A7
  8
0
 66
     1
 10
0.0
 20
0.0
 30
0.0
  0
VERTEX
  5
21C5
  8
0
 10
40.040587062730452
 20
134.80979384031269
 30
0.0
  0
VERTEX
  5
21C6
  8
0
 10
40.040810922739318
 20
134.79642624367409
 30
0.0
  0
VERTEX
  5
21C7
  8
0
 10
40.047175461440759
 20
134.73755725290869
 30
0.0
  0
VERTEX
  5
21C8
  8
0
 10
40.062074339660221
 20
134.68056890663641
 30
0.0
  0
VERTEX
  5
21C9
  8
0
 10
40.084938403625493
 20
134.62688257137799
 30
0.0
  0
VERTEX
  5
21CA
  8
0
 10
40.090986165691561
 20
134.61559129433431
 30
0.0
  0
SEQEND
  5
21CB
  8
0
  0
LINE
  5
16A8
  8
0
 10
40.040582068665621
 20
137.82802616828951
 30
0.0
 11
40.040581997717823
 21
134.80979449997
 31
0.0
  0
LINE
  5
16A9
  8
0
 10
40.040581997717823
 20
124.8448657182426
 30
0.0
 11
40.040582068865092
 21
121.8261658400837
 31
0.0
  0
POLYLINE
  5
16AB
  8
0
 66
     1
 10
0.0
 20
0.0
 30
0.0
  0
VERTEX
  5
21CC
  8
0
 10
40.345252625919997
 20
138.8907571185311
 30
0.0
  0
VERTEX
  5
21CD
  8
0
 10
40.309054617607472
 20
138.83052291841469
 30
0.0
  0
VERTEX
  5
21CE
  8
0
 10
40.222274962598732
 20
138.66232375956639
 30
0.0
  0
VERTEX
  5
21CF
  8
0
 10
40.151668860076427
 20
138.48643563164791
 30
0.0
  0
VERTEX
  5
21D0
  8
0
 10
40.097955676962378
 20
138.304503135212
 30
0.0
  0
VERTEX
  5
21D1
  8
0
 10
40.061662856953212
 20
138.11820916003541
 30
0.0
  0
VERTEX
  5
21D2
  8
0
 10
40.043138325067673
 20
137.92932830022639
 30
0.0
  0
VERTEX
  5
21D3
  8
0
 10
40.040582068665621
 20
137.82802616828951
 30
0.0
  0
SEQEND
  5
21D4
  8
0
  0
LINE
  5
16AD
  8
0
 10
43.09311879630809
 20
131.7708661775859
 30
0.0
 11
43.09311879630809
 21
127.8833244797717
 31
0.0
  0
POLYLINE
  5
16AE
  8
0
 66
     1
 10
0.0
 20
0.0
 30
0.0
  0
VERTEX
  5
21D5
  8
0
 10
40.084059396232419
 20
125.02559172108261
 30
0.0
  0
VERTEX
  5
21D6
  8
0
 10
40.061270967863493
 20
124.9712484396282
 30
0.0
  0
VERTEX
  5
21D7
  8
0
 10
40.046835633865953
 20
124.91476097358679
 30
0.0
  0
VERTEX
  5
21D8
  8
0
 10
40.040770112468493
 20
124.8564859012472
 30
0.0
  0
VERTEX
  5
21D9
  8
0
 10
40.040587031242119
 20
124.84439690413581
 30
0.0
  0
SEQEND
  5
21DA
  8
0
  0
LINE
  5
16AF
  8
0
 10
56.965375563080777
 20
131.99758898879509
 30
0.0
 11
56.965375563080777
 21
127.6566016685624
 31
0.0
  0
LINE
  5
16B1
  8
0
 10
54.491979464514372
 20
119.829640478051
 30
0.0
 11
45.523838919277807
 21
119.8245586062323
 31
0.0
  0
LINE
  5
16B2
  8
0
 10
42.030314022036798
 20
119.8271075171202
 30
0.0
 11
45.523838919277807
 21
119.82709804276629
 31
0.0
  0
LINE
  5
16B3
  8
0
 10
54.491979464514372
 20
119.82709804276629
 30
0.0
 11
119.2715060102101
 21
119.8271177748919
 31
0.0
  0
LINE
  5
16B7
  8
0
 10
50.000000000000057
 20
139.8270936973594
 30
0.0
 11
42.030313941124028
 21
139.8270842230055
 31
0.0
  0
LINE
  5
16B8
  8
0
 10
119.27150615509581
 20
139.8270739887503
 30
0.0
 11
50.000000000000057
 21
139.82709506033191
 31
0.0
  0
ARC
  5
16BB
  8
0
 10
50.005194805758151
 20
129.82709532857911
 30
0.0
 40
10.129245541485901
 50
180.0000015173336
 51
206.91310687099991
  0
ARC
  5
16BC
  8
0
 10
50.005194805758151
 20
129.82709532857911
 30
0.0
 40
10.129245541485901
 50
152.91839935672149
 51
180.0000015173336
  0
LINE
  5
16C5
  8
1
 10
35.491995039965389
 20
129.82709506033191
 30
0.0
 11
134.00004012286229
 21
129.82709506033191
 31
0.0
  0
LINE
  5
16C6
  8
1
 10
50.000000000000078
 20
144.3351000203665
 30
0.0
 11
50.000000000000028
 21
115.3190901002972
 31
0.0
  0
LINE
  5
16C7
  8
1
 10
41.500000000000028
 20
60.000000132033279
 30
0.0
 11
58.500000000000028
 21
59.999999867966721
 31
0.0
  0
LINE
  5
16C8
  8
0
 10
44.50000000000005
 20
134.33262294676931
 30
0.0
 11
44.50000000000005
 21
125.32156717389449
 31
0.0
  0
LINE
  5
16C9
  8
0
 10
55.500000000000057
 20
134.2641662163912
 30
0.0
 11
55.500000000000057
 21
125.39002443838061
 31
0.0
  0
LINE
  5
1F54
  8
0
 10
40.0
 20
40.0
 30
0.0
 11
59.999999999999943
 21
40.0
 31
0.0
  0
LINE
  5
1F56
  8
0
 10
40.0
 20
52.862635084197713
 30
0.0
 11
40.0
 21
40.0
 31
0.0
  0
LINE
  5
1F5D
  8
0
 10
59.999999999999943
 20
52.862635084197713
 30
0.0
 11
59.999999999999943
 21
40.0
 31
0.0
  0
ARC
  5
1F5E
  8
0
 10
59.687451008470831
 20
52.859907510470357
 30
0.0
 40
0.312560892890177
 50
0.4999999999996912
 51
90.0
  0
LINE
  5
1F5F
  8
0
 10
59.687451008470838
 20
53.172468403360533
 30
0.0
 11
56.590184238329151
 21
53.172468403360583
 31
0.0
  0
POLYLINE
  5
1F6A
  8
0
 66
     1
 10
0.0
 20
0.0
 30
0.0
  0
VERTEX
  5
21DB
  8
0
 10
40.090986165691561
 20
134.61559129433431
 30
0.0
  0
VERTEX
  5
21DC
  8
0
 10
40.116346267685252
 20
134.5737003098973
 30
0.0
  0
VERTEX
  5
21DD
  8
0
 10
40.144486572389752
 20
134.5410961324958
 30
0.0
  0
VERTEX
  5
21DE
  8
0
 10
40.178385676204037
 20
134.50912994174379
 30
0.0
  0
VERTEX
  5
21DF
  8
0
 10
40.201410998159893
 20
134.48995068056911
 30
0.0
  0
VERTEX
  5
21E0
  8
0
 10
40.237097565230542
 20
134.46588914029161
 30
0.0
  0
VERTEX
  5
21E1
  8
0
 10
40.27880127961501
 20
134.4445595735906
 30
0.0
  0
VERTEX
  5
21E2
  8
0
 10
40.313980116564863
 20
134.43177264401331
 30
0.0
  0
VERTEX
  5
21E3
  8
0
 10
40.352994203127793
 20
134.42026508730851
 30
0.0
  0
VERTEX
  5
21E4
  8
0
 10
40.399046821936309
 20
134.41259338283859
 30
0.0
  0
VERTEX
  5
21E5
  8
0
 10
40.438904429163472
 20
134.41081722027769
 30
0.0
  0
VERTEX
  5
21E6
  8
0
 10
40.493788546800282
 20
134.41338548349199
 30
0.0
  0
VERTEX
  5
21E7
  8
0
 10
40.538516009846518
 20
134.41620259683211
 30
0.0
  0
VERTEX
  5
21E8
  8
0
 10
40.573589790368139
 20
134.4196509284493
 30
0.0
  0
VERTEX
  5
21E9
  8
0
 10
40.62667951160455
 20
134.42700730118159
 30
0.0
  0
VERTEX
  5
21EA
  8
0
 10
40.683349017503843
 20
134.43212506647859
 30
0.0
  0
VERTEX
  5
21EB
  8
0
 10
40.761470010779959
 20
134.4345149667335
 30
0.0
  0
VERTEX
  5
21EC
  8
0
 10
40.940543779400542
 20
134.43721422818811
 30
0.0
  0
VERTEX
  5
21ED
  8
0
 10
41.277032623281031
 20
134.44681009132731
 30
0.0
  0
VERTEX
  5
21EE
  8
0
 10
41.761648674378591
 20
134.45229271173719
 30
0.0
  0
SEQEND
  5
21EF
  8
0
  0
POLYLINE
  5
1F6B
  8
0
 66
     1
 10
0.0
 20
0.0
 30
0.0
  0
VERTEX
  5
21F0
  8
0
 10
40.090986751692647
 20
125.03859938913951
 30
0.0
  0
VERTEX
  5
21F1
  8
0
 10
40.116346848559857
 20
125.0804903766801
 30
0.0
  0
VERTEX
  5
21F2
  8
0
 10
40.144487149274369
 20
125.1130945575253
 30
0.0
  0
VERTEX
  5
21F3
  8
0
 10
40.178386249176739
 20
125.14506075242571
 30
0.0
  0
VERTEX
  5
21F4
  8
0
 10
40.201411568785488
 20
125.1642400164182
 30
0.0
  0
VERTEX
  5
21F5
  8
0
 10
40.237098132911548
 20
125.1883015610629
 30
0.0
  0
VERTEX
  5
21F6
  8
0
 10
40.278801844685781
 20
125.2096311328675
 30
0.0
  0
VERTEX
  5
21F7
  8
0
 10
40.313980680070813
 20
125.2224180667498
 30
0.0
  0
VERTEX
  5
21F8
  8
0
 10
40.352994765225482
 20
125.2339256282291
 30
0.0
  0
VERTEX
  5
21F9
  8
0
 10
40.399047383095152
 20
125.2415973383348
 30
0.0
  0
VERTEX
  5
21FA
  8
0
 10
40.438904990104959
 20
125.24337350577331
 30
0.0
  0
VERTEX
  5
21FB
  8
0
 10
40.49378910805607
 20
125.2408052492756
 30
0.0
  0
VERTEX
  5
21FC
  8
0
 10
40.53851657144704
 20
125.2379881414091
 30
0.0
  0
VERTEX
  5
21FD
  8
0
 10
40.573590352390667
 20
125.2345398140841
 30
0.0
  0
VERTEX
  5
21FE
  8
0
 10
40.626680074527329
 20
125.2271834478487
 30
0.0
  0
VERTEX
  5
21FF
  8
0
 10
40.683349581052923
 20
125.2220656894868
 30
0.0
  0
VERTEX
  5
2200
  8
0
 10
40.761470574621498
 20
125.219675798792
 30
0.0
  0
VERTEX
  5
2201
  8
0
 10
40.940544343572412
 20
125.2169765592519
 30
0.0
  0
VERTEX
  5
2202
  8
0
 10
41.2770331886272
 20
125.2073807372913
 30
0.0
  0
VERTEX
  5
2203
  8
0
 10
41.761649240395712
 20
125.2018981761871
 30
0.0
  0
SEQEND
  5
2204
  8
0
  0
POLYLINE
  5
1F7C
  8
0
 66
     1
 10
0.0
 20
0.0
 30
0.0
  0
VERTEX
  5
2205
  8
0
 10
42.346533187079721
 20
66.977082940841456
 30
0.0
  0
VERTEX
  5
2206
  8
0
 10
41.997957871120612
 20
66.558402973088363
 30
0.0
  0
VERTEX
  5
2207
  8
0
 10
41.678495593865762
 20
66.11712782168911
 30
0.0
  0
VERTEX
  5
2208
  8
0
 10
41.421949577493592
 20
65.710191339503012
 30
0.0
  0
SEQEND
  5
2209
  8
0
  0
TEXT
  5
2085
  8
0
 62
     3
 10
0.0
 20
0.0
 30
0.0
 40
10.0
  1
ECLN08
  7
STANDARD1
  0
ENDSEC
  0
EOF
