  0
SECTION
  2
HEADER
  9
$ACADVER
  1
AC1009
  9
$INSBASE
 10
0.0
 20
0.0
 30
0.0
  9
$EXTMIN
 10
0.0
 20
-2.960436562073669
 30
0.0
  9
$EXTMAX
 10
116.0
 20
170.537008981928409
 30
0.0
  9
$LIMMIN
 10
0.0
 20
0.0
  9
$LIMMAX
 10
385.0
 20
270.0
  9
$ORTHOMODE
 70
     1
  9
$REGENMODE
 70
     1
  9
$FILLMODE
 70
     1
  9
$QTEXTMODE
 70
     0
  9
$MIRRTEXT
 70
     0
  9
$DRAGMODE
 70
     2
  9
$LTSCALE
 40
5.0
  9
$OSMODE
 70
    37
  9
$ATTMODE
 70
     1
  9
$TEXTSIZE
 40
4.000000000000048
  9
$TRACEWID
 40
0.05
  9
$TEXTSTYLE
  7
STANDARD
  9
$CLAYER
  8
0
  9
$CELTYPE
  6
BYLAYER
  9
$CECOLOR
 62
   256
  9
$DIMSCALE
 40
1.0
  9
$DIMASZ
 40
3.0
  9
$DIMEXO
 40
2.0
  9
$DIMDLI
 40
0.38
  9
$DIMRND
 40
0.0
  9
$DIMDLE
 40
0.0
  9
$DIMEXE
 40
2.0
  9
$DIMTP
 40
0.0
  9
$DIMTM
 40
0.0
  9
$DIMTXT
 40
3.0
  9
$DIMCEN
 40
0.0
  9
$DIMTSZ
 40
0.0
  9
$DIMTOL
 70
     0
  9
$DIMLIM
 70
     0
  9
$DIMTIH
 70
     0
  9
$DIMTOH
 70
     0
  9
$DIMSE1
 70
     0
  9
$DIMSE2
 70
     0
  9
$DIMTAD
 70
     1
  9
$DIMZIN
 70
     8
  9
$DIMBLK
  1

  9
$DIMASO
 70
     0
  9
$DIMSHO
 70
     0
  9
$DIMPOST
  1

  9
$DIMAPOST
  1

  9
$DIMALT
 70
     0
  9
$DIMALTD
 70
     2
  9
$DIMALTF
 40
25.3999999999999986
  9
$DIMLFAC
 40
1.0
  9
$DIMTOFL
 70
     1
  9
$DIMTVP
 40
1.6000000000000001
  9
$DIMTIX
 70
     1
  9
$DIMSOXD
 70
     0
  9
$DIMSAH
 70
     0
  9
$DIMBLK1
  1

  9
$DIMBLK2
  1

  9
$DIMSTYLE
  2
STANDARD
  9
$DIMCLRD
 70
     0
  9
$DIMCLRE
 70
     0
  9
$DIMCLRT
 70
     0
  9
$DIMTFAC
 40
1.0
  9
$DIMGAP
 40
1.0
  9
$LUNITS
 70
     2
  9
$LUPREC
 70
     4
  9
$SKETCHINC
 40
0.1
  9
$FILLETRAD
 40
0.0
  9
$AUNITS
 70
     0
  9
$AUPREC
 70
     4
  9
$MENU
  1
E:\r13\win\SUPPORT\ACAD
  9
$ELEVATION
 40
0.0
  9
$PELEVATION
 40
0.0
  9
$THICKNESS
 40
0.0
  9
$LIMCHECK
 70
     0
  9
$BLIPMODE
 70
     0
  9
$CHAMFERA
 40
0.0
  9
$CHAMFERB
 40
0.0
  9
$SKPOLY
 70
     0
  9
$TDCREATE
 40
2450280.5982060190290213
  9
$TDUPDATE
 40
2460095.5806249999441206
  9
$TDINDWG
 40
0.3017813889
  9
$TDUSRTIMER
 40
0.3017813889
  9
$USRTIMER
 70
     1
  9
$ANGBASE
 50
0.0
  9
$ANGDIR
 70
     0
  9
$PDMODE
 70
     0
  9
$PDSIZE
 40
0.0
  9
$PLINEWID
 40
0.0
  9
$COORDS
 70
     1
  9
$SPLFRAME
 70
     0
  9
$SPLINETYPE
 70
     6
  9
$SPLINESEGS
 70
     8
  9
$ATTDIA
 70
     1
  9
$ATTREQ
 70
     1
  9
$HANDLING
 70
     1
  9
$HANDSEED
  5
295A
  9
$SURFTAB1
 70
     6
  9
$SURFTAB2
 70
     6
  9
$SURFTYPE
 70
     6
  9
$SURFU
 70
     6
  9
$SURFV
 70
     6
  9
$UCSNAME
  2

  9
$UCSORG
 10
0.0
 20
0.0
 30
0.0
  9
$UCSXDIR
 10
1.0
 20
0.0
 30
0.0
  9
$UCSYDIR
 10
0.0
 20
1.0
 30
0.0
  9
$PUCSNAME
  2

  9
$PUCSORG
 10
0.0
 20
0.0
 30
0.0
  9
$PUCSXDIR
 10
1.0
 20
0.0
 30
0.0
  9
$PUCSYDIR
 10
0.0
 20
1.0
 30
0.0
  9
$USERI1
 70
     3
  9
$USERI2
 70
     1
  9
$USERI3
 70
     1
  9
$USERI4
 70
     0
  9
$USERI5
 70
     0
  9
$USERR1
 40
1.0
  9
$USERR2
 40
3.0
  9
$USERR3
 40
3.0
  9
$USERR4
 40
3.0
  9
$USERR5
 40
10.0
  9
$WORLDVIEW
 70
     1
  9
$SHADEDGE
 70
     3
  9
$SHADEDIF
 70
    70
  9
$TILEMODE
 70
     1
  9
$MAXACTVP
 70
    16
  9
$PLIMCHECK
 70
     0
  9
$PEXTMIN
 10
1.0000000000000000E+20
 20
1.0000000000000000E+20
 30
1.0000000000000000E+20
  9
$PEXTMAX
 10
-1.0000000000000000E+20
 20
-1.0000000000000000E+20
 30
-1.0000000000000000E+20
  9
$PLIMMIN
 10
0.0
 20
0.0
  9
$PLIMMAX
 10
12.0
 20
9.0
  9
$UNITMODE
 70
     0
  9
$VISRETAIN
 70
     0
  9
$PLINEGEN
 70
     0
  9
$PSLTSCALE
 70
     0
  0
ENDSEC
  0
SECTION
  2
TABLES
  0
TABLE
  2
VPORT
 70
     1
  0
VPORT
  2
*ACTIVE
 70
     0
 10
0.0
 20
0.0
 11
1.0
 21
1.0
 12
-2.2875716270643802
 22
-59.8063606841924411
 13
0.0
 23
0.0
 14
5.0
 24
5.0
 15
10.0
 25
10.0
 16
0.0
 26
0.0
 36
154.3655359090923866
 17
211.5924496758449038
 27
149.8063606841924127
 37
0.0
 40
180.0
 41
2.325609756097561
 42
50.0
 43
0.0
 44
0.0
 50
0.0
 51
0.0
 71
     0
 72
   500
 73
     1
 74
     0
 75
     0
 76
     0
 77
     0
 78
     2
  0
ENDTAB
  0
TABLE
  2
LTYPE
 70
     3
  0
LTYPE
  2
CONTINUOUS
 70
     0
  3
Solid Line
 72
    65
 73
     0
 40
0.0
  0
LTYPE
  2
CENTER
 70
     0
  3
____ _ ____ _ ____ _ ____ _ ____ _ ____ _ ____
 72
    65
 73
     4
 40
2.0
 49
1.25
 49
-0.25
 49
0.25
 49
-0.25
  0
LTYPE
  2
PHANTOM2
 70
     0
  3
___ _ _ ___ _ _ ___ _ _ ___ _ _
 72
    65
 73
     6
 40
1.25
 49
0.625
 49
-0.125
 49
0.125
 49
-0.125
 49
0.125
 49
-0.125
  0
ENDTAB
  0
TABLE
  2
LAYER
 70
     4
  0
LAYER
  2
0
 70
     0
 62
     7
  6
CONTINUOUS
  0
LAYER
  2
1
 70
     0
 62
     1
  6
CENTER
  0
LAYER
  2
3
 70
     0
 62
     3
  6
CONTINUOUS
  0
LAYER
  2
DEFPOINTS
 70
     0
 62
     7
  6
CONTINUOUS
  0
ENDTAB
  0
TABLE
  2
STYLE
 70
     2
  0
STYLE
  2
STANDARD
 70
     0
 40
0.0
 41
1.0
 50
0.0
 71
     0
 42
4.000000000000048
  3
SIMPLEX
  4
BIGFONT
  0
STYLE
  2
STANDARD1
 70
     0
 40
0.0
 41
1.0
 50
0.0
 71
     0
 42
3.0
  3
txt
  4

  0
ENDTAB
  0
TABLE
  2
VIEW
 70
     2
  0
VIEW
  2
OLE1
 70
     0
 40
100.402121314191703
 10
119.5958647627379037
 20
30.8456879924360514
 41
193.4756206346469014
 11
0.0
 21
0.0
 31
1.0
 12
0.0
 22
0.0
 32
0.0
 42
50.0
 43
0.0
 44
0.0
 50
0.0
 71
     0
  0
VIEW
  2
OLE2
 70
     0
 40
132.511099123107698
 10
142.9957689210700948
 20
-91.9537117507299229
 41
177.4176382703830939
 11
0.0
 21
0.0
 31
1.0
 12
0.0
 22
0.0
 32
0.0
 42
50.0
 43
0.0
 44
0.0
 50
0.0
 71
     0
  0
ENDTAB
  0
TABLE
  2
UCS
 70
     0
  0
ENDTAB
  0
TABLE
  2
APPID
 70
     8
  0
APPID
  2
ACAD
 70
     0
  0
APPID
  2
GENIUS_GENODEF_13
 70
     0
  0
APPID
  2
GENIUS_GENOBJ-N-FIL_13
 70
     0
  0
APPID
  2
ACAD_MLEADERVER
 70
     0
  0
APPID
  2
ACAD_NAV_VCDISPLAY
 70
     0
  0
APPID
  2
ACAD_EXEMPT_FROM_CAD_STANDARDS
 70
     0
  0
APPID
  2
ACAD_TC
 70
     0
  0
APPID
  2
ACAD_DSTYLE_DIMRADIAL_EXTENSION
 70
     0
  0
ENDTAB
  0
TABLE
  2
DIMSTYLE
 70
     1
  0
DIMSTYLE
  2
STANDARD
 70
     0
  3

  4

  5

  6

  7

 40
1.0
 41
0.18
 42
0.0625
 43
0.38
 44
0.18
 45
0.0
 46
0.0
 47
0.0
 48
0.0
140
0.18
141
0.09
142
0.0
143
25.3999999999999986
144
1.0
145
0.0
146
1.0
147
0.09
 71
     0
 72
     0
 73
     1
 74
     1
 75
     0
 76
     0
 77
     0
 78
     0
170
     0
171
     2
172
     0
173
     0
174
     0
175
     0
176
     0
177
     0
178
     0
  0
ENDTAB
  0
ENDSEC
  0
SECTION
  2
BLOCKS
  0
BLOCK
  8
0
  2
$MODEL_SPACE
 70
     0
 10
0.0
 20
0.0
 30
0.0
  3
$MODEL_SPACE
  1

  0
ENDBLK
  5
175
  8
0
  0
BLOCK
 67
     1
  8
0
  2
$PAPER_SPACE
 70
     0
 10
0.0
 20
0.0
 30
0.0
  3
$PAPER_SPACE
  1

  0
ENDBLK
  5
173
 67
     1
  8
0
  0
ENDSEC
  0
SECTION
  2
ENTITIES
  0
TEXT
  5
216D
  8
0
 62
     3
 10
0.0
 20
0.0
 30
0.0
 40
10.0
  1
ECLN06X25
  7
STANDARD1
  0
LINE
  5
270F
  8
1
 10
50.0000000000000568
 20
170.537008981928409
 30
0.0
 11
50.0000000000000284
 21
146.537008981928409
 31
0.0
  0
POLYLINE
  5
2710
  8
0
 66
     1
 10
0.0
 20
0.0
 30
0.0
  0
VERTEX
  5
28D3
  8
0
 10
112.8855753774079034
 20
157.1064321009457956
 30
0.0
  0
VERTEX
  5
28D4
  8
0
 10
112.9764460710880059
 20
157.8863047996391913
 30
0.0
  0
VERTEX
  5
28D5
  8
0
 10
113.0
 20
158.5370089819284942
 30
0.0
  0
SEQEND
  5
28D6
  8
0
  0
POLYLINE
  5
2711
  8
0
 66
     1
 10
0.0
 20
0.0
 30
0.0
  0
VERTEX
  5
28D7
  8
0
 10
113.0
 20
158.5370089819284942
 30
0.0
  0
VERTEX
  5
28D8
  8
0
 10
112.9657522828257044
 20
159.3214106666574139
 30
0.0
  0
VERTEX
  5
28D9
  8
0
 10
112.8855753774079034
 20
159.9675858629111076
 30
0.0
  0
SEQEND
  5
28DA
  8
0
  0
POLYLINE
  5
2712
  8
0
 66
     1
 10
0.0
 20
0.0
 30
0.0
  0
VERTEX
  5
28DB
  8
0
 10
111.3171374463974956
 20
153.2968277264251924
 30
0.0
  0
VERTEX
  5
28DC
  8
0
 10
111.5541763268567053
 20
153.6447631941165071
 30
0.0
  0
VERTEX
  5
28DD
  8
0
 10
111.7722475006473957
 20
153.9991886749851062
 30
0.0
  0
VERTEX
  5
28DE
  8
0
 10
111.9712459164116041
 20
154.3585836158254949
 30
0.0
  0
VERTEX
  5
28DF
  8
0
 10
112.2412161523852063
 20
154.9200746704584049
 30
0.0
  0
VERTEX
  5
28E0
  8
0
 10
112.4684157252886934
 20
155.4897257486724129
 30
0.0
  0
VERTEX
  5
28E1
  8
0
 10
112.6016209909135029
 20
155.888969926305009
 30
0.0
  0
VERTEX
  5
28E2
  8
0
 10
112.7151737724104947
 20
156.2907351525192041
 30
0.0
  0
VERTEX
  5
28E3
  8
0
 10
112.8100398113548977
 20
156.6976556551472015
 30
0.0
  0
VERTEX
  5
28E4
  8
0
 10
112.8855753774079034
 20
157.1064321009457956
 30
0.0
  0
SEQEND
  5
28E5
  8
0
  0
POLYLINE
  5
2713
  8
0
 66
     1
 10
0.0
 20
0.0
 30
0.0
  0
VERTEX
  5
28E6
  8
0
 10
112.8855753774079034
 20
159.9675858629111076
 30
0.0
  0
VERTEX
  5
28E7
  8
0
 10
112.7555755961956976
 20
160.620269217637599
 30
0.0
  0
VERTEX
  5
28E8
  8
0
 10
112.5757356299441057
 20
161.2677155581295096
 30
0.0
  0
VERTEX
  5
28E9
  8
0
 10
112.4241255981886951
 20
161.7046515384905092
 30
0.0
  0
VERTEX
  5
28EA
  8
0
 10
112.2481775126585006
 20
162.1380405315746884
 30
0.0
  0
VERTEX
  5
28EB
  8
0
 10
112.0475890945633068
 20
162.5664394336257885
 30
0.0
  0
VERTEX
  5
28EC
  8
0
 10
111.8863469010064051
 20
162.8735401920945947
 30
0.0
  0
VERTEX
  5
28ED
  8
0
 10
111.7115852939598994
 20
163.177208573970006
 30
0.0
  0
VERTEX
  5
28EE
  8
0
 10
111.5214002833084947
 20
163.4795263485873988
 30
0.0
  0
VERTEX
  5
28EF
  8
0
 10
111.3171374463974956
 20
163.7771902374317108
 30
0.0
  0
SEQEND
  5
28F0
  8
0
  0
LINE
  5
2715
  8
0
 10
104.0
 20
167.5370089819284942
 30
0.0
 11
42.0001561247714719
 21
167.5370089819284942
 31
0.0
  0
LINE
  5
2716
  8
0
 10
42.0001561247714719
 20
167.5370089819284942
 30
0.0
 11
42.0001561247714719
 21
162.4370089819284999
 31
0.0
  0
LINE
  5
2717
  8
0
 10
104.0
 20
149.5370089819284942
 30
0.0
 11
42.0001561247714719
 21
149.5370089819284942
 31
0.0
  0
LINE
  5
2718
  8
0
 10
42.0001561247714719
 20
154.6370089819284885
 30
0.0
 11
42.0001561247714719
 21
149.5370089819284942
 31
0.0
  0
POLYLINE
  5
271A
  8
0
 66
     1
 10
0.0
 20
0.0
 30
0.0
  0
VERTEX
  5
28F1
  8
0
 10
111.3171374463974956
 20
163.7771902374317108
 30
0.0
  0
VERTEX
  5
28F2
  8
0
 10
111.0093994072482957
 20
164.1821410027397121
 30
0.0
  0
VERTEX
  5
28F3
  8
0
 10
110.6798135888077041
 20
164.5685331785473977
 30
0.0
  0
VERTEX
  5
28F4
  8
0
 10
110.330085476598299
 20
164.9346661983601052
 30
0.0
  0
VERTEX
  5
28F5
  8
0
 10
109.9498289017688961
 20
165.289690612163497
 30
0.0
  0
VERTEX
  5
28F6
  8
0
 10
109.5502592442992977
 20
165.6217668159900995
 30
0.0
  0
VERTEX
  5
28F7
  8
0
 10
109.1334104528772997
 20
165.9294441099692108
 30
0.0
  0
VERTEX
  5
28F8
  8
0
 10
108.7132044188606983
 20
166.2041478619514123
 30
0.0
  0
VERTEX
  5
28F9
  8
0
 10
108.2787237289189051
 20
166.4548266438287953
 30
0.0
  0
VERTEX
  5
28FA
  8
0
 10
107.8319293051106058
 20
166.6804921310873908
 30
0.0
  0
VERTEX
  5
28FB
  8
0
 10
107.3610002540197002
 20
166.8858378116800907
 30
0.0
  0
VERTEX
  5
28FC
  8
0
 10
106.8792328984507947
 20
167.0639828107412086
 30
0.0
  0
VERTEX
  5
28FD
  8
0
 10
106.3888334985196025
 20
167.21419023601959
 30
0.0
  0
VERTEX
  5
28FE
  8
0
 10
105.8061064978219008
 20
167.35390412988761
 30
0.0
  0
VERTEX
  5
28FF
  8
0
 10
105.2155103077101046
 20
167.4545498252244045
 30
0.0
  0
VERTEX
  5
2900
  8
0
 10
104.6092854049491052
 20
167.5163410754007032
 30
0.0
  0
VERTEX
  5
2901
  8
0
 10
104.0
 20
167.5370089819284942
 30
0.0
  0
SEQEND
  5
2902
  8
0
  0
POLYLINE
  5
271B
  8
0
 66
     1
 10
0.0
 20
0.0
 30
0.0
  0
VERTEX
  5
2903
  8
0
 10
104.0
 20
149.5370089819284942
 30
0.0
  0
VERTEX
  5
2904
  8
0
 10
104.5153198894697937
 20
149.5518157497803031
 30
0.0
  0
VERTEX
  5
2905
  8
0
 10
105.0291289776090053
 20
149.5960836788572976
 30
0.0
  0
VERTEX
  5
2906
  8
0
 10
105.5390834508919937
 20
149.6695842074412042
 30
0.0
  0
VERTEX
  5
2907
  8
0
 10
106.0585083974556966
 20
149.7756329702914968
 30
0.0
  0
VERTEX
  5
2908
  8
0
 10
106.5713759579702042
 20
149.9122079639678873
 30
0.0
  0
VERTEX
  5
2909
  8
0
 10
107.0752031009285048
 20
150.0786920164771914
 30
0.0
  0
VERTEX
  5
290A
  8
0
 10
107.5550514229784937
 20
150.268947151731993
 30
0.0
  0
VERTEX
  5
290B
  8
0
 10
108.0240733881293949
 20
150.4867871508612893
 30
0.0
  0
VERTEX
  5
290C
  8
0
 10
108.4800628925617048
 20
150.7313036019712911
 30
0.0
  0
VERTEX
  5
290D
  8
0
 10
108.9347852713761
 20
151.0105897877454026
 30
0.0
  0
VERTEX
  5
290E
  8
0
 10
109.373312246837699
 20
151.3171330099534941
 30
0.0
  0
VERTEX
  5
290F
  8
0
 10
109.793338618976307
 20
151.6495400966356044
 30
0.0
  0
VERTEX
  5
2910
  8
0
 10
110.2075249702316029
 20
152.0203876286556124
 30
0.0
  0
VERTEX
  5
2911
  8
0
 10
110.5989382866467992
 20
152.4170405597037927
 30
0.0
  0
VERTEX
  5
2912
  8
0
 10
110.9714577318757023
 20
152.8450446337404003
 30
0.0
  0
VERTEX
  5
2913
  8
0
 10
111.3171374463974956
 20
153.2968277264251924
 30
0.0
  0
SEQEND
  5
2914
  8
0
  0
POLYLINE
  5
271E
  8
0
 66
     1
 10
0.0
 20
0.0
 30
0.0
  0
VERTEX
  5
2915
  8
0
 10
57.3600000000000705
 20
154.6370089819284885
 30
0.0
  0
VERTEX
  5
2916
  8
0
 10
57.5287787420030483
 20
154.6514567100321074
 30
0.0
  0
VERTEX
  5
2917
  8
0
 10
57.6928428347456475
 20
154.6940266664217063
 30
0.0
  0
VERTEX
  5
2918
  8
0
 10
57.8474529671308915
 20
154.7639772675202039
 30
0.0
  0
VERTEX
  5
2919
  8
0
 10
57.9882765240317894
 20
154.8590188731542128
 30
0.0
  0
VERTEX
  5
291A
  8
0
 10
58.1105290463924007
 20
154.9763287722043117
 30
0.0
  0
VERTEX
  5
291B
  8
0
 10
58.2114964226494465
 20
155.1126485694111921
 30
0.0
  0
VERTEX
  5
291C
  8
0
 10
58.2873963780172133
 20
155.2632051479232871
 30
0.0
  0
VERTEX
  5
291D
  8
0
 10
58.3371474826485326
 20
155.4244465272151956
 30
0.0
  0
VERTEX
  5
291E
  8
0
 10
58.3600000000000421
 20
155.6370089819284885
 30
0.0
  0
SEQEND
  5
291F
  8
0
  0
LINE
  5
271F
  8
0
 10
57.3600000000000705
 20
154.6370089819284885
 30
0.0
 11
42.0001561247714719
 21
154.6370089819284885
 31
0.0
  0
LINE
  5
2723
  8
0
 10
42.0001561247714719
 20
162.4370089819284999
 30
0.0
 11
57.3600000000000421
 21
162.4370089819284999
 31
0.0
  0
POLYLINE
  5
2724
  8
0
 66
     1
 10
0.0
 20
0.0
 30
0.0
  0
VERTEX
  5
2920
  8
0
 10
58.3600000000000421
 20
161.4370089819284999
 30
0.0
  0
VERTEX
  5
2921
  8
0
 10
58.3458569752077878
 20
161.6039933354547884
 30
0.0
  0
VERTEX
  5
2922
  8
0
 10
58.3042418936228373
 20
161.7662615389841108
 30
0.0
  0
VERTEX
  5
2923
  8
0
 10
58.2360115843996198
 20
161.9190926409648057
 30
0.0
  0
VERTEX
  5
2924
  8
0
 10
58.143514501983617
 20
162.0583824808657027
 30
0.0
  0
VERTEX
  5
2925
  8
0
 10
58.0287470214805126
 20
162.1803670408347102
 30
0.0
  0
VERTEX
  5
2926
  8
0
 10
57.8955239264293482
 20
162.2815290374759059
 30
0.0
  0
VERTEX
  5
2927
  8
0
 10
57.7463772896115017
 20
162.3592435583981057
 30
0.0
  0
VERTEX
  5
2928
  8
0
 10
57.58654232751325
 20
162.4110103032031986
 30
0.0
  0
VERTEX
  5
2929
  8
0
 10
57.3600000000000421
 20
162.4370089819284999
 30
0.0
  0
SEQEND
  5
292A
  8
0
  0
LINE
  5
2725
  8
0
 10
58.3600000000000421
 20
161.4370089819284999
 30
0.0
 11
58.3600000000000421
 21
155.6370089819284885
 31
0.0
  0
LINE
  5
275F
  8
1
 10
38.2500000000000426
 20
158.5370089819284942
 30
0.0
 11
116.0
 21
158.5370089819284942
 31
0.0
  0
LINE
  5
2766
  8
0
 10
43.0000000000000568
 20
162.4370089819284999
 30
0.0
 11
43.0000000000000568
 21
154.6370089819284885
 31
0.0
  0
LINE
  5
2767
  8
0
 10
57.0000000000000568
 20
154.6370089819284885
 30
0.0
 11
57.0000000000000568
 21
162.4370089819284999
 31
0.0
  0
CIRCLE
  5
276F
  8
3
 10
50.0000000000000284
 20
158.5370089819284942
 30
0.0
 40
3.0
  0
CIRCLE
  5
2770
  8
0
 10
50.0000000000000284
 20
158.5370089819284942
 30
0.0
 40
2.458499999999999
  0
POLYLINE
  5
27A2
  8
0
 66
     1
 10
0.0
 20
0.0
 30
0.0
  0
VERTEX
  5
292B
  8
0
 10
104.0
 20
93.6111004420189232
 30
0.0
  0
VERTEX
  5
292C
  8
0
 10
105.1241248079989958
 20
93.0457138474945111
 30
0.0
  0
VERTEX
  5
292D
  8
0
 10
106.2261303198099966
 20
92.4340259885197639
 30
0.0
  0
SEQEND
  5
292E
  8
0
  0
LINE
  5
27A3
  8
0
 10
106.2261303198099966
 20
92.4340259885197639
 30
0.0
 11
106.9117806632834942
 21
91.5751596088943955
 31
0.0
  0
POLYLINE
  5
27A4
  8
0
 66
     1
 10
0.0
 20
0.0
 30
0.0
  0
VERTEX
  5
292F
  8
0
 10
110.1569711851667961
 20
91.2594204304122485
 30
0.0
  0
VERTEX
  5
2930
  8
0
 10
109.5963573316459048
 20
91.0413990079962048
 30
0.0
  0
VERTEX
  5
2931
  8
0
 10
108.9788767835051004
 20
90.9362452650487256
 30
0.0
  0
VERTEX
  5
2932
  8
0
 10
108.4747887164219975
 20
90.9457274653976242
 30
0.0
  0
VERTEX
  5
2933
  8
0
 10
107.9592627331430066
 20
91.0435853346176742
 30
0.0
  0
VERTEX
  5
2934
  8
0
 10
107.5081434718229048
 20
91.2107195343640171
 30
0.0
  0
VERTEX
  5
2935
  8
0
 10
107.0774978620393938
 20
91.4541644623798362
 30
0.0
  0
VERTEX
  5
2936
  8
0
 10
106.9117806632834942
 20
91.5751596088943955
 30
0.0
  0
SEQEND
  5
2937
  8
0
  0
POLYLINE
  5
27A5
  8
0
 66
     1
 10
0.0
 20
0.0
 30
0.0
  0
VERTEX
  5
2938
  8
0
 10
113.0
 20
96.0000000000001705
 30
0.0
  0
VERTEX
  5
2939
  8
0
 10
112.9984264763359931
 20
95.9955988784579546
 30
0.0
  0
VERTEX
  5
293A
  8
0
 10
112.9733852446915989
 20
95.9261682324597444
 30
0.0
  0
VERTEX
  5
293B
  8
0
 10
112.9182553790291053
 20
95.7771704294688817
 30
0.0
  0
VERTEX
  5
293C
  8
0
 10
112.8539002191898959
 20
95.6094762743630753
 30
0.0
  0
VERTEX
  5
293D
  8
0
 10
112.7743218504439966
 20
95.4103941295801263
 30
0.0
  0
VERTEX
  5
293E
  8
0
 10
112.5701205707426027
 20
94.9356617393715965
 30
0.0
  0
VERTEX
  5
293F
  8
0
 10
112.2926856031697014
 20
94.3575945292962786
 30
0.0
  0
VERTEX
  5
2940
  8
0
 10
111.9618838327938022
 20
93.7439199565161232
 30
0.0
  0
VERTEX
  5
2941
  8
0
 10
111.5703737778294027
 20
93.0997167060464363
 30
0.0
  0
VERTEX
  5
2942
  8
0
 10
111.1252224365282046
 20
92.4497731569682344
 30
0.0
  0
VERTEX
  5
2943
  8
0
 10
110.6656407985426966
 20
91.8517249989862563
 30
0.0
  0
VERTEX
  5
2944
  8
0
 10
110.1569711851667961
 20
91.2594204304122485
 30
0.0
  0
SEQEND
  5
2945
  8
0
  0
LINE
  5
27A6
  8
0
 10
112.8855753774079034
 20
96.9724986634364541
 30
0.0
 11
113.0
 21
96.0000000000001705
 31
0.0
  0
POLYLINE
  5
27A7
  8
0
 66
     1
 10
0.0
 20
0.0
 30
0.0
  0
VERTEX
  5
2946
  8
0
 10
111.3171374463974956
 20
98.8535934187978427
 30
0.0
  0
VERTEX
  5
2947
  8
0
 10
111.6655894427953939
 20
98.6513827409955439
 30
0.0
  0
VERTEX
  5
2948
  8
0
 10
111.9712459164115046
 20
98.4159841985119783
 30
0.0
  0
VERTEX
  5
2949
  8
0
 10
112.2412161523852063
 20
98.1473384984431618
 30
0.0
  0
VERTEX
  5
294A
  8
0
 10
112.4684157252885939
 20
97.8569406057719959
 30
0.0
  0
VERTEX
  5
294B
  8
0
 10
112.7151737724104947
 20
97.4269544751336838
 30
0.0
  0
VERTEX
  5
294C
  8
0
 10
112.8855753774079034
 20
96.9724986634364541
 30
0.0
  0
SEQEND
  5
294D
  8
0
  0
POLYLINE
  5
27A8
  8
0
 66
     1
 10
0.0
 20
0.0
 30
0.0
  0
VERTEX
  5
294E
  8
0
 10
104.0
 20
100.9649334285808067
 30
0.0
  0
VERTEX
  5
294F
  8
0
 10
104.7725597720510962
 20
100.7546749999385014
 30
0.0
  0
VERTEX
  5
2950
  8
0
 10
105.5390834508918942
 20
100.5431361625777953
 30
0.0
  0
VERTEX
  5
2951
  8
0
 10
106.3159170404381939
 20
100.3257520196630992
 30
0.0
  0
VERTEX
  5
2952
  8
0
 10
107.0752031009284053
 20
100.1103713831538045
 30
0.0
  0
VERTEX
  5
2953
  8
0
 10
107.7910535816550066
 20
99.9046538926376826
 30
0.0
  0
VERTEX
  5
2954
  8
0
 10
108.4800628925616053
 20
99.7042225319631825
 30
0.0
  0
VERTEX
  5
2955
  8
0
 10
109.156217259524098
 20
99.5051945286001001
 30
0.0
  0
VERTEX
  5
2956
  8
0
 10
109.793338618976307
 20
99.3155459410153441
 30
0.0
  0
VERTEX
  5
2957
  8
0
 10
110.5989382866466997
 20
99.0727940386287855
 30
0.0
  0
VERTEX
  5
2958
  8
0
 10
111.3171374463974956
 20
98.8535934187978427
 30
0.0
  0
SEQEND
  5
2959
  8
0
  0
ARC
  5
27A9
  8
0
 10
49.9999999999998934
 20
95.9999999999997868
 30
0.0
 40
7.3911836100562747
 50
100.0000000000414957
 51
145.5200899337235114
  0
CIRCLE
  5
27AA
  8
0
 10
50.0
 20
96.0
 30
0.0
 40
4.5
  0
ARC
  5
27AB
  8
0
 10
90.6660947701492432
 20
65.6998745625461993
 30
0.0
 40
30.9326616826549596
 50
64.4650027966173127
 51
73.0697498823580673
  0
ARC
  5
27AD
  8
0
 10
45.5167668993931471
 20
-115.4516462378407056
 30
0.0
 40
224.1794471141645033
 50
74.8779009756115528
 51
76.9999999999993605
  0
ARC
  5
27AE
  8
0
 10
71.6369354252452553
 20
-7.3721566690857676
 30
0.0
 40
113.0000000000015064
 50
77.5770822851550577
 51
101.7028150974161065
  0
ARC
  5
27AF
  8
0
 10
50.0001561247714221
 20
95.0000048687361556
 30
0.0
 40
8.0
 50
139.6064668113014022
 51
308.3753643276406819
  0
ARC
  5
27B0
  8
0
 10
82.0823598295600618
 20
56.654377609517887
 30
0.0
 40
42.0000000000000497
 50
88.7277216553979855
 51
130.2116010520311136
  0
ARC
  5
27B1
  8
0
 10
83.6338647582174133
 20
58.6488123857257833
 30
0.0
 40
39.9999999999998721
 50
66.3592176699970651
 51
90.8866200114627247
  0
LINE
  5
27DE
  8
1
 10
42.5
 20
96.0
 30
0.0
 11
57.5
 21
96.0
 31
0.0
  0
LINE
  5
27DF
  8
1
 10
50.0000000000000284
 20
106.5370089819283947
 30
0.0
 11
50.0
 21
50.0
 31
0.0
  0
LINE
  5
27E0
  8
0
 10
47.0
 20
78.0
 30
0.0
 11
47.0
 21
53.6135000000000019
 31
0.0
  0
LINE
  5
27E1
  8
0
 10
53.0
 20
53.6135000000000019
 30
0.0
 11
53.0
 21
78.0
 31
0.0
  0
LINE
  5
27E2
  8
0
 10
52.3864999999999768
 20
53.0
 30
0.0
 11
47.6134999999999877
 21
53.0
 31
0.0
  0
LINE
  5
27E3
  8
0
 10
53.0
 20
53.6135000000000019
 30
0.0
 11
47.0
 21
53.6135000000000019
 31
0.0
  0
LINE
  5
27E4
  8
0
 10
52.3864999999999768
 20
53.0
 30
0.0
 11
53.0
 21
53.6135000000000019
 31
0.0
  0
LINE
  5
27E5
  8
0
 10
47.0
 20
53.6135000000000019
 30
0.0
 11
47.6134999999999877
 21
53.0
 31
0.0
  0
LINE
  5
27E8
  8
0
 10
58.75
 20
88.0000000000000142
 30
0.0
 11
53.8731306712498679
 21
88.0
 31
0.0
  0
LINE
  5
27E9
  8
0
 10
46.1271815782929835
 20
88.0
 30
0.0
 11
41.25
 21
88.0000000000000142
 31
0.0
  0
LINE
  5
27EB
  8
0
 10
58.75
 20
78.0
 30
0.0
 11
41.25
 21
78.0
 31
0.0
  0
LINE
  5
27F1
  8
3
 10
52.3864999999999768
 20
53.0
 30
0.0
 11
52.3864999999999768
 21
78.0
 31
0.0
  0
LINE
  5
27F4
  8
3
 10
47.6134999999999877
 20
53.0
 30
0.0
 11
47.6134999999999877
 21
78.0
 31
0.0
  0
LINE
  5
2806
  8
1
 10
42.5
 20
95.25
 30
0.0
 11
57.5
 21
95.25
 31
0.0
  0
LINE
  5
2866
  8
0
 10
41.25
 20
88.0
 30
0.0
 11
41.25
 21
78.0
 31
0.0
  0
LINE
  5
2867
  8
0
 10
58.75
 20
78.0
 30
0.0
 11
58.75
 21
88.0
 31
0.0
  0
ARC
  5
2868
  8
0
 10
50.0000000000000426
 20
158.5370089819284942
 30
0.0
 40
8.75
 50
153.5309523816644912
 51
206.4690476183355088
  0
ENDSEC
  0
EOF
