  0
SECTION
  2
HEADER
  9
$ACADVER
  1
AC1009
  9
$INSBASE
 10
0.0
 20
0.0
 30
0.0
  9
$EXTMIN
 10
0.0
 20
-2.960436562073669
 30
0.0
  9
$EXTMAX
 10
111.0368349249659019
 20
186.0473790923246895
 30
0.0
  9
$LIMMIN
 10
0.0
 20
0.0
  9
$LIMMAX
 10
385.0
 20
270.0
  9
$ORTHOMODE
 70
     1
  9
$REGENMODE
 70
     1
  9
$FILLMODE
 70
     1
  9
$QTEXTMODE
 70
     0
  9
$MIRRTEXT
 70
     0
  9
$DRAGMODE
 70
     2
  9
$LTSCALE
 40
5.0
  9
$OSMODE
 70
    37
  9
$ATTMODE
 70
     1
  9
$TEXTSIZE
 40
4.000000000000048
  9
$TRACEWID
 40
0.05
  9
$TEXTSTYLE
  7
STANDARD
  9
$CLAYER
  8
0
  9
$CELTYPE
  6
BYLAYER
  9
$CECOLOR
 62
   256
  9
$DIMSCALE
 40
1.0
  9
$DIMASZ
 40
3.0
  9
$DIMEXO
 40
2.0
  9
$DIMDLI
 40
0.38
  9
$DIMRND
 40
0.0
  9
$DIMDLE
 40
0.0
  9
$DIMEXE
 40
2.0
  9
$DIMTP
 40
0.0
  9
$DIMTM
 40
0.0
  9
$DIMTXT
 40
3.0
  9
$DIMCEN
 40
0.0
  9
$DIMTSZ
 40
0.0
  9
$DIMTOL
 70
     0
  9
$DIMLIM
 70
     0
  9
$DIMTIH
 70
     0
  9
$DIMTOH
 70
     0
  9
$DIMSE1
 70
     0
  9
$DIMSE2
 70
     0
  9
$DIMTAD
 70
     1
  9
$DIMZIN
 70
     8
  9
$DIMBLK
  1

  9
$DIMASO
 70
     0
  9
$DIMSHO
 70
     0
  9
$DIMPOST
  1

  9
$DIMAPOST
  1

  9
$DIMALT
 70
     0
  9
$DIMALTD
 70
     2
  9
$DIMALTF
 40
25.3999999999999986
  9
$DIMLFAC
 40
1.0
  9
$DIMTOFL
 70
     1
  9
$DIMTVP
 40
1.6000000000000001
  9
$DIMTIX
 70
     1
  9
$DIMSOXD
 70
     0
  9
$DIMSAH
 70
     0
  9
$DIMBLK1
  1

  9
$DIMBLK2
  1

  9
$DIMSTYLE
  2
STANDARD
  9
$DIMCLRD
 70
     0
  9
$DIMCLRE
 70
     0
  9
$DIMCLRT
 70
     0
  9
$DIMTFAC
 40
1.0
  9
$DIMGAP
 40
1.0
  9
$LUNITS
 70
     2
  9
$LUPREC
 70
     4
  9
$SKETCHINC
 40
0.1
  9
$FILLETRAD
 40
0.0
  9
$AUNITS
 70
     0
  9
$AUPREC
 70
     4
  9
$MENU
  1
E:\r13\win\SUPPORT\ACAD
  9
$ELEVATION
 40
0.0
  9
$PELEVATION
 40
0.0
  9
$THICKNESS
 40
0.0
  9
$LIMCHECK
 70
     0
  9
$BLIPMODE
 70
     0
  9
$CHAMFERA
 40
0.0
  9
$CHAMFERB
 40
0.0
  9
$SKPOLY
 70
     0
  9
$TDCREATE
 40
2450280.5982060190290213
  9
$TDUPDATE
 40
2460095.5805671298876405
  9
$TDINDWG
 40
0.3886265509
  9
$TDUSRTIMER
 40
0.3886265509
  9
$USRTIMER
 70
     1
  9
$ANGBASE
 50
0.0
  9
$ANGDIR
 70
     0
  9
$PDMODE
 70
     0
  9
$PDSIZE
 40
0.0
  9
$PLINEWID
 40
0.0
  9
$COORDS
 70
     1
  9
$SPLFRAME
 70
     0
  9
$SPLINETYPE
 70
     6
  9
$SPLINESEGS
 70
     8
  9
$ATTDIA
 70
     1
  9
$ATTREQ
 70
     1
  9
$HANDLING
 70
     1
  9
$HANDSEED
  5
30F1
  9
$SURFTAB1
 70
     6
  9
$SURFTAB2
 70
     6
  9
$SURFTYPE
 70
     6
  9
$SURFU
 70
     6
  9
$SURFV
 70
     6
  9
$UCSNAME
  2

  9
$UCSORG
 10
0.0
 20
0.0
 30
0.0
  9
$UCSXDIR
 10
1.0
 20
0.0
 30
0.0
  9
$UCSYDIR
 10
0.0
 20
1.0
 30
0.0
  9
$PUCSNAME
  2

  9
$PUCSORG
 10
0.0
 20
0.0
 30
0.0
  9
$PUCSXDIR
 10
1.0
 20
0.0
 30
0.0
  9
$PUCSYDIR
 10
0.0
 20
1.0
 30
0.0
  9
$USERI1
 70
     3
  9
$USERI2
 70
     1
  9
$USERI3
 70
     1
  9
$USERI4
 70
     0
  9
$USERI5
 70
     0
  9
$USERR1
 40
1.0
  9
$USERR2
 40
3.0
  9
$USERR3
 40
3.0
  9
$USERR4
 40
3.0
  9
$USERR5
 40
10.0
  9
$WORLDVIEW
 70
     1
  9
$SHADEDGE
 70
     3
  9
$SHADEDIF
 70
    70
  9
$TILEMODE
 70
     1
  9
$MAXACTVP
 70
    16
  9
$PLIMCHECK
 70
     0
  9
$PEXTMIN
 10
1.0000000000000000E+20
 20
1.0000000000000000E+20
 30
1.0000000000000000E+20
  9
$PEXTMAX
 10
-1.0000000000000000E+20
 20
-1.0000000000000000E+20
 30
-1.0000000000000000E+20
  9
$PLIMMIN
 10
0.0
 20
0.0
  9
$PLIMMAX
 10
12.0
 20
9.0
  9
$UNITMODE
 70
     0
  9
$VISRETAIN
 70
     0
  9
$PLINEGEN
 70
     0
  9
$PSLTSCALE
 70
     0
  0
ENDSEC
  0
SECTION
  2
TABLES
  0
TABLE
  2
VPORT
 70
     1
  0
VPORT
  2
*ACTIVE
 70
     0
 10
0.0
 20
0.0
 11
1.0
 21
1.0
 12
232.5609756097560989
 22
100.0
 13
0.0
 23
0.0
 14
5.0
 24
5.0
 15
10.0
 25
10.0
 16
0.0
 26
0.0
 36
1.0
 17
0.0
 27
0.0
 37
0.0
 40
200.0
 41
2.325609756097561
 42
50.0
 43
0.0
 44
0.0
 50
0.0
 51
0.0
 71
     0
 72
   500
 73
     1
 74
     0
 75
     0
 76
     0
 77
     0
 78
     2
  0
ENDTAB
  0
TABLE
  2
LTYPE
 70
     3
  0
LTYPE
  2
CONTINUOUS
 70
     0
  3
Solid Line
 72
    65
 73
     0
 40
0.0
  0
LTYPE
  2
CENTER
 70
     0
  3
____ _ ____ _ ____ _ ____ _ ____ _ ____ _ ____
 72
    65
 73
     4
 40
2.0
 49
1.25
 49
-0.25
 49
0.25
 49
-0.25
  0
LTYPE
  2
PHANTOM2
 70
     0
  3
___ _ _ ___ _ _ ___ _ _ ___ _ _
 72
    65
 73
     6
 40
1.25
 49
0.625
 49
-0.125
 49
0.125
 49
-0.125
 49
0.125
 49
-0.125
  0
ENDTAB
  0
TABLE
  2
LAYER
 70
     4
  0
LAYER
  2
0
 70
     0
 62
     7
  6
CONTINUOUS
  0
LAYER
  2
1
 70
     0
 62
     1
  6
CENTER
  0
LAYER
  2
3
 70
     0
 62
     3
  6
CONTINUOUS
  0
LAYER
  2
DEFPOINTS
 70
     0
 62
     7
  6
CONTINUOUS
  0
ENDTAB
  0
TABLE
  2
STYLE
 70
     2
  0
STYLE
  2
STANDARD
 70
     0
 40
0.0
 41
1.0
 50
0.0
 71
     0
 42
4.000000000000048
  3
SIMPLEX
  4
BIGFONT
  0
STYLE
  2
STANDARD1
 70
     0
 40
0.0
 41
1.0
 50
0.0
 71
     0
 42
3.0
  3
txt
  4

  0
ENDTAB
  0
TABLE
  2
VIEW
 70
     2
  0
VIEW
  2
OLE1
 70
     0
 40
100.402121314191703
 10
119.5958647627379037
 20
30.8456879924360514
 41
193.4756206346469014
 11
0.0
 21
0.0
 31
1.0
 12
0.0
 22
0.0
 32
0.0
 42
50.0
 43
0.0
 44
0.0
 50
0.0
 71
     0
  0
VIEW
  2
OLE2
 70
     0
 40
132.511099123107698
 10
142.9957689210700948
 20
-91.9537117507299229
 41
177.4176382703830939
 11
0.0
 21
0.0
 31
1.0
 12
0.0
 22
0.0
 32
0.0
 42
50.0
 43
0.0
 44
0.0
 50
0.0
 71
     0
  0
ENDTAB
  0
TABLE
  2
UCS
 70
     0
  0
ENDTAB
  0
TABLE
  2
APPID
 70
     7
  0
APPID
  2
ACAD
 70
     0
  0
APPID
  2
GENIUS_GENODEF_13
 70
     0
  0
APPID
  2
GENIUS_GENOBJ-N-FIL_13
 70
     0
  0
APPID
  2
ACAD_MLEADERVER
 70
     0
  0
APPID
  2
ACAD_NAV_VCDISPLAY
 70
     0
  0
APPID
  2
ACAD_EXEMPT_FROM_CAD_STANDARDS
 70
     0
  0
APPID
  2
ACAD_DSTYLE_DIMRADIAL_EXTENSION
 70
     0
  0
ENDTAB
  0
TABLE
  2
DIMSTYLE
 70
     1
  0
DIMSTYLE
  2
STANDARD
 70
     0
  3

  4

  5

  6

  7

 40
1.0
 41
0.18
 42
0.0625
 43
0.38
 44
0.18
 45
0.0
 46
0.0
 47
0.0
 48
0.0
140
0.18
141
0.09
142
0.0
143
25.3999999999999986
144
1.0
145
0.0
146
1.0
147
0.09
 71
     0
 72
     0
 73
     1
 74
     1
 75
     0
 76
     0
 77
     0
 78
     0
170
     0
171
     2
172
     0
173
     0
174
     0
175
     0
176
     0
177
     0
178
     0
  0
ENDTAB
  0
ENDSEC
  0
SECTION
  2
BLOCKS
  0
BLOCK
  8
0
  2
$MODEL_SPACE
 70
     0
 10
0.0
 20
0.0
 30
0.0
  3
$MODEL_SPACE
  1

  0
ENDBLK
  5
175
  8
0
  0
BLOCK
 67
     1
  8
0
  2
$PAPER_SPACE
 70
     0
 10
0.0
 20
0.0
 30
0.0
  3
$PAPER_SPACE
  1

  0
ENDBLK
  5
173
 67
     1
  8
0
  0
ENDSEC
  0
SECTION
  2
ENTITIES
  0
TEXT
  5
2085
  8
0
 62
     3
 10
0.0
 20
0.0
 30
0.0
 40
10.0
  1
ECLN05X40-SUS
  7
STANDARD1
  0
LINE
  5
2B75
  8
1
 10
49.9999999999999716
 20
186.0473790923246895
 30
0.0
 11
50.0
 21
162.0473790923248032
 31
0.0
  0
POLYLINE
  5
2B76
  8
0
 66
     1
 10
0.0
 20
0.0
 30
0.0
  0
VERTEX
  5
3063
  8
0
 10
91.8962414880767966
 20
168.2644859290259092
 30
0.0
  0
VERTEX
  5
3064
  8
0
 10
92.2506052881242908
 20
168.7158246328660027
 30
0.0
  0
VERTEX
  5
3065
  8
0
 10
92.5714680439553064
 20
169.1825031027487967
 30
0.0
  0
VERTEX
  5
3066
  8
0
 10
92.8582460439677959
 20
169.6605074944363878
 30
0.0
  0
VERTEX
  5
3067
  8
0
 10
93.1103555765597264
 20
170.1458239636912992
 30
0.0
  0
VERTEX
  5
3068
  8
0
 10
93.3633554085662354
 20
170.722685137748897
 30
0.0
  0
VERTEX
  5
3069
  8
0
 10
93.5730792186389522
 20
171.3086794260019019
 30
0.0
  0
VERTEX
  5
306A
  8
0
 10
93.7402007726033162
 20
171.9010333627390992
 30
0.0
  0
VERTEX
  5
306B
  8
0
 10
93.8653938362846816
 20
172.4969734822495866
 30
0.0
  0
VERTEX
  5
306C
  8
0
 10
93.9493321755084594
 20
173.0937263188226041
 30
0.0
  0
VERTEX
  5
306D
  8
0
 10
93.9869066614855626
 20
173.5620872673154906
 30
0.0
  0
VERTEX
  5
306E
  8
0
 10
93.9999849999812227
 20
174.0309474121795859
 30
0.0
  0
VERTEX
  5
306F
  8
0
 10
93.9999999999999574
 20
174.0473790923246895
 30
0.0
  0
SEQEND
  5
3070
  8
0
  0
POLYLINE
  5
2B77
  8
0
 66
     1
 10
0.0
 20
0.0
 30
0.0
  0
VERTEX
  5
3071
  8
0
 10
93.9999999999999574
 20
174.0473790923246895
 30
0.0
  0
VERTEX
  5
3072
  8
0
 10
93.9999849999812227
 20
174.0638107724699069
 30
0.0
  0
VERTEX
  5
3073
  8
0
 10
93.9869066614855626
 20
174.5326709173340021
 30
0.0
  0
VERTEX
  5
3074
  8
0
 10
93.9493321755084594
 20
175.0010318658268886
 30
0.0
  0
VERTEX
  5
3075
  8
0
 10
93.8653938362846816
 20
175.5977847023997924
 30
0.0
  0
VERTEX
  5
3076
  8
0
 10
93.7402007726033162
 20
176.1937248219103935
 30
0.0
  0
VERTEX
  5
3077
  8
0
 10
93.5730792186389664
 20
176.7860787586475908
 30
0.0
  0
VERTEX
  5
3078
  8
0
 10
93.3633554085662354
 20
177.3720730469005105
 30
0.0
  0
VERTEX
  5
3079
  8
0
 10
93.1103555765597264
 20
177.9489342209581935
 30
0.0
  0
VERTEX
  5
307A
  8
0
 10
92.8582460439677959
 20
178.4342506902129912
 30
0.0
  0
VERTEX
  5
307B
  8
0
 10
92.5714680439553064
 20
178.912255081900696
 30
0.0
  0
VERTEX
  5
307C
  8
0
 10
92.2506052881242908
 20
179.37893355178349
 30
0.0
  0
VERTEX
  5
307D
  8
0
 10
91.8962414880767966
 20
179.8302722556234983
 30
0.0
  0
SEQEND
  5
307E
  8
0
  0
LINE
  5
2B78
  8
0
 10
84.9999999999999858
 20
165.0473790923248032
 30
0.0
 11
41.9999999999999716
 21
165.0473790923248032
 31
0.0
  0
LINE
  5
2B79
  8
0
 10
57.3599999999999568
 20
170.1473790923247122
 30
0.0
 11
41.9999999999999716
 21
170.1473790923247122
 31
0.0
  0
LINE
  5
2B7A
  8
0
 10
41.9999999999999716
 20
170.1473790923247122
 30
0.0
 11
41.9999999999999716
 21
165.0473790923248032
 31
0.0
  0
LINE
  5
2B7B
  8
0
 10
84.9999999999999858
 20
183.0473790923246895
 30
0.0
 11
41.9999999999999716
 21
183.0473790923248032
 31
0.0
  0
LINE
  5
2B7C
  8
0
 10
41.9999999999999716
 20
183.0473790923248032
 30
0.0
 11
41.9999999999999716
 21
177.9473790923246952
 31
0.0
  0
LINE
  5
2B7D
  8
0
 10
41.9999999999999716
 20
177.9473790923246952
 30
0.0
 11
57.3599999999999568
 21
177.9473790923246952
 31
0.0
  0
POLYLINE
  5
2B7F
  8
0
 66
     1
 10
0.0
 20
0.0
 30
0.0
  0
VERTEX
  5
307F
  8
0
 10
91.8962414880767966
 20
179.8302722556234983
 30
0.0
  0
VERTEX
  5
3080
  8
0
 10
91.5561592447764241
 20
180.213091130476613
 30
0.0
  0
VERTEX
  5
3081
  8
0
 10
91.195349919627688
 20
180.5755386055054998
 30
0.0
  0
VERTEX
  5
3082
  8
0
 10
90.8156056942080738
 20
180.9160565785294068
 30
0.0
  0
VERTEX
  5
3083
  8
0
 10
90.4058085498086541
 20
181.2429631622354123
 30
0.0
  0
VERTEX
  5
3084
  8
0
 10
89.9779994578436799
 20
181.5452932172557041
 30
0.0
  0
VERTEX
  5
3085
  8
0
 10
89.5342760520316432
 20
181.8217176933873134
 30
0.0
  0
VERTEX
  5
3086
  8
0
 10
89.0891519999608761
 20
182.0647442620876859
 30
0.0
  0
VERTEX
  5
3087
  8
0
 10
88.6310304772411541
 20
182.2823609099324926
 30
0.0
  0
VERTEX
  5
3088
  8
0
 10
88.1619443942586969
 20
182.4736539304495864
 30
0.0
  0
VERTEX
  5
3089
  8
0
 10
87.6692540798785842
 20
182.6423952737418972
 30
0.0
  0
VERTEX
  5
308A
  8
0
 10
87.1671849641599579
 20
182.7825110356108098
 30
0.0
  0
VERTEX
  5
308B
  8
0
 10
86.6580711835741084
 20
182.8933273145449903
 30
0.0
  0
VERTEX
  5
308C
  8
0
 10
86.2487972626920367
 20
182.9603149261162116
 30
0.0
  0
VERTEX
  5
308D
  8
0
 10
85.8366140069200583
 20
183.0084101157854093
 30
0.0
  0
VERTEX
  5
308E
  8
0
 10
85.4189447065507466
 20
183.0376182509220939
 30
0.0
  0
VERTEX
  5
308F
  8
0
 10
84.9999999999999858
 20
183.0473790923246895
 30
0.0
  0
SEQEND
  5
3090
  8
0
  0
POLYLINE
  5
2B81
  8
0
 66
     1
 10
0.0
 20
0.0
 30
0.0
  0
VERTEX
  5
3091
  8
0
 10
58.3599999999999497
 20
176.9473790923246952
 30
0.0
  0
VERTEX
  5
3092
  8
0
 10
58.3457138415841712
 20
177.1152086093370031
 30
0.0
  0
VERTEX
  5
3093
  8
0
 10
58.3036560370953225
 20
177.2783070054017003
 30
0.0
  0
VERTEX
  5
3094
  8
0
 10
58.2346397218495326
 20
177.4319448268213932
 30
0.0
  0
VERTEX
  5
3095
  8
0
 10
58.1409880261864771
 20
177.5719250897926997
 30
0.0
  0
VERTEX
  5
3096
  8
0
 10
58.0250231735816726
 20
177.6940670365171115
 30
0.0
  0
VERTEX
  5
3097
  8
0
 10
57.8903350081640085
 20
177.7951672611002039
 30
0.0
  0
VERTEX
  5
3098
  8
0
 10
57.7404703286892698
 20
177.8720634505197893
 30
0.0
  0
VERTEX
  5
3099
  8
0
 10
57.5798994712840724
 20
177.9229016305210109
 30
0.0
  0
VERTEX
  5
309A
  8
0
 10
57.3599999999999568
 20
177.9473790923246952
 30
0.0
  0
SEQEND
  5
309B
  8
0
  0
LINE
  5
2B82
  8
0
 10
58.3599999999999497
 20
176.9473790923246952
 30
0.0
 11
58.3599999999999497
 21
171.1473790923247122
 31
0.0
  0
POLYLINE
  5
2B83
  8
0
 66
     1
 10
0.0
 20
0.0
 30
0.0
  0
VERTEX
  5
309C
  8
0
 10
57.3599999999999568
 20
170.1473790923247122
 30
0.0
  0
VERTEX
  5
309D
  8
0
 10
57.5279047128525107
 20
170.1616780099141977
 30
0.0
  0
VERTEX
  5
309E
  8
0
 10
57.6910861797387327
 20
170.2037785721967111
 30
0.0
  0
VERTEX
  5
309F
  8
0
 10
57.8448138406575296
 20
170.272877102447211
 30
0.0
  0
VERTEX
  5
30A0
  8
0
 10
57.9848760258799132
 20
170.3666550999429887
 30
0.0
  0
VERTEX
  5
30A1
  8
0
 10
58.1070302588269101
 20
170.4827408752736062
 30
0.0
  0
VERTEX
  5
30A2
  8
0
 10
58.2081232558316515
 20
170.6175801276999096
 30
0.0
  0
VERTEX
  5
30A3
  8
0
 10
58.2849360072403329
 20
170.767521588803902
 30
0.0
  0
VERTEX
  5
30A4
  8
0
 10
58.3356792617380222
 20
170.9281760398498875
 30
0.0
  0
VERTEX
  5
30A5
  8
0
 10
58.3599999999999497
 20
171.1473790923247122
 30
0.0
  0
SEQEND
  5
30A6
  8
0
  0
POLYLINE
  5
2B85
  8
0
 66
     1
 10
0.0
 20
0.0
 30
0.0
  0
VERTEX
  5
30A7
  8
0
 10
84.9999999999999858
 20
165.0473790923248032
 30
0.0
  0
VERTEX
  5
30A8
  8
0
 10
85.5143777484707357
 20
165.0621328684636069
 30
0.0
  0
VERTEX
  5
30A9
  8
0
 10
86.0269373352534217
 20
165.1062028267419919
 30
0.0
  0
VERTEX
  5
30AA
  8
0
 10
86.5353198764313447
 20
165.179301911952706
 30
0.0
  0
VERTEX
  5
30AB
  8
0
 10
87.0529115913777218
 20
165.2846894553406969
 30
0.0
  0
VERTEX
  5
30AC
  8
0
 10
87.5636345734741752
 20
165.4202733701289958
 30
0.0
  0
VERTEX
  5
30AD
  8
0
 10
88.0650480129469742
 20
165.5853769250873881
 30
0.0
  0
VERTEX
  5
30AE
  8
0
 10
88.5421701970801536
 20
165.7737884026795996
 30
0.0
  0
VERTEX
  5
30AF
  8
0
 10
89.0083217927128061
 20
165.9893005696609976
 30
0.0
  0
VERTEX
  5
30B0
  8
0
 10
89.4613846431670652
 20
166.2309830515837064
 30
0.0
  0
VERTEX
  5
30B1
  8
0
 10
89.9128574493336146
 20
166.5066238696194887
 30
0.0
  0
VERTEX
  5
30B2
  8
0
 10
90.3482543470442465
 20
166.8089169291754956
 30
0.0
  0
VERTEX
  5
30B3
  8
0
 10
90.7653949459975138
 20
167.1365020773095011
 30
0.0
  0
VERTEX
  5
30B4
  8
0
 10
91.064821347572618
 20
167.3977270234674108
 30
0.0
  0
VERTEX
  5
30B5
  8
0
 10
91.3528308311241233
 20
167.6723072942099009
 30
0.0
  0
VERTEX
  5
30B6
  8
0
 10
91.6309242809150533
 20
167.9620879643119906
 30
0.0
  0
VERTEX
  5
30B7
  8
0
 10
91.8962414880767966
 20
168.2644859290259092
 30
0.0
  0
SEQEND
  5
30B8
  8
0
  0
LINE
  5
2BC4
  8
1
 10
38.2499999999999716
 20
174.0473790923246895
 30
0.0
 11
96.9999999999999716
 21
174.0473790923246895
 31
0.0
  0
ARC
  5
2BC5
  8
0
 10
49.9999999999999716
 20
174.0473790923246895
 30
0.0
 40
8.7500000000000089
 50
153.5309523816642923
 51
206.4690476183355941
  0
LINE
  5
2BC8
  8
0
 10
42.9999999999999716
 20
177.9473790923246952
 30
0.0
 11
42.9999999999999716
 21
170.1473790923247122
 31
0.0
  0
LINE
  5
2BC9
  8
0
 10
56.9999999999999716
 20
170.1473790923247122
 30
0.0
 11
56.9999999999999716
 21
177.9473790923246952
 31
0.0
  0
CIRCLE
  5
2C32
  8
0
 10
49.9999999999999716
 20
174.0473790923246895
 30
0.0
 40
2.0670000000000002
  0
CIRCLE
  5
2C33
  8
3
 10
49.9999999999999716
 20
174.0473790923246895
 30
0.0
 40
2.5
  0
LINE
  5
2F3C
  8
0
 10
52.0095000000000027
 20
53.0
 30
0.0
 11
47.9904999999999973
 21
53.0
 31
0.0
  0
LINE
  5
2F3D
  8
0
 10
52.0095000000000027
 20
53.0
 30
0.0
 11
52.5
 21
53.4904999999999973
 31
0.0
  0
LINE
  5
2F3E
  8
0
 10
47.5
 20
53.4904999999999973
 30
0.0
 11
47.9904999999999973
 21
53.0
 31
0.0
  0
LINE
  5
2F3F
  8
0
 10
52.5
 20
53.4904999999999973
 30
0.0
 11
47.5
 21
53.4904999999999973
 31
0.0
  0
LINE
  5
2F40
  8
0
 10
47.5
 20
93.0
 30
0.0
 11
47.5
 21
53.4904999999999973
 31
0.0
  0
LINE
  5
2F41
  8
0
 10
52.5
 20
53.4904999999999973
 30
0.0
 11
52.5
 21
93.0
 31
0.0
  0
LINE
  5
2F4C
  8
3
 10
52.0095000000000027
 20
53.0
 30
0.0
 11
52.0095000000000027
 21
93.0
 31
0.0
  0
LINE
  5
2F4F
  8
3
 10
47.9904999999999973
 20
53.0
 30
0.0
 11
47.9904999999999973
 21
93.0
 31
0.0
  0
LINE
  5
2F85
  8
1
 10
42.5
 20
111.0
 30
0.0
 11
57.5
 21
110.9999999999999005
 31
0.0
  0
LINE
  5
2F86
  8
1
 10
42.5
 20
110.5
 30
0.0
 11
57.5
 21
110.4999999999999005
 31
0.0
  0
POLYLINE
  5
2F87
  8
0
 66
     1
 10
0.0
 20
0.0
 30
0.0
  0
VERTEX
  5
30B9
  8
0
 10
85.0
 20
116.7640263746295943
 30
0.0
  0
VERTEX
  5
30BA
  8
0
 10
85.771032242317915
 20
116.5766402181751005
 30
0.0
  0
VERTEX
  5
30BB
  8
0
 10
86.5353198764313873
 20
116.3847486326243938
 30
0.0
  0
VERTEX
  5
30BC
  8
0
 10
87.3092842246430649
 20
116.1841139243169039
 30
0.0
  0
VERTEX
  5
30BD
  8
0
 10
88.0650480129470168
 20
115.9820727910693989
 30
0.0
  0
VERTEX
  5
30BE
  8
0
 10
88.7767497032514825
 20
115.7862071050741974
 30
0.0
  0
VERTEX
  5
30BF
  8
0
 10
89.4613846431670936
 20
115.5926637293389945
 30
0.0
  0
VERTEX
  5
30C0
  8
0
 10
90.1327016611398051
 20
115.3979446098035027
 30
0.0
  0
VERTEX
  5
30C1
  8
0
 10
90.7653949459975138
 20
115.2099519728800061
 30
0.0
  0
VERTEX
  5
30C2
  8
0
 10
91.3528308311241517
 20
115.0314772997302981
 30
0.0
  0
VERTEX
  5
30C3
  8
0
 10
91.8962414880768108
 20
114.8629968905064942
 30
0.0
  0
SEQEND
  5
30C4
  8
0
  0
POLYLINE
  5
2F88
  8
0
 66
     1
 10
0.0
 20
0.0
 30
0.0
  0
VERTEX
  5
30C5
  8
0
 10
85.0
 20
108.860667835836594
 30
0.0
  0
VERTEX
  5
30C6
  8
0
 10
85.6731763261889512
 20
108.3353287772976046
 30
0.0
  0
VERTEX
  5
30C7
  8
0
 10
86.3235170007494048
 20
107.7860480419624025
 30
0.0
  0
VERTEX
  5
30C8
  8
0
 10
86.9591095481132754
 20
107.2053120802638944
 30
0.0
  0
VERTEX
  5
30C9
  8
0
 10
87.5670724635411659
 20
106.6047513930276978
 30
0.0
  0
SEQEND
  5
30CA
  8
0
  0
POLYLINE
  5
2F89
  8
0
 66
     1
 10
0.0
 20
0.0
 30
0.0
  0
VERTEX
  5
30CB
  8
0
 10
90.483901307026315
 20
106.6590910131534997
 30
0.0
  0
VERTEX
  5
30CC
  8
0
 10
90.1469440953728878
 20
106.3617625603753964
 30
0.0
  0
VERTEX
  5
30CD
  8
0
 10
89.7574662461197477
 20
106.1489881453676958
 30
0.0
  0
VERTEX
  5
30CE
  8
0
 10
89.3923461160823365
 20
106.0390445363045018
 30
0.0
  0
VERTEX
  5
30CF
  8
0
 10
89.0068174955503366
 20
106.0000116195950994
 30
0.0
  0
VERTEX
  5
30D0
  8
0
 10
88.61745229320357
 20
106.0372828269429988
 30
0.0
  0
VERTEX
  5
30D1
  8
0
 10
88.2334883666453038
 20
106.1527155292342997
 30
0.0
  0
VERTEX
  5
30D2
  8
0
 10
87.9429898713327134
 20
106.302391896059703
 30
0.0
  0
VERTEX
  5
30D3
  8
0
 10
87.6764866457357925
 20
106.5005626384925961
 30
0.0
  0
VERTEX
  5
30D4
  8
0
 10
87.5670724635411659
 20
106.6047513930276978
 30
0.0
  0
SEQEND
  5
30D5
  8
0
  0
POLYLINE
  5
2F8A
  8
0
 66
     1
 10
0.0
 20
0.0
 30
0.0
  0
VERTEX
  5
30D6
  8
0
 10
93.4008700873593938
 20
110.201160701001001
 30
0.0
  0
VERTEX
  5
30D7
  8
0
 10
93.086513152099144
 20
109.786152836040003
 30
0.0
  0
VERTEX
  5
30D8
  8
0
 10
92.7251131712416168
 20
109.3198135129294002
 30
0.0
  0
VERTEX
  5
30D9
  8
0
 10
92.3089872213077882
 20
108.7966678025900933
 30
0.0
  0
VERTEX
  5
30DA
  8
0
 10
91.8553926812781754
 20
108.2422761032961063
 30
0.0
  0
VERTEX
  5
30DB
  8
0
 10
91.1984764934285295
 20
107.4672241535020021
 30
0.0
  0
VERTEX
  5
30DC
  8
0
 10
90.483901307026315
 20
106.6590910131534997
 30
0.0
  0
SEQEND
  5
30DD
  8
0
  0
POLYLINE
  5
2F8B
  8
0
 66
     1
 10
0.0
 20
0.0
 30
0.0
  0
VERTEX
  5
30DE
  8
0
 10
94.0
 20
112.0
 30
0.0
  0
VERTEX
  5
30DF
  8
0
 10
93.9999849999812369
 20
111.9905131729415046
 30
0.0
  0
VERTEX
  5
30E0
  8
0
 10
93.9632013684336016
 20
111.5315582745812009
 30
0.0
  0
VERTEX
  5
30E1
  8
0
 10
93.8544598599870881
 20
111.0769296301349982
 30
0.0
  0
VERTEX
  5
30E2
  8
0
 10
93.6680554346354057
 20
110.6283294135569975
 30
0.0
  0
VERTEX
  5
30E3
  8
0
 10
93.4008700873593938
 20
110.201160701001001
 30
0.0
  0
SEQEND
  5
30E4
  8
0
  0
POLYLINE
  5
2F8C
  8
0
 66
     1
 10
0.0
 20
0.0
 30
0.0
  0
VERTEX
  5
30E5
  8
0
 10
91.8962414880768108
 20
114.8629968905064942
 30
0.0
  0
VERTEX
  5
30E6
  8
0
 10
92.247019955172874
 20
114.7285506358970935
 30
0.0
  0
VERTEX
  5
30E7
  8
0
 10
92.5641357546829937
 20
114.5599764336653976
 30
0.0
  0
VERTEX
  5
30E8
  8
0
 10
92.854604957666325
 20
114.3580705416411973
 30
0.0
  0
VERTEX
  5
30E9
  8
0
 10
93.1103555765597548
 20
114.1322287261181003
 30
0.0
  0
VERTEX
  5
30EA
  8
0
 10
93.4166025800671491
 20
113.7776823518014027
 30
0.0
  0
VERTEX
  5
30EB
  8
0
 10
93.6564105634911357
 20
113.3940885618149963
 30
0.0
  0
VERTEX
  5
30EC
  8
0
 10
93.8358927868933677
 20
112.9786459690421054
 30
0.0
  0
VERTEX
  5
30ED
  8
0
 10
93.9493321755084736
 20
112.5490352616274947
 30
0.0
  0
VERTEX
  5
30EE
  8
0
 10
93.9999849999812369
 20
112.0094868270568043
 30
0.0
  0
VERTEX
  5
30EF
  8
0
 10
94.0
 20
112.0
 30
0.0
  0
SEQEND
  5
30F0
  8
0
  0
ARC
  5
2F8D
  8
0
 10
60.8265258198960908
 20
15.6124413842610004
 30
0.0
 40
103.9999999999995026
 50
76.5593944675817397
 51
96.4753826053447767
  0
ARC
  5
2F8E
  8
0
 10
71.8048695624940478
 20
91.2570167163328847
 30
0.0
 40
22.0
 50
53.1459532882686929
 51
111.6479274262791961
  0
ARC
  5
2F8F
  8
0
 10
50.0
 20
111.0
 30
0.0
 40
8.0000000000000018
 50
96.4753826053447767
 51
324.1992133584336102
  0
ARC
  5
2F90
  8
0
 10
68.6542829176515568
 20
97.5457170823484745
 30
0.0
 40
14.9999999999999201
 50
110.2533127853150035
 51
144.1992120493135872
  0
ARC
  5
2F91
  8
0
 10
60.0000000000041496
 20
120.9999999999888018
 30
0.0
 40
9.9999999999880913
 50
290.2533150620437823
 51
291.6479274262810009
  0
LINE
  5
2F92
  8
1
 10
50.0
 20
122.0473790923247037
 30
0.0
 11
50.0
 21
50.0
 31
0.0
  0
LINE
  5
2F93
  8
0
 10
46.0999999999999872
 20
104.015016105959802
 30
0.0
 11
46.0999999999999872
 21
103.0
 31
0.0
  0
LINE
  5
2F94
  8
0
 10
53.8999999999999986
 20
103.0
 30
0.0
 11
53.8999999999999986
 21
104.015016105959802
 31
0.0
  0
LINE
  5
2F95
  8
0
 10
58.75
 20
93.0
 30
0.0
 11
41.25
 21
93.0
 31
0.0
  0
LINE
  5
2F96
  8
0
 10
58.75
 20
103.0
 30
0.0
 11
41.25
 21
103.0
 31
0.0
  0
LINE
  5
2F97
  8
0
 10
41.25
 20
103.0
 30
0.0
 11
41.25
 21
93.0
 31
0.0
  0
LINE
  5
2F98
  8
0
 10
58.75
 20
93.0
 30
0.0
 11
58.75
 21
103.0
 31
0.0
  0
CIRCLE
  5
2F99
  8
0
 10
50.0
 20
111.0
 30
0.0
 40
4.5
  0
ENDSEC
  0
EOF
