  0
SECTION
  2
HEADER
  9
$ACADVER
  1
AC1009
  9
$INSBASE
 10
0.0
 20
0.0
 30
0.0
  9
$EXTMIN
 10
0.0
 20
-2.960436562073669
 30
0.0
  9
$EXTMAX
 10
111.0368349249659019
 20
166.0473790923248032
 30
0.0
  9
$LIMMIN
 10
0.0
 20
0.0
  9
$LIMMAX
 10
385.0
 20
270.0
  9
$ORTHOMODE
 70
     1
  9
$REGENMODE
 70
     1
  9
$FILLMODE
 70
     1
  9
$QTEXTMODE
 70
     0
  9
$MIRRTEXT
 70
     0
  9
$DRAGMODE
 70
     2
  9
$LTSCALE
 40
5.0
  9
$OSMODE
 70
    37
  9
$ATTMODE
 70
     1
  9
$TEXTSIZE
 40
4.000000000000048
  9
$TRACEWID
 40
0.05
  9
$TEXTSTYLE
  7
STANDARD
  9
$CLAYER
  8
0
  9
$CELTYPE
  6
BYLAYER
  9
$CECOLOR
 62
   256
  9
$DIMSCALE
 40
1.0
  9
$DIMASZ
 40
3.0
  9
$DIMEXO
 40
2.0
  9
$DIMDLI
 40
0.38
  9
$DIMRND
 40
0.0
  9
$DIMDLE
 40
0.0
  9
$DIMEXE
 40
2.0
  9
$DIMTP
 40
0.0
  9
$DIMTM
 40
0.0
  9
$DIMTXT
 40
3.0
  9
$DIMCEN
 40
0.0
  9
$DIMTSZ
 40
0.0
  9
$DIMTOL
 70
     0
  9
$DIMLIM
 70
     0
  9
$DIMTIH
 70
     0
  9
$DIMTOH
 70
     0
  9
$DIMSE1
 70
     0
  9
$DIMSE2
 70
     0
  9
$DIMTAD
 70
     1
  9
$DIMZIN
 70
     8
  9
$DIMBLK
  1

  9
$DIMASO
 70
     0
  9
$DIMSHO
 70
     0
  9
$DIMPOST
  1

  9
$DIMAPOST
  1

  9
$DIMALT
 70
     0
  9
$DIMALTD
 70
     2
  9
$DIMALTF
 40
25.3999999999999986
  9
$DIMLFAC
 40
1.0
  9
$DIMTOFL
 70
     1
  9
$DIMTVP
 40
1.6000000000000001
  9
$DIMTIX
 70
     1
  9
$DIMSOXD
 70
     0
  9
$DIMSAH
 70
     0
  9
$DIMBLK1
  1

  9
$DIMBLK2
  1

  9
$DIMSTYLE
  2
STANDARD
  9
$DIMCLRD
 70
     0
  9
$DIMCLRE
 70
     0
  9
$DIMCLRT
 70
     0
  9
$DIMTFAC
 40
1.0
  9
$DIMGAP
 40
1.0
  9
$LUNITS
 70
     2
  9
$LUPREC
 70
     4
  9
$SKETCHINC
 40
0.1
  9
$FILLETRAD
 40
0.0
  9
$AUNITS
 70
     0
  9
$AUPREC
 70
     4
  9
$MENU
  1
E:\r13\win\SUPPORT\ACAD
  9
$ELEVATION
 40
0.0
  9
$PELEVATION
 40
0.0
  9
$THICKNESS
 40
0.0
  9
$LIMCHECK
 70
     0
  9
$BLIPMODE
 70
     0
  9
$CHAMFERA
 40
0.0
  9
$CHAMFERB
 40
0.0
  9
$SKPOLY
 70
     0
  9
$TDCREATE
 40
2450280.5982060190290213
  9
$TDUPDATE
 40
2460095.5805439818650484
  9
$TDINDWG
 40
0.3782135764
  9
$TDUSRTIMER
 40
0.3782135764
  9
$USRTIMER
 70
     1
  9
$ANGBASE
 50
0.0
  9
$ANGDIR
 70
     0
  9
$PDMODE
 70
     0
  9
$PDSIZE
 40
0.0
  9
$PLINEWID
 40
0.0
  9
$COORDS
 70
     1
  9
$SPLFRAME
 70
     0
  9
$SPLINETYPE
 70
     6
  9
$SPLINESEGS
 70
     8
  9
$ATTDIA
 70
     1
  9
$ATTREQ
 70
     1
  9
$HANDLING
 70
     1
  9
$HANDSEED
  5
2D5D
  9
$SURFTAB1
 70
     6
  9
$SURFTAB2
 70
     6
  9
$SURFTYPE
 70
     6
  9
$SURFU
 70
     6
  9
$SURFV
 70
     6
  9
$UCSNAME
  2

  9
$UCSORG
 10
0.0
 20
0.0
 30
0.0
  9
$UCSXDIR
 10
1.0
 20
0.0
 30
0.0
  9
$UCSYDIR
 10
0.0
 20
1.0
 30
0.0
  9
$PUCSNAME
  2

  9
$PUCSORG
 10
0.0
 20
0.0
 30
0.0
  9
$PUCSXDIR
 10
1.0
 20
0.0
 30
0.0
  9
$PUCSYDIR
 10
0.0
 20
1.0
 30
0.0
  9
$USERI1
 70
     3
  9
$USERI2
 70
     1
  9
$USERI3
 70
     1
  9
$USERI4
 70
     0
  9
$USERI5
 70
     0
  9
$USERR1
 40
1.0
  9
$USERR2
 40
3.0
  9
$USERR3
 40
3.0
  9
$USERR4
 40
3.0
  9
$USERR5
 40
10.0
  9
$WORLDVIEW
 70
     1
  9
$SHADEDGE
 70
     3
  9
$SHADEDIF
 70
    70
  9
$TILEMODE
 70
     1
  9
$MAXACTVP
 70
    16
  9
$PLIMCHECK
 70
     0
  9
$PEXTMIN
 10
1.0000000000000000E+20
 20
1.0000000000000000E+20
 30
1.0000000000000000E+20
  9
$PEXTMAX
 10
-1.0000000000000000E+20
 20
-1.0000000000000000E+20
 30
-1.0000000000000000E+20
  9
$PLIMMIN
 10
0.0
 20
0.0
  9
$PLIMMAX
 10
12.0
 20
9.0
  9
$UNITMODE
 70
     0
  9
$VISRETAIN
 70
     0
  9
$PLINEGEN
 70
     0
  9
$PSLTSCALE
 70
     0
  0
ENDSEC
  0
SECTION
  2
TABLES
  0
TABLE
  2
VPORT
 70
     1
  0
VPORT
  2
*ACTIVE
 70
     0
 10
0.0
 20
0.0
 11
1.0
 21
1.0
 12
232.5609756097560989
 22
100.0
 13
0.0
 23
0.0
 14
5.0
 24
5.0
 15
10.0
 25
10.0
 16
0.0
 26
0.0
 36
1.0
 17
0.0
 27
0.0
 37
0.0
 40
200.0
 41
2.325609756097561
 42
50.0
 43
0.0
 44
0.0
 50
0.0
 51
0.0
 71
     0
 72
   500
 73
     1
 74
     0
 75
     0
 76
     0
 77
     0
 78
     2
  0
ENDTAB
  0
TABLE
  2
LTYPE
 70
     3
  0
LTYPE
  2
CONTINUOUS
 70
     0
  3
Solid Line
 72
    65
 73
     0
 40
0.0
  0
LTYPE
  2
CENTER
 70
     0
  3
____ _ ____ _ ____ _ ____ _ ____ _ ____ _ ____
 72
    65
 73
     4
 40
2.0
 49
1.25
 49
-0.25
 49
0.25
 49
-0.25
  0
LTYPE
  2
PHANTOM2
 70
     0
  3
___ _ _ ___ _ _ ___ _ _ ___ _ _
 72
    65
 73
     6
 40
1.25
 49
0.625
 49
-0.125
 49
0.125
 49
-0.125
 49
0.125
 49
-0.125
  0
ENDTAB
  0
TABLE
  2
LAYER
 70
     4
  0
LAYER
  2
0
 70
     0
 62
     7
  6
CONTINUOUS
  0
LAYER
  2
1
 70
     0
 62
     1
  6
CENTER
  0
LAYER
  2
3
 70
     0
 62
     3
  6
CONTINUOUS
  0
LAYER
  2
DEFPOINTS
 70
     0
 62
     7
  6
CONTINUOUS
  0
ENDTAB
  0
TABLE
  2
STYLE
 70
     2
  0
STYLE
  2
STANDARD
 70
     0
 40
0.0
 41
1.0
 50
0.0
 71
     0
 42
4.000000000000048
  3
SIMPLEX
  4
BIGFONT
  0
STYLE
  2
STANDARD1
 70
     0
 40
0.0
 41
1.0
 50
0.0
 71
     0
 42
3.0
  3
txt
  4

  0
ENDTAB
  0
TABLE
  2
VIEW
 70
     2
  0
VIEW
  2
OLE1
 70
     0
 40
100.402121314191703
 10
119.5958647627379037
 20
30.8456879924360514
 41
193.4756206346469014
 11
0.0
 21
0.0
 31
1.0
 12
0.0
 22
0.0
 32
0.0
 42
50.0
 43
0.0
 44
0.0
 50
0.0
 71
     0
  0
VIEW
  2
OLE2
 70
     0
 40
132.511099123107698
 10
142.9957689210700948
 20
-91.9537117507299229
 41
177.4176382703830939
 11
0.0
 21
0.0
 31
1.0
 12
0.0
 22
0.0
 32
0.0
 42
50.0
 43
0.0
 44
0.0
 50
0.0
 71
     0
  0
ENDTAB
  0
TABLE
  2
UCS
 70
     0
  0
ENDTAB
  0
TABLE
  2
APPID
 70
     7
  0
APPID
  2
ACAD
 70
     0
  0
APPID
  2
GENIUS_GENODEF_13
 70
     0
  0
APPID
  2
GENIUS_GENOBJ-N-FIL_13
 70
     0
  0
APPID
  2
ACAD_MLEADERVER
 70
     0
  0
APPID
  2
ACAD_NAV_VCDISPLAY
 70
     0
  0
APPID
  2
ACAD_EXEMPT_FROM_CAD_STANDARDS
 70
     0
  0
APPID
  2
ACAD_DSTYLE_DIMRADIAL_EXTENSION
 70
     0
  0
ENDTAB
  0
TABLE
  2
DIMSTYLE
 70
     1
  0
DIMSTYLE
  2
STANDARD
 70
     0
  3

  4

  5

  6

  7

 40
1.0
 41
0.18
 42
0.0625
 43
0.38
 44
0.18
 45
0.0
 46
0.0
 47
0.0
 48
0.0
140
0.18
141
0.09
142
0.0
143
25.3999999999999986
144
1.0
145
0.0
146
1.0
147
0.09
 71
     0
 72
     0
 73
     1
 74
     1
 75
     0
 76
     0
 77
     0
 78
     0
170
     0
171
     2
172
     0
173
     0
174
     0
175
     0
176
     0
177
     0
178
     0
  0
ENDTAB
  0
ENDSEC
  0
SECTION
  2
BLOCKS
  0
BLOCK
  8
0
  2
$MODEL_SPACE
 70
     0
 10
0.0
 20
0.0
 30
0.0
  3
$MODEL_SPACE
  1

  0
ENDBLK
  5
175
  8
0
  0
BLOCK
 67
     1
  8
0
  2
$PAPER_SPACE
 70
     0
 10
0.0
 20
0.0
 30
0.0
  3
$PAPER_SPACE
  1

  0
ENDBLK
  5
173
 67
     1
  8
0
  0
ENDSEC
  0
SECTION
  2
ENTITIES
  0
TEXT
  5
2085
  8
0
 62
     3
 10
0.0
 20
0.0
 30
0.0
 40
10.0
  1
ECLN05X20-SUS
  7
STANDARD1
  0
LINE
  5
2A38
  8
1
 10
42.5
 20
90.9999999999999858
 30
0.0
 11
57.5
 21
90.9999999999999716
 31
0.0
  0
POLYLINE
  5
2A39
  8
0
 66
     1
 10
0.0
 20
0.0
 30
0.0
  0
VERTEX
  5
2CCF
  8
0
 10
85.0
 20
96.7640263746295943
 30
0.0
  0
VERTEX
  5
2CD0
  8
0
 10
85.771032242317915
 20
96.5766402181751715
 30
0.0
  0
VERTEX
  5
2CD1
  8
0
 10
86.5353198764313873
 20
96.3847486326244649
 30
0.0
  0
VERTEX
  5
2CD2
  8
0
 10
87.3092842246430649
 20
96.1841139243169039
 30
0.0
  0
VERTEX
  5
2CD3
  8
0
 10
88.0650480129470168
 20
95.9820727910694131
 30
0.0
  0
VERTEX
  5
2CD4
  8
0
 10
88.7767497032514825
 20
95.7862071050742259
 30
0.0
  0
VERTEX
  5
2CD5
  8
0
 10
89.4613846431670936
 20
95.5926637293390797
 30
0.0
  0
VERTEX
  5
2CD6
  8
0
 10
90.1327016611398051
 20
95.3979446098035169
 30
0.0
  0
VERTEX
  5
2CD7
  8
0
 10
90.7653949459975138
 20
95.2099519728800345
 30
0.0
  0
VERTEX
  5
2CD8
  8
0
 10
91.3528308311241517
 20
95.031477299730355
 30
0.0
  0
VERTEX
  5
2CD9
  8
0
 10
91.8962414880768108
 20
94.8629968905064942
 30
0.0
  0
SEQEND
  5
2CDA
  8
0
  0
POLYLINE
  5
2A3A
  8
0
 66
     1
 10
0.0
 20
0.0
 30
0.0
  0
VERTEX
  5
2CDB
  8
0
 10
85.0
 20
88.860667835836594
 30
0.0
  0
VERTEX
  5
2CDC
  8
0
 10
85.6731763261889512
 20
88.3353287772976188
 30
0.0
  0
VERTEX
  5
2CDD
  8
0
 10
86.3235170007494048
 20
87.7860480419623883
 30
0.0
  0
VERTEX
  5
2CDE
  8
0
 10
86.9591095481132754
 20
87.2053120802638944
 30
0.0
  0
VERTEX
  5
2CDF
  8
0
 10
87.5670724635411659
 20
86.6047513930277262
 30
0.0
  0
SEQEND
  5
2CE0
  8
0
  0
POLYLINE
  5
2A3B
  8
0
 66
     1
 10
0.0
 20
0.0
 30
0.0
  0
VERTEX
  5
2CE1
  8
0
 10
90.483901307026315
 20
86.6590910131535281
 30
0.0
  0
VERTEX
  5
2CE2
  8
0
 10
90.1469440953728878
 20
86.3617625603754249
 30
0.0
  0
VERTEX
  5
2CE3
  8
0
 10
89.7574662461197477
 20
86.1489881453676958
 30
0.0
  0
VERTEX
  5
2CE4
  8
0
 10
89.3923461160823365
 20
86.0390445363045444
 30
0.0
  0
VERTEX
  5
2CE5
  8
0
 10
89.0068174955503366
 20
86.0000116195951421
 30
0.0
  0
VERTEX
  5
2CE6
  8
0
 10
88.61745229320357
 20
86.0372828269429561
 30
0.0
  0
VERTEX
  5
2CE7
  8
0
 10
88.2334883666453038
 20
86.1527155292343423
 30
0.0
  0
VERTEX
  5
2CE8
  8
0
 10
87.9429898713327134
 20
86.302391896059774
 30
0.0
  0
VERTEX
  5
2CE9
  8
0
 10
87.6764866457357925
 20
86.5005626384925819
 30
0.0
  0
VERTEX
  5
2CEA
  8
0
 10
87.5670724635411659
 20
86.6047513930277262
 30
0.0
  0
SEQEND
  5
2CEB
  8
0
  0
POLYLINE
  5
2A3C
  8
0
 66
     1
 10
0.0
 20
0.0
 30
0.0
  0
VERTEX
  5
2CEC
  8
0
 10
93.4008700873593938
 20
90.2011607010010579
 30
0.0
  0
VERTEX
  5
2CED
  8
0
 10
93.086513152099144
 20
89.7861528360400456
 30
0.0
  0
VERTEX
  5
2CEE
  8
0
 10
92.7251131712416168
 20
89.319813512929457
 30
0.0
  0
VERTEX
  5
2CEF
  8
0
 10
92.3089872213077882
 20
88.7966678025901643
 30
0.0
  0
VERTEX
  5
2CF0
  8
0
 10
91.8553926812781754
 20
88.2422761032961347
 30
0.0
  0
VERTEX
  5
2CF1
  8
0
 10
91.1984764934285295
 20
87.4672241535020731
 30
0.0
  0
VERTEX
  5
2CF2
  8
0
 10
90.483901307026315
 20
86.6590910131535281
 30
0.0
  0
SEQEND
  5
2CF3
  8
0
  0
POLYLINE
  5
2A3D
  8
0
 66
     1
 10
0.0
 20
0.0
 30
0.0
  0
VERTEX
  5
2CF4
  8
0
 10
94.0
 20
92.0
 30
0.0
  0
VERTEX
  5
2CF5
  8
0
 10
93.9999849999812369
 20
91.9905131729415331
 30
0.0
  0
VERTEX
  5
2CF6
  8
0
 10
93.9632013684336016
 20
91.5315582745811867
 30
0.0
  0
VERTEX
  5
2CF7
  8
0
 10
93.8544598599870881
 20
91.0769296301350266
 30
0.0
  0
VERTEX
  5
2CF8
  8
0
 10
93.6680554346354057
 20
90.6283294135570543
 30
0.0
  0
VERTEX
  5
2CF9
  8
0
 10
93.4008700873593938
 20
90.2011607010010579
 30
0.0
  0
SEQEND
  5
2CFA
  8
0
  0
POLYLINE
  5
2A3E
  8
0
 66
     1
 10
0.0
 20
0.0
 30
0.0
  0
VERTEX
  5
2CFB
  8
0
 10
91.8962414880768108
 20
94.8629968905064942
 30
0.0
  0
VERTEX
  5
2CFC
  8
0
 10
92.247019955172874
 20
94.7285506358970935
 30
0.0
  0
VERTEX
  5
2CFD
  8
0
 10
92.5641357546829937
 20
94.559976433665426
 30
0.0
  0
VERTEX
  5
2CFE
  8
0
 10
92.854604957666325
 20
94.3580705416411973
 30
0.0
  0
VERTEX
  5
2CFF
  8
0
 10
93.1103555765597548
 20
94.1322287261180861
 30
0.0
  0
VERTEX
  5
2D00
  8
0
 10
93.4166025800671491
 20
93.7776823518013884
 30
0.0
  0
VERTEX
  5
2D01
  8
0
 10
93.6564105634911357
 20
93.3940885618150389
 30
0.0
  0
VERTEX
  5
2D02
  8
0
 10
93.8358927868933677
 20
92.9786459690421339
 30
0.0
  0
VERTEX
  5
2D03
  8
0
 10
93.9493321755084736
 20
92.5490352616275374
 30
0.0
  0
VERTEX
  5
2D04
  8
0
 10
93.9999849999812369
 20
92.0094868270568611
 30
0.0
  0
VERTEX
  5
2D05
  8
0
 10
94.0
 20
92.0
 30
0.0
  0
SEQEND
  5
2D06
  8
0
  0
ARC
  5
2A40
  8
0
 10
60.8265258198960908
 20
-4.3875586157389987
 30
0.0
 40
103.9999999999995026
 50
76.5593944675817255
 51
96.4753826053447767
  0
ARC
  5
2A41
  8
0
 10
71.8048695624940478
 20
71.2570167163328847
 30
0.0
 40
22.0
 50
53.1459532882686929
 51
111.6479274262791961
  0
ARC
  5
2A43
  8
0
 10
50.0
 20
90.9999999999999858
 30
0.0
 40
8.0000000000000018
 50
96.4753826053447767
 51
324.199213358433326
  0
ARC
  5
2A44
  8
0
 10
68.6542829176515568
 20
77.5457170823484603
 30
0.0
 40
14.9999999999999201
 50
110.2533127853150035
 51
144.1992120493137008
  0
ARC
  5
2A45
  8
0
 10
60.0000000000041496
 20
100.9999999999888018
 30
0.0
 40
9.9999999999880913
 50
290.2533150620437823
 51
291.6479274262810009
  0
LINE
  5
2A73
  8
1
 10
50.0
 20
102.0473790923247037
 30
0.0
 11
50.0
 21
50.0
 31
0.0
  0
LINE
  5
2A74
  8
0
 10
52.0095000000000027
 20
53.0
 30
0.0
 11
47.9904999999999973
 21
53.0
 31
0.0
  0
LINE
  5
2A75
  8
0
 10
52.0095000000000027
 20
53.0
 30
0.0
 11
52.5
 21
53.4904999999999973
 31
0.0
  0
LINE
  5
2A76
  8
0
 10
47.5
 20
53.4904999999999973
 30
0.0
 11
47.9904999999999973
 21
53.0
 31
0.0
  0
LINE
  5
2A77
  8
0
 10
52.5
 20
53.4904999999999973
 30
0.0
 11
47.5
 21
53.4904999999999973
 31
0.0
  0
LINE
  5
2A78
  8
0
 10
47.5
 20
73.0
 30
0.0
 11
47.5
 21
53.4904999999999973
 31
0.0
  0
LINE
  5
2A79
  8
0
 10
52.5
 20
53.4904999999999973
 30
0.0
 11
52.5
 21
73.0
 31
0.0
  0
LINE
  5
2A7A
  8
0
 10
46.0999999999999872
 20
84.0150161059598446
 30
0.0
 11
46.0999999999999872
 21
83.0
 31
0.0
  0
LINE
  5
2A7B
  8
0
 10
53.8999999999999986
 20
83.0
 30
0.0
 11
53.8999999999999986
 21
84.0150161059598446
 31
0.0
  0
LINE
  5
2A7C
  8
0
 10
58.75
 20
73.0
 30
0.0
 11
41.25
 21
73.0
 31
0.0
  0
LINE
  5
2A7F
  8
0
 10
58.75
 20
83.0
 30
0.0
 11
41.25
 21
83.0
 31
0.0
  0
LINE
  5
2A81
  8
0
 10
41.25
 20
83.0
 30
0.0
 11
41.25
 21
73.0
 31
0.0
  0
LINE
  5
2A82
  8
0
 10
58.75
 20
73.0
 30
0.0
 11
58.75
 21
83.0
 31
0.0
  0
CIRCLE
  5
2A83
  8
0
 10
50.0
 20
91.0
 30
0.0
 40
4.5
  0
LINE
  5
2A84
  8
3
 10
52.0095000000000027
 20
53.0
 30
0.0
 11
52.0095000000000027
 21
73.0
 31
0.0
  0
LINE
  5
2A87
  8
3
 10
47.9904999999999973
 20
53.0
 30
0.0
 11
47.9904999999999973
 21
73.0
 31
0.0
  0
LINE
  5
2B75
  8
1
 10
49.9999999999999716
 20
166.0473790923248032
 30
0.0
 11
50.0
 21
142.0473790923248032
 31
0.0
  0
POLYLINE
  5
2B76
  8
0
 66
     1
 10
0.0
 20
0.0
 30
0.0
  0
VERTEX
  5
2D07
  8
0
 10
91.8962414880767966
 20
148.2644859290259092
 30
0.0
  0
VERTEX
  5
2D08
  8
0
 10
92.2506052881242908
 20
148.7158246328660027
 30
0.0
  0
VERTEX
  5
2D09
  8
0
 10
92.5714680439553064
 20
149.1825031027487114
 30
0.0
  0
VERTEX
  5
2D0A
  8
0
 10
92.8582460439677959
 20
149.6605074944363878
 30
0.0
  0
VERTEX
  5
2D0B
  8
0
 10
93.1103555765597264
 20
150.1458239636912992
 30
0.0
  0
VERTEX
  5
2D0C
  8
0
 10
93.3633554085662354
 20
150.722685137748897
 30
0.0
  0
VERTEX
  5
2D0D
  8
0
 10
93.5730792186389522
 20
151.3086794260019019
 30
0.0
  0
VERTEX
  5
2D0E
  8
0
 10
93.7402007726033162
 20
151.9010333627390992
 30
0.0
  0
VERTEX
  5
2D0F
  8
0
 10
93.8653938362846816
 20
152.4969734822495866
 30
0.0
  0
VERTEX
  5
2D10
  8
0
 10
93.9493321755084594
 20
153.0937263188226041
 30
0.0
  0
VERTEX
  5
2D11
  8
0
 10
93.9869066614855626
 20
153.5620872673154906
 30
0.0
  0
VERTEX
  5
2D12
  8
0
 10
93.9999849999812227
 20
154.0309474121795859
 30
0.0
  0
VERTEX
  5
2D13
  8
0
 10
93.9999999999999574
 20
154.0473790923248032
 30
0.0
  0
SEQEND
  5
2D14
  8
0
  0
POLYLINE
  5
2B77
  8
0
 66
     1
 10
0.0
 20
0.0
 30
0.0
  0
VERTEX
  5
2D15
  8
0
 10
93.9999999999999574
 20
154.0473790923248032
 30
0.0
  0
VERTEX
  5
2D16
  8
0
 10
93.9999849999812227
 20
154.0638107724699069
 30
0.0
  0
VERTEX
  5
2D17
  8
0
 10
93.9869066614855626
 20
154.5326709173340021
 30
0.0
  0
VERTEX
  5
2D18
  8
0
 10
93.9493321755084594
 20
155.0010318658268886
 30
0.0
  0
VERTEX
  5
2D19
  8
0
 10
93.8653938362846816
 20
155.5977847023997924
 30
0.0
  0
VERTEX
  5
2D1A
  8
0
 10
93.7402007726033162
 20
156.1937248219103935
 30
0.0
  0
VERTEX
  5
2D1B
  8
0
 10
93.5730792186389664
 20
156.7860787586475908
 30
0.0
  0
VERTEX
  5
2D1C
  8
0
 10
93.3633554085662354
 20
157.3720730469005105
 30
0.0
  0
VERTEX
  5
2D1D
  8
0
 10
93.1103555765597264
 20
157.9489342209581935
 30
0.0
  0
VERTEX
  5
2D1E
  8
0
 10
92.8582460439677959
 20
158.4342506902129912
 30
0.0
  0
VERTEX
  5
2D1F
  8
0
 10
92.5714680439553064
 20
158.912255081900696
 30
0.0
  0
VERTEX
  5
2D20
  8
0
 10
92.2506052881242908
 20
159.37893355178349
 30
0.0
  0
VERTEX
  5
2D21
  8
0
 10
91.8962414880767966
 20
159.8302722556234983
 30
0.0
  0
SEQEND
  5
2D22
  8
0
  0
LINE
  5
2B78
  8
0
 10
84.9999999999999858
 20
145.0473790923246895
 30
0.0
 11
41.9999999999999716
 21
145.0473790923246895
 31
0.0
  0
LINE
  5
2B79
  8
0
 10
57.3599999999999568
 20
150.1473790923247122
 30
0.0
 11
41.9999999999999716
 21
150.1473790923247122
 31
0.0
  0
LINE
  5
2B7A
  8
0
 10
41.9999999999999716
 20
150.1473790923247122
 30
0.0
 11
41.9999999999999716
 21
145.0473790923246895
 31
0.0
  0
LINE
  5
2B7B
  8
0
 10
84.9999999999999858
 20
163.0473790923246895
 30
0.0
 11
41.9999999999999716
 21
163.0473790923248032
 31
0.0
  0
LINE
  5
2B7C
  8
0
 10
41.9999999999999716
 20
163.0473790923248032
 30
0.0
 11
41.9999999999999716
 21
157.9473790923246952
 31
0.0
  0
LINE
  5
2B7D
  8
0
 10
41.9999999999999716
 20
157.9473790923246952
 30
0.0
 11
57.3599999999999568
 21
157.9473790923246952
 31
0.0
  0
POLYLINE
  5
2B7F
  8
0
 66
     1
 10
0.0
 20
0.0
 30
0.0
  0
VERTEX
  5
2D23
  8
0
 10
91.8962414880767966
 20
159.8302722556234983
 30
0.0
  0
VERTEX
  5
2D24
  8
0
 10
91.5561592447764241
 20
160.213091130476613
 30
0.0
  0
VERTEX
  5
2D25
  8
0
 10
91.195349919627688
 20
160.5755386055054998
 30
0.0
  0
VERTEX
  5
2D26
  8
0
 10
90.8156056942080738
 20
160.9160565785294068
 30
0.0
  0
VERTEX
  5
2D27
  8
0
 10
90.4058085498086541
 20
161.2429631622354123
 30
0.0
  0
VERTEX
  5
2D28
  8
0
 10
89.9779994578436799
 20
161.5452932172557041
 30
0.0
  0
VERTEX
  5
2D29
  8
0
 10
89.5342760520316432
 20
161.8217176933873134
 30
0.0
  0
VERTEX
  5
2D2A
  8
0
 10
89.0891519999608761
 20
162.0647442620876859
 30
0.0
  0
VERTEX
  5
2D2B
  8
0
 10
88.6310304772411541
 20
162.2823609099324926
 30
0.0
  0
VERTEX
  5
2D2C
  8
0
 10
88.1619443942586969
 20
162.4736539304495864
 30
0.0
  0
VERTEX
  5
2D2D
  8
0
 10
87.6692540798785842
 20
162.6423952737418972
 30
0.0
  0
VERTEX
  5
2D2E
  8
0
 10
87.1671849641599579
 20
162.7825110356108098
 30
0.0
  0
VERTEX
  5
2D2F
  8
0
 10
86.6580711835741084
 20
162.893327314544905
 30
0.0
  0
VERTEX
  5
2D30
  8
0
 10
86.2487972626920367
 20
162.9603149261162116
 30
0.0
  0
VERTEX
  5
2D31
  8
0
 10
85.8366140069200583
 20
163.0084101157854093
 30
0.0
  0
VERTEX
  5
2D32
  8
0
 10
85.4189447065507466
 20
163.0376182509220939
 30
0.0
  0
VERTEX
  5
2D33
  8
0
 10
84.9999999999999858
 20
163.0473790923246895
 30
0.0
  0
SEQEND
  5
2D34
  8
0
  0
POLYLINE
  5
2B81
  8
0
 66
     1
 10
0.0
 20
0.0
 30
0.0
  0
VERTEX
  5
2D35
  8
0
 10
58.3599999999999497
 20
156.9473790923246952
 30
0.0
  0
VERTEX
  5
2D36
  8
0
 10
58.3457138415841712
 20
157.1152086093370031
 30
0.0
  0
VERTEX
  5
2D37
  8
0
 10
58.3036560370953225
 20
157.2783070054017003
 30
0.0
  0
VERTEX
  5
2D38
  8
0
 10
58.2346397218495326
 20
157.4319448268213932
 30
0.0
  0
VERTEX
  5
2D39
  8
0
 10
58.1409880261864771
 20
157.5719250897928134
 30
0.0
  0
VERTEX
  5
2D3A
  8
0
 10
58.0250231735816726
 20
157.6940670365171115
 30
0.0
  0
VERTEX
  5
2D3B
  8
0
 10
57.8903350081640085
 20
157.7951672611002039
 30
0.0
  0
VERTEX
  5
2D3C
  8
0
 10
57.7404703286892698
 20
157.8720634505197893
 30
0.0
  0
VERTEX
  5
2D3D
  8
0
 10
57.5798994712840724
 20
157.9229016305210109
 30
0.0
  0
VERTEX
  5
2D3E
  8
0
 10
57.3599999999999568
 20
157.9473790923246952
 30
0.0
  0
SEQEND
  5
2D3F
  8
0
  0
LINE
  5
2B82
  8
0
 10
58.3599999999999497
 20
156.9473790923246952
 30
0.0
 11
58.3599999999999497
 21
151.1473790923247122
 31
0.0
  0
POLYLINE
  5
2B83
  8
0
 66
     1
 10
0.0
 20
0.0
 30
0.0
  0
VERTEX
  5
2D40
  8
0
 10
57.3599999999999568
 20
150.1473790923247122
 30
0.0
  0
VERTEX
  5
2D41
  8
0
 10
57.5279047128525107
 20
150.1616780099141977
 30
0.0
  0
VERTEX
  5
2D42
  8
0
 10
57.6910861797387327
 20
150.2037785721967111
 30
0.0
  0
VERTEX
  5
2D43
  8
0
 10
57.8448138406575296
 20
150.272877102447211
 30
0.0
  0
VERTEX
  5
2D44
  8
0
 10
57.9848760258799132
 20
150.3666550999429887
 30
0.0
  0
VERTEX
  5
2D45
  8
0
 10
58.1070302588269101
 20
150.4827408752736062
 30
0.0
  0
VERTEX
  5
2D46
  8
0
 10
58.2081232558316515
 20
150.6175801276999096
 30
0.0
  0
VERTEX
  5
2D47
  8
0
 10
58.2849360072403329
 20
150.767521588803902
 30
0.0
  0
VERTEX
  5
2D48
  8
0
 10
58.3356792617380222
 20
150.9281760398498875
 30
0.0
  0
VERTEX
  5
2D49
  8
0
 10
58.3599999999999497
 20
151.1473790923247122
 30
0.0
  0
SEQEND
  5
2D4A
  8
0
  0
POLYLINE
  5
2B85
  8
0
 66
     1
 10
0.0
 20
0.0
 30
0.0
  0
VERTEX
  5
2D4B
  8
0
 10
84.9999999999999858
 20
145.0473790923246895
 30
0.0
  0
VERTEX
  5
2D4C
  8
0
 10
85.5143777484707357
 20
145.0621328684636069
 30
0.0
  0
VERTEX
  5
2D4D
  8
0
 10
86.0269373352534217
 20
145.1062028267419919
 30
0.0
  0
VERTEX
  5
2D4E
  8
0
 10
86.5353198764313447
 20
145.179301911952706
 30
0.0
  0
VERTEX
  5
2D4F
  8
0
 10
87.0529115913777218
 20
145.2846894553406969
 30
0.0
  0
VERTEX
  5
2D50
  8
0
 10
87.5636345734741752
 20
145.4202733701289958
 30
0.0
  0
VERTEX
  5
2D51
  8
0
 10
88.0650480129469742
 20
145.5853769250873881
 30
0.0
  0
VERTEX
  5
2D52
  8
0
 10
88.5421701970801536
 20
145.7737884026795996
 30
0.0
  0
VERTEX
  5
2D53
  8
0
 10
89.0083217927128061
 20
145.9893005696609976
 30
0.0
  0
VERTEX
  5
2D54
  8
0
 10
89.4613846431670652
 20
146.2309830515837064
 30
0.0
  0
VERTEX
  5
2D55
  8
0
 10
89.9128574493336146
 20
146.5066238696194887
 30
0.0
  0
VERTEX
  5
2D56
  8
0
 10
90.3482543470442465
 20
146.8089169291754956
 30
0.0
  0
VERTEX
  5
2D57
  8
0
 10
90.7653949459975138
 20
147.1365020773095011
 30
0.0
  0
VERTEX
  5
2D58
  8
0
 10
91.064821347572618
 20
147.3977270234674108
 30
0.0
  0
VERTEX
  5
2D59
  8
0
 10
91.3528308311241233
 20
147.6723072942099009
 30
0.0
  0
VERTEX
  5
2D5A
  8
0
 10
91.6309242809150533
 20
147.9620879643119906
 30
0.0
  0
VERTEX
  5
2D5B
  8
0
 10
91.8962414880767966
 20
148.2644859290259092
 30
0.0
  0
SEQEND
  5
2D5C
  8
0
  0
LINE
  5
2BC4
  8
1
 10
38.2499999999999716
 20
154.0473790923248032
 30
0.0
 11
96.9999999999999716
 21
154.0473790923248032
 31
0.0
  0
ARC
  5
2BC5
  8
0
 10
49.9999999999999716
 20
154.0473790923248032
 30
0.0
 40
8.7500000000000089
 50
153.5309523816642923
 51
206.4690476183357077
  0
LINE
  5
2BC8
  8
0
 10
42.9999999999999716
 20
157.9473790923246952
 30
0.0
 11
42.9999999999999716
 21
150.1473790923247122
 31
0.0
  0
LINE
  5
2BC9
  8
0
 10
56.9999999999999716
 20
150.1473790923247122
 30
0.0
 11
56.9999999999999716
 21
157.9473790923246952
 31
0.0
  0
LINE
  5
2C31
  8
1
 10
42.5
 20
90.4999999999999858
 30
0.0
 11
57.5
 21
90.4999999999999716
 31
0.0
  0
CIRCLE
  5
2C32
  8
0
 10
49.9999999999999716
 20
154.0473790923248032
 30
0.0
 40
2.0670000000000002
  0
CIRCLE
  5
2C33
  8
3
 10
49.9999999999999716
 20
154.0473790923248032
 30
0.0
 40
2.5
  0
ENDSEC
  0
EOF
