  0
SECTION
  2
HEADER
  9
$ACADVER
  1
AC1009
  9
$INSBASE
 10
0.0
 20
0.0
 30
0.0
  9
$EXTMIN
 10
0.0
 20
-2.960436562073669
 30
0.0
  9
$EXTMAX
 10
95.7500000000000142
 20
133.0473790923248032
 30
0.0
  9
$LIMMIN
 10
0.0
 20
0.0
  9
$LIMMAX
 10
385.0
 20
270.0
  9
$ORTHOMODE
 70
     1
  9
$REGENMODE
 70
     1
  9
$FILLMODE
 70
     1
  9
$QTEXTMODE
 70
     0
  9
$MIRRTEXT
 70
     0
  9
$DRAGMODE
 70
     2
  9
$LTSCALE
 40
5.0
  9
$OSMODE
 70
    37
  9
$ATTMODE
 70
     1
  9
$TEXTSIZE
 40
4.000000000000048
  9
$TRACEWID
 40
0.05
  9
$TEXTSTYLE
  7
STANDARD
  9
$CLAYER
  8
0
  9
$CELTYPE
  6
BYLAYER
  9
$CECOLOR
 62
   256
  9
$DIMSCALE
 40
1.0
  9
$DIMASZ
 40
3.0
  9
$DIMEXO
 40
2.0
  9
$DIMDLI
 40
0.38
  9
$DIMRND
 40
0.0
  9
$DIMDLE
 40
0.0
  9
$DIMEXE
 40
2.0
  9
$DIMTP
 40
0.0
  9
$DIMTM
 40
0.0
  9
$DIMTXT
 40
3.0
  9
$DIMCEN
 40
0.0
  9
$DIMTSZ
 40
0.0
  9
$DIMTOL
 70
     0
  9
$DIMLIM
 70
     0
  9
$DIMTIH
 70
     0
  9
$DIMTOH
 70
     0
  9
$DIMSE1
 70
     0
  9
$DIMSE2
 70
     0
  9
$DIMTAD
 70
     1
  9
$DIMZIN
 70
     8
  9
$DIMBLK
  1

  9
$DIMASO
 70
     0
  9
$DIMSHO
 70
     0
  9
$DIMPOST
  1

  9
$DIMAPOST
  1

  9
$DIMALT
 70
     0
  9
$DIMALTD
 70
     2
  9
$DIMALTF
 40
25.3999999999999986
  9
$DIMLFAC
 40
1.0
  9
$DIMTOFL
 70
     1
  9
$DIMTVP
 40
1.6000000000000001
  9
$DIMTIX
 70
     1
  9
$DIMSOXD
 70
     0
  9
$DIMSAH
 70
     0
  9
$DIMBLK1
  1

  9
$DIMBLK2
  1

  9
$DIMSTYLE
  2
STANDARD
  9
$DIMCLRD
 70
     0
  9
$DIMCLRE
 70
     0
  9
$DIMCLRT
 70
     0
  9
$DIMTFAC
 40
1.0
  9
$DIMGAP
 40
1.0
  9
$LUNITS
 70
     2
  9
$LUPREC
 70
     4
  9
$SKETCHINC
 40
0.1
  9
$FILLETRAD
 40
0.0
  9
$AUNITS
 70
     0
  9
$AUPREC
 70
     4
  9
$MENU
  1
E:\r13\win\SUPPORT\ACAD
  9
$ELEVATION
 40
0.0
  9
$PELEVATION
 40
0.0
  9
$THICKNESS
 40
0.0
  9
$LIMCHECK
 70
     0
  9
$BLIPMODE
 70
     0
  9
$CHAMFERA
 40
0.0
  9
$CHAMFERB
 40
0.0
  9
$SKPOLY
 70
     0
  9
$TDCREATE
 40
2450280.5982060190290213
  9
$TDUPDATE
 40
2460095.5805324069224298
  9
$TDINDWG
 40
0.3513121875
  9
$TDUSRTIMER
 40
0.3513121875
  9
$USRTIMER
 70
     1
  9
$ANGBASE
 50
0.0
  9
$ANGDIR
 70
     0
  9
$PDMODE
 70
     0
  9
$PDSIZE
 40
0.0
  9
$PLINEWID
 40
0.0
  9
$COORDS
 70
     1
  9
$SPLFRAME
 70
     0
  9
$SPLINETYPE
 70
     6
  9
$SPLINESEGS
 70
     8
  9
$ATTDIA
 70
     1
  9
$ATTREQ
 70
     1
  9
$HANDLING
 70
     1
  9
$HANDSEED
  5
28BB
  9
$SURFTAB1
 70
     6
  9
$SURFTAB2
 70
     6
  9
$SURFTYPE
 70
     6
  9
$SURFU
 70
     6
  9
$SURFV
 70
     6
  9
$UCSNAME
  2

  9
$UCSORG
 10
0.0
 20
0.0
 30
0.0
  9
$UCSXDIR
 10
1.0
 20
0.0
 30
0.0
  9
$UCSYDIR
 10
0.0
 20
1.0
 30
0.0
  9
$PUCSNAME
  2

  9
$PUCSORG
 10
0.0
 20
0.0
 30
0.0
  9
$PUCSXDIR
 10
1.0
 20
0.0
 30
0.0
  9
$PUCSYDIR
 10
0.0
 20
1.0
 30
0.0
  9
$USERI1
 70
     3
  9
$USERI2
 70
     1
  9
$USERI3
 70
     1
  9
$USERI4
 70
     0
  9
$USERI5
 70
     0
  9
$USERR1
 40
1.0
  9
$USERR2
 40
3.0
  9
$USERR3
 40
3.0
  9
$USERR4
 40
3.0
  9
$USERR5
 40
10.0
  9
$WORLDVIEW
 70
     1
  9
$SHADEDGE
 70
     3
  9
$SHADEDIF
 70
    70
  9
$TILEMODE
 70
     1
  9
$MAXACTVP
 70
    16
  9
$PLIMCHECK
 70
     0
  9
$PEXTMIN
 10
1.0000000000000000E+20
 20
1.0000000000000000E+20
 30
1.0000000000000000E+20
  9
$PEXTMAX
 10
-1.0000000000000000E+20
 20
-1.0000000000000000E+20
 30
-1.0000000000000000E+20
  9
$PLIMMIN
 10
0.0
 20
0.0
  9
$PLIMMAX
 10
12.0
 20
9.0
  9
$UNITMODE
 70
     0
  9
$VISRETAIN
 70
     0
  9
$PLINEGEN
 70
     0
  9
$PSLTSCALE
 70
     0
  0
ENDSEC
  0
SECTION
  2
TABLES
  0
TABLE
  2
VPORT
 70
     1
  0
VPORT
  2
*ACTIVE
 70
     0
 10
0.0
 20
0.0
 11
1.0
 21
1.0
 12
232.5609756097560989
 22
100.0
 13
0.0
 23
0.0
 14
5.0
 24
5.0
 15
10.0
 25
10.0
 16
0.0
 26
0.0
 36
1.0
 17
0.0
 27
0.0
 37
0.0
 40
200.0
 41
2.325609756097561
 42
50.0
 43
0.0
 44
0.0
 50
0.0
 51
0.0
 71
     0
 72
   500
 73
     1
 74
     0
 75
     0
 76
     0
 77
     0
 78
     2
  0
ENDTAB
  0
TABLE
  2
LTYPE
 70
     3
  0
LTYPE
  2
CONTINUOUS
 70
     0
  3
Solid Line
 72
    65
 73
     0
 40
0.0
  0
LTYPE
  2
CENTER
 70
     0
  3
____ _ ____ _ ____ _ ____ _ ____ _ ____ _ ____
 72
    65
 73
     4
 40
2.0
 49
1.25
 49
-0.25
 49
0.25
 49
-0.25
  0
LTYPE
  2
PHANTOM2
 70
     0
  3
___ _ _ ___ _ _ ___ _ _ ___ _ _
 72
    65
 73
     6
 40
1.25
 49
0.625
 49
-0.125
 49
0.125
 49
-0.125
 49
0.125
 49
-0.125
  0
ENDTAB
  0
TABLE
  2
LAYER
 70
     4
  0
LAYER
  2
0
 70
     0
 62
     7
  6
CONTINUOUS
  0
LAYER
  2
1
 70
     0
 62
     1
  6
CENTER
  0
LAYER
  2
3
 70
     0
 62
     3
  6
CONTINUOUS
  0
LAYER
  2
DEFPOINTS
 70
     0
 62
     7
  6
CONTINUOUS
  0
ENDTAB
  0
TABLE
  2
STYLE
 70
     2
  0
STYLE
  2
STANDARD
 70
     0
 40
0.0
 41
1.0
 50
0.0
 71
     0
 42
4.000000000000048
  3
SIMPLEX
  4
BIGFONT
  0
STYLE
  2
STANDARD1
 70
     0
 40
0.0
 41
1.0
 50
0.0
 71
     0
 42
3.0
  3
txt
  4

  0
ENDTAB
  0
TABLE
  2
VIEW
 70
     2
  0
VIEW
  2
OLE1
 70
     0
 40
100.402121314191703
 10
119.5958647627379037
 20
30.8456879924360514
 41
193.4756206346469014
 11
0.0
 21
0.0
 31
1.0
 12
0.0
 22
0.0
 32
0.0
 42
50.0
 43
0.0
 44
0.0
 50
0.0
 71
     0
  0
VIEW
  2
OLE2
 70
     0
 40
132.511099123107698
 10
142.9957689210700948
 20
-91.9537117507299229
 41
177.4176382703830939
 11
0.0
 21
0.0
 31
1.0
 12
0.0
 22
0.0
 32
0.0
 42
50.0
 43
0.0
 44
0.0
 50
0.0
 71
     0
  0
ENDTAB
  0
TABLE
  2
UCS
 70
     0
  0
ENDTAB
  0
TABLE
  2
APPID
 70
     7
  0
APPID
  2
ACAD
 70
     0
  0
APPID
  2
GENIUS_GENODEF_13
 70
     0
  0
APPID
  2
GENIUS_GENOBJ-N-FIL_13
 70
     0
  0
APPID
  2
ACAD_MLEADERVER
 70
     0
  0
APPID
  2
ACAD_NAV_VCDISPLAY
 70
     0
  0
APPID
  2
ACAD_EXEMPT_FROM_CAD_STANDARDS
 70
     0
  0
APPID
  2
ACAD_DSTYLE_DIMRADIAL_EXTENSION
 70
     0
  0
ENDTAB
  0
TABLE
  2
DIMSTYLE
 70
     1
  0
DIMSTYLE
  2
STANDARD
 70
     0
  3

  4

  5

  6

  7

 40
1.0
 41
0.18
 42
0.0625
 43
0.38
 44
0.18
 45
0.0
 46
0.0
 47
0.0
 48
0.0
140
0.18
141
0.09
142
0.0
143
25.3999999999999986
144
1.0
145
0.0
146
1.0
147
0.09
 71
     0
 72
     0
 73
     1
 74
     1
 75
     0
 76
     0
 77
     0
 78
     0
170
     0
171
     2
172
     0
173
     0
174
     0
175
     0
176
     0
177
     0
178
     0
  0
ENDTAB
  0
ENDSEC
  0
SECTION
  2
BLOCKS
  0
BLOCK
  8
0
  2
$MODEL_SPACE
 70
     0
 10
0.0
 20
0.0
 30
0.0
  3
$MODEL_SPACE
  1

  0
ENDBLK
  5
175
  8
0
  0
BLOCK
 67
     1
  8
0
  2
$PAPER_SPACE
 70
     0
 10
0.0
 20
0.0
 30
0.0
  3
$PAPER_SPACE
  1

  0
ENDBLK
  5
173
 67
     1
  8
0
  0
ENDSEC
  0
SECTION
  2
ENTITIES
  0
TEXT
  5
2085
  8
0
 62
     3
 10
0.0
 20
0.0
 30
0.0
 40
10.0
  1
ECLN05
  7
STANDARD1
  0
LINE
  5
24FE
  8
1
 10
41.25
 20
57.9999999999999787
 30
0.0
 11
56.25
 21
57.9999999999999716
 31
0.0
  0
POLYLINE
  5
24FF
  8
0
 66
     1
 10
0.0
 20
0.0
 30
0.0
  0
VERTEX
  5
2826
  8
0
 10
83.75
 20
55.8606678358365869
 30
0.0
  0
VERTEX
  5
2827
  8
0
 10
84.4231763261889512
 20
55.3353287772976117
 30
0.0
  0
VERTEX
  5
2828
  8
0
 10
85.0735170007494048
 20
54.7860480419623883
 30
0.0
  0
VERTEX
  5
2829
  8
0
 10
85.7091095481132754
 20
54.2053120802638873
 30
0.0
  0
VERTEX
  5
282A
  8
0
 10
86.3170724635411659
 20
53.6047513930277404
 30
0.0
  0
SEQEND
  5
282B
  8
0
  0
POLYLINE
  5
2500
  8
0
 66
     1
 10
0.0
 20
0.0
 30
0.0
  0
VERTEX
  5
282C
  8
0
 10
83.75
 20
63.7640263746295872
 30
0.0
  0
VERTEX
  5
282D
  8
0
 10
84.521032242317915
 20
63.5766402181751573
 30
0.0
  0
VERTEX
  5
282E
  8
0
 10
85.2853198764313731
 20
63.384748632624472
 30
0.0
  0
VERTEX
  5
282F
  8
0
 10
86.0592842246430649
 20
63.1841139243168968
 30
0.0
  0
VERTEX
  5
2830
  8
0
 10
86.8150480129470168
 20
62.9820727910694131
 30
0.0
  0
VERTEX
  5
2831
  8
0
 10
87.5267497032514825
 20
62.7862071050742188
 30
0.0
  0
VERTEX
  5
2832
  8
0
 10
88.2113846431670936
 20
62.5926637293390726
 30
0.0
  0
VERTEX
  5
2833
  8
0
 10
88.8827016611398051
 20
62.3979446098035169
 30
0.0
  0
VERTEX
  5
2834
  8
0
 10
89.5153949459975564
 20
62.2099519728800274
 30
0.0
  0
VERTEX
  5
2835
  8
0
 10
90.1028308311241517
 20
62.0314772997303407
 30
0.0
  0
VERTEX
  5
2836
  8
0
 10
90.6462414880768108
 20
61.8629968905064871
 30
0.0
  0
SEQEND
  5
2837
  8
0
  0
POLYLINE
  5
2501
  8
0
 66
     1
 10
0.0
 20
0.0
 30
0.0
  0
VERTEX
  5
2838
  8
0
 10
89.233901307026315
 20
53.659091013153521
 30
0.0
  0
VERTEX
  5
2839
  8
0
 10
89.0160746058693491
 20
53.4519313020462832
 30
0.0
  0
VERTEX
  5
283A
  8
0
 10
88.7719779584764836
 20
53.2809887117901582
 30
0.0
  0
VERTEX
  5
283B
  8
0
 10
88.5074662461197477
 20
53.14898814536771
 30
0.0
  0
VERTEX
  5
283C
  8
0
 10
88.1423461160823365
 20
53.0390445363045586
 30
0.0
  0
VERTEX
  5
283D
  8
0
 10
87.7568174955503366
 20
53.0000116195951492
 30
0.0
  0
VERTEX
  5
283E
  8
0
 10
87.4977789757959101
 20
53.0162484469803772
 30
0.0
  0
VERTEX
  5
283F
  8
0
 10
87.2377257523655203
 20
53.0670018174548375
 30
0.0
  0
VERTEX
  5
2840
  8
0
 10
86.9834883666453038
 20
53.1527155292343494
 30
0.0
  0
VERTEX
  5
2841
  8
0
 10
86.6929898713327134
 20
53.3023918960597598
 30
0.0
  0
VERTEX
  5
2842
  8
0
 10
86.4264866457357925
 20
53.5005626384925819
 30
0.0
  0
VERTEX
  5
2843
  8
0
 10
86.3170724635411659
 20
53.6047513930277404
 30
0.0
  0
SEQEND
  5
2844
  8
0
  0
POLYLINE
  5
2502
  8
0
 66
     1
 10
0.0
 20
0.0
 30
0.0
  0
VERTEX
  5
2845
  8
0
 10
92.1508700873593938
 20
57.2011607010010721
 30
0.0
  0
VERTEX
  5
2846
  8
0
 10
91.946989930400477
 20
56.9309851840454826
 30
0.0
  0
VERTEX
  5
2847
  8
0
 10
91.7208093687314943
 20
56.6356169926847031
 30
0.0
  0
VERTEX
  5
2848
  8
0
 10
91.4751131712416168
 20
56.319813512929457
 30
0.0
  0
VERTEX
  5
2849
  8
0
 10
91.0589872213077882
 20
55.7966678025901572
 30
0.0
  0
VERTEX
  5
284A
  8
0
 10
90.6053926812781754
 20
55.2422761032961418
 30
0.0
  0
VERTEX
  5
284B
  8
0
 10
90.2838420311218641
 20
54.8589147243212878
 30
0.0
  0
VERTEX
  5
284C
  8
0
 10
89.9484764934284868
 20
54.4672241535020731
 30
0.0
  0
VERTEX
  5
284D
  8
0
 10
89.5974340602472665
 20
54.0658333965412226
 30
0.0
  0
VERTEX
  5
284E
  8
0
 10
89.233901307026315
 20
53.659091013153521
 30
0.0
  0
SEQEND
  5
284F
  8
0
  0
POLYLINE
  5
2503
  8
0
 66
     1
 10
0.0
 20
0.0
 30
0.0
  0
VERTEX
  5
2850
  8
0
 10
92.75
 20
59.0
 30
0.0
  0
VERTEX
  5
2851
  8
0
 10
92.7499849999812369
 20
58.9905131729415331
 30
0.0
  0
VERTEX
  5
2852
  8
0
 10
92.7132013684336016
 20
58.5315582745812009
 30
0.0
  0
VERTEX
  5
2853
  8
0
 10
92.6044598599870881
 20
58.0769296301350266
 30
0.0
  0
VERTEX
  5
2854
  8
0
 10
92.4180554346353631
 20
57.6283294135570472
 30
0.0
  0
VERTEX
  5
2855
  8
0
 10
92.2947334136970881
 20
57.4111853936930032
 30
0.0
  0
VERTEX
  5
2856
  8
0
 10
92.1508700873593938
 20
57.2011607010010721
 30
0.0
  0
SEQEND
  5
2857
  8
0
  0
POLYLINE
  5
2504
  8
0
 66
     1
 10
0.0
 20
0.0
 30
0.0
  0
VERTEX
  5
2858
  8
0
 10
90.6462414880768108
 20
61.8629968905064871
 30
0.0
  0
VERTEX
  5
2859
  8
0
 10
90.997019955172874
 20
61.7285506358970935
 30
0.0
  0
VERTEX
  5
285A
  8
0
 10
91.3141357546829937
 20
61.5599764336654118
 30
0.0
  0
VERTEX
  5
285B
  8
0
 10
91.604604957666325
 20
61.3580705416412115
 30
0.0
  0
VERTEX
  5
285C
  8
0
 10
91.8603555765597548
 20
61.1322287261181003
 30
0.0
  0
VERTEX
  5
285D
  8
0
 10
92.1666025800671491
 20
60.7776823518014027
 30
0.0
  0
VERTEX
  5
285E
  8
0
 10
92.4064105634911357
 20
60.3940885618150389
 30
0.0
  0
VERTEX
  5
285F
  8
0
 10
92.5858927868933677
 20
59.9786459690421268
 30
0.0
  0
VERTEX
  5
2860
  8
0
 10
92.6993321755084736
 20
59.5490352616275516
 30
0.0
  0
VERTEX
  5
2861
  8
0
 10
92.7368806210255343
 20
59.2802573027455892
 30
0.0
  0
VERTEX
  5
2862
  8
0
 10
92.7499849999812369
 20
59.0094868270568682
 30
0.0
  0
VERTEX
  5
2863
  8
0
 10
92.75
 20
59.0
 30
0.0
  0
SEQEND
  5
2864
  8
0
  0
ARC
  5
2505
  8
0
 10
70.5548695624940478
 20
38.2570167163328918
 30
0.0
 40
22.0
 50
53.1459532882686503
 51
111.6479274262791961
  0
ARC
  5
2506
  8
0
 10
48.75
 20
57.9999999999999787
 30
0.0
 40
8.0000000000000018
 50
96.4753826053448051
 51
324.199213358433326
  0
ARC
  5
2507
  8
0
 10
59.5765258198960908
 20
-37.3875586157390032
 30
0.0
 40
103.9999999999995026
 50
76.5593944675817255
 51
96.4753826053448051
  0
CIRCLE
  5
2508
  8
0
 10
48.75
 20
58.0
 30
0.0
 40
4.5
  0
ARC
  5
250A
  8
0
 10
67.4042829176515568
 20
44.5457170823484674
 30
0.0
 40
14.9999999999999201
 50
110.2533127853150035
 51
144.1992120493137008
  0
ARC
  5
250B
  8
0
 10
58.7500000000041496
 20
67.9999999999888303
 30
0.0
 40
9.9999999999880913
 50
290.2533150620437823
 51
291.6479274262810009
  0
LINE
  5
258E
  8
1
 10
48.75
 20
69.0473790923247748
 30
0.0
 11
48.75
 21
37.0
 31
0.0
  0
LINE
  5
258F
  8
0
 10
44.8499999999999872
 20
51.0150161059598517
 30
0.0
 11
44.8499999999999872
 21
50.0
 31
0.0
  0
LINE
  5
2590
  8
0
 10
52.6499999999999986
 20
50.0
 30
0.0
 11
52.6499999999999986
 21
51.0150161059598588
 31
0.0
  0
LINE
  5
2591
  8
0
 10
57.5
 20
40.0
 30
0.0
 11
40.0
 21
40.0
 31
0.0
  0
LINE
  5
2593
  8
0
 10
57.5
 20
50.0
 30
0.0
 11
40.0
 21
50.0
 31
0.0
  0
LINE
  5
2596
  8
0
 10
40.0
 20
50.0
 30
0.0
 11
40.0
 21
40.0
 31
0.0
  0
LINE
  5
2597
  8
0
 10
57.5
 20
40.0
 30
0.0
 11
57.5
 21
50.0
 31
0.0
  0
LINE
  5
259E
  8
1
 10
41.25
 20
57.4999999999999929
 30
0.0
 11
56.25
 21
57.4999999999999716
 31
0.0
  0
LINE
  5
2758
  8
1
 10
48.75
 20
133.0473790923248032
 30
0.0
 11
48.75
 21
109.0473790923248032
 31
0.0
  0
POLYLINE
  5
2759
  8
0
 66
     1
 10
0.0
 20
0.0
 30
0.0
  0
VERTEX
  5
2865
  8
0
 10
90.6462414880768108
 20
115.264485929025895
 30
0.0
  0
VERTEX
  5
2866
  8
0
 10
91.0006052881243193
 20
115.7158246328660027
 30
0.0
  0
VERTEX
  5
2867
  8
0
 10
91.3214680439553206
 20
116.1825031027487967
 30
0.0
  0
VERTEX
  5
2868
  8
0
 10
91.6082460439678243
 20
116.6605074944365015
 30
0.0
  0
VERTEX
  5
2869
  8
0
 10
91.8603555765597548
 20
117.1458239636912992
 30
0.0
  0
VERTEX
  5
286A
  8
0
 10
92.1133554085662638
 20
117.722685137748897
 30
0.0
  0
VERTEX
  5
286B
  8
0
 10
92.3230792186389664
 20
118.3086794260019019
 30
0.0
  0
VERTEX
  5
286C
  8
0
 10
92.4902007726033446
 20
118.9010333627390992
 30
0.0
  0
VERTEX
  5
286D
  8
0
 10
92.6153938362847242
 20
119.4969734822497003
 30
0.0
  0
VERTEX
  5
286E
  8
0
 10
92.6993321755084736
 20
120.0937263188226041
 30
0.0
  0
VERTEX
  5
286F
  8
0
 10
92.7369066614855768
 20
120.5620872673155048
 30
0.0
  0
VERTEX
  5
2870
  8
0
 10
92.7499849999812369
 20
121.0309474121796001
 30
0.0
  0
VERTEX
  5
2871
  8
0
 10
92.75
 20
121.0473790923247037
 30
0.0
  0
SEQEND
  5
2872
  8
0
  0
POLYLINE
  5
275A
  8
0
 66
     1
 10
0.0
 20
0.0
 30
0.0
  0
VERTEX
  5
2873
  8
0
 10
92.75
 20
121.0473790923247037
 30
0.0
  0
VERTEX
  5
2874
  8
0
 10
92.7499849999812369
 20
121.0638107724699069
 30
0.0
  0
VERTEX
  5
2875
  8
0
 10
92.7369066614855768
 20
121.5326709173340021
 30
0.0
  0
VERTEX
  5
2876
  8
0
 10
92.6993321755084736
 20
122.0010318658269028
 30
0.0
  0
VERTEX
  5
2877
  8
0
 10
92.6153938362847242
 20
122.5977847023999061
 30
0.0
  0
VERTEX
  5
2878
  8
0
 10
92.4902007726033446
 20
123.1937248219103935
 30
0.0
  0
VERTEX
  5
2879
  8
0
 10
92.323079218639009
 20
123.786078758647605
 30
0.0
  0
VERTEX
  5
287A
  8
0
 10
92.1133554085662638
 20
124.3720730469005957
 30
0.0
  0
VERTEX
  5
287B
  8
0
 10
91.8603555765597548
 20
124.9489342209581935
 30
0.0
  0
VERTEX
  5
287C
  8
0
 10
91.6082460439678243
 20
125.4342506902130054
 30
0.0
  0
VERTEX
  5
287D
  8
0
 10
91.3214680439553206
 20
125.912255081900696
 30
0.0
  0
VERTEX
  5
287E
  8
0
 10
91.0006052881243193
 20
126.3789335517835042
 30
0.0
  0
VERTEX
  5
287F
  8
0
 10
90.6462414880768108
 20
126.8302722556234983
 30
0.0
  0
SEQEND
  5
2880
  8
0
  0
LINE
  5
275B
  8
0
 10
83.75
 20
112.0473790923248032
 30
0.0
 11
40.75
 21
112.0473790923248032
 31
0.0
  0
LINE
  5
275C
  8
0
 10
56.1099999999999781
 20
117.147379092324698
 30
0.0
 11
40.75
 21
117.147379092324698
 31
0.0
  0
LINE
  5
275D
  8
0
 10
40.75
 20
117.147379092324698
 30
0.0
 11
40.75
 21
112.0473790923248032
 31
0.0
  0
LINE
  5
275E
  8
0
 10
83.75
 20
130.0473790923246895
 30
0.0
 11
40.75
 21
130.0473790923246895
 31
0.0
  0
LINE
  5
275F
  8
0
 10
40.75
 20
130.0473790923246895
 30
0.0
 11
40.75
 21
124.9473790923247947
 31
0.0
  0
LINE
  5
2760
  8
0
 10
40.75
 20
124.9473790923247947
 30
0.0
 11
56.1099999999999781
 21
124.9473790923247947
 31
0.0
  0
POLYLINE
  5
2762
  8
0
 66
     1
 10
0.0
 20
0.0
 30
0.0
  0
VERTEX
  5
2881
  8
0
 10
90.6462414880768108
 20
126.8302722556234983
 30
0.0
  0
VERTEX
  5
2882
  8
0
 10
90.3061592447764667
 20
127.2130911304765988
 30
0.0
  0
VERTEX
  5
2883
  8
0
 10
89.9453499196277164
 20
127.5755386055054998
 30
0.0
  0
VERTEX
  5
2884
  8
0
 10
89.5656056942081022
 20
127.9160565785294068
 30
0.0
  0
VERTEX
  5
2885
  8
0
 10
89.1558085498086825
 20
128.2429631622354123
 30
0.0
  0
VERTEX
  5
2886
  8
0
 10
88.7279994578436941
 20
128.5452932172557041
 30
0.0
  0
VERTEX
  5
2887
  8
0
 10
88.2842760520316858
 20
128.8217176933873134
 30
0.0
  0
VERTEX
  5
2888
  8
0
 10
87.8391519999609045
 20
129.0647442620876859
 30
0.0
  0
VERTEX
  5
2889
  8
0
 10
87.3810304772411826
 20
129.2823609099324926
 30
0.0
  0
VERTEX
  5
288A
  8
0
 10
86.9119443942587111
 20
129.4736539304495864
 30
0.0
  0
VERTEX
  5
288B
  8
0
 10
86.4192540798785984
 20
129.6423952737418972
 30
0.0
  0
VERTEX
  5
288C
  8
0
 10
85.9171849641599863
 20
129.7825110356108098
 30
0.0
  0
VERTEX
  5
288D
  8
0
 10
85.4080711835741511
 20
129.8933273145449903
 30
0.0
  0
VERTEX
  5
288E
  8
0
 10
84.9987972626920794
 20
129.9603149261162116
 30
0.0
  0
VERTEX
  5
288F
  8
0
 10
84.5866140069200867
 20
130.0084101157854093
 30
0.0
  0
VERTEX
  5
2890
  8
0
 10
84.168944706550775
 20
130.0376182509220939
 30
0.0
  0
VERTEX
  5
2891
  8
0
 10
83.75
 20
130.0473790923246895
 30
0.0
  0
SEQEND
  5
2892
  8
0
  0
POLYLINE
  5
2764
  8
0
 66
     1
 10
0.0
 20
0.0
 30
0.0
  0
VERTEX
  5
2893
  8
0
 10
57.1099999999999781
 20
123.9473790923247947
 30
0.0
  0
VERTEX
  5
2894
  8
0
 10
57.0957138415841996
 20
124.1152086093370031
 30
0.0
  0
VERTEX
  5
2895
  8
0
 10
57.0536560370953509
 20
124.2783070054017003
 30
0.0
  0
VERTEX
  5
2896
  8
0
 10
56.9846397218495611
 20
124.4319448268213932
 30
0.0
  0
VERTEX
  5
2897
  8
0
 10
56.8909880261865126
 20
124.5719250897927992
 30
0.0
  0
VERTEX
  5
2898
  8
0
 10
56.775023173581701
 20
124.6940670365170973
 30
0.0
  0
VERTEX
  5
2899
  8
0
 10
56.6403350081640511
 20
124.7951672611002039
 30
0.0
  0
VERTEX
  5
289A
  8
0
 10
56.4904703286892982
 20
124.872063450519903
 30
0.0
  0
VERTEX
  5
289B
  8
0
 10
56.3298994712841079
 20
124.9229016305210962
 30
0.0
  0
VERTEX
  5
289C
  8
0
 10
56.1099999999999781
 20
124.9473790923247947
 30
0.0
  0
SEQEND
  5
289D
  8
0
  0
LINE
  5
2765
  8
0
 10
57.1099999999999781
 20
123.9473790923247947
 30
0.0
 11
57.1099999999999781
 21
118.1473790923247975
 31
0.0
  0
POLYLINE
  5
2766
  8
0
 66
     1
 10
0.0
 20
0.0
 30
0.0
  0
VERTEX
  5
289E
  8
0
 10
56.1099999999999781
 20
117.147379092324698
 30
0.0
  0
VERTEX
  5
289F
  8
0
 10
56.2779047128525534
 20
117.1616780099141977
 30
0.0
  0
VERTEX
  5
28A0
  8
0
 10
56.4410861797387611
 20
117.2037785721966969
 30
0.0
  0
VERTEX
  5
28A1
  8
0
 10
56.594813840657558
 20
117.2728771024471968
 30
0.0
  0
VERTEX
  5
28A2
  8
0
 10
56.7348760258799416
 20
117.3666550999430029
 30
0.0
  0
VERTEX
  5
28A3
  8
0
 10
56.8570302588269385
 20
117.4827408752736062
 30
0.0
  0
VERTEX
  5
28A4
  8
0
 10
56.9581232558316799
 20
117.6175801276999948
 30
0.0
  0
VERTEX
  5
28A5
  8
0
 10
57.0349360072403613
 20
117.767521588803902
 30
0.0
  0
VERTEX
  5
28A6
  8
0
 10
57.0856792617380506
 20
117.9281760398499017
 30
0.0
  0
VERTEX
  5
28A7
  8
0
 10
57.1099999999999781
 20
118.1473790923247975
 30
0.0
  0
SEQEND
  5
28A8
  8
0
  0
POLYLINE
  5
2768
  8
0
 66
     1
 10
0.0
 20
0.0
 30
0.0
  0
VERTEX
  5
28A9
  8
0
 10
83.75
 20
112.0473790923248032
 30
0.0
  0
VERTEX
  5
28AA
  8
0
 10
84.2643777484707641
 20
112.0621328684636069
 30
0.0
  0
VERTEX
  5
28AB
  8
0
 10
84.7769373352534501
 20
112.1062028267420061
 30
0.0
  0
VERTEX
  5
28AC
  8
0
 10
85.2853198764313731
 20
112.179301911952706
 30
0.0
  0
VERTEX
  5
28AD
  8
0
 10
85.8029115913777503
 20
112.2846894553406969
 30
0.0
  0
VERTEX
  5
28AE
  8
0
 10
86.3136345734742179
 20
112.4202733701289958
 30
0.0
  0
VERTEX
  5
28AF
  8
0
 10
86.8150480129470168
 20
112.5853769250874024
 30
0.0
  0
VERTEX
  5
28B0
  8
0
 10
87.2921701970801962
 20
112.7737884026795996
 30
0.0
  0
VERTEX
  5
28B1
  8
0
 10
87.7583217927128487
 20
112.9893005696609976
 30
0.0
  0
VERTEX
  5
28B2
  8
0
 10
88.2113846431670936
 20
113.2309830515837064
 30
0.0
  0
VERTEX
  5
28B3
  8
0
 10
88.662857449333643
 20
113.5066238696196024
 30
0.0
  0
VERTEX
  5
28B4
  8
0
 10
89.0982543470442749
 20
113.8089169291754956
 30
0.0
  0
VERTEX
  5
28B5
  8
0
 10
89.5153949459975564
 20
114.1365020773095011
 30
0.0
  0
VERTEX
  5
28B6
  8
0
 10
89.8148213475726607
 20
114.3977270234673966
 30
0.0
  0
VERTEX
  5
28B7
  8
0
 10
90.1028308311241517
 20
114.6723072942100004
 30
0.0
  0
VERTEX
  5
28B8
  8
0
 10
90.3809242809150675
 20
114.9620879643120048
 30
0.0
  0
VERTEX
  5
28B9
  8
0
 10
90.6462414880768108
 20
115.264485929025895
 30
0.0
  0
SEQEND
  5
28BA
  8
0
  0
LINE
  5
27A8
  8
1
 10
37.0
 20
121.0473790923247037
 30
0.0
 11
95.7500000000000142
 21
121.0473790923247037
 31
0.0
  0
ARC
  5
27A9
  8
0
 10
48.75
 20
121.0473790923247037
 30
0.0
 40
8.7500000000000089
 50
153.5309523816642923
 51
206.4690476183357077
  0
CIRCLE
  5
27AC
  8
0
 10
48.75
 20
121.0473790923247037
 30
0.0
 40
2.0670000000000002
  0
LINE
  5
27B0
  8
0
 10
41.7499999999999929
 20
124.9473790923246952
 30
0.0
 11
41.7499999999999929
 21
117.147379092324698
 31
0.0
  0
LINE
  5
27B1
  8
0
 10
55.75
 20
117.147379092324698
 30
0.0
 11
55.75
 21
124.9473790923246952
 31
0.0
  0
CIRCLE
  5
27B3
  8
3
 10
48.75
 20
121.0473790923247037
 30
0.0
 40
2.5
  0
ENDSEC
  0
EOF
