  0
SECTION
  2
HEADER
  9
$ACADVER
  1
AC1009
  9
$INSBASE
 10
0.0
 20
0.0
 30
0.0
  9
$EXTMIN
 10
0.0
 20
-2.960436562073669
 30
-0.0000000000000019
  9
$EXTMAX
 10
273.85056290171872
 20
220.02649190328299
 30
0.0000000000000028
  9
$LIMMIN
 10
0.0
 20
0.0
  9
$LIMMAX
 10
375.0
 20
270.0
  9
$ORTHOMODE
 70
     1
  9
$REGENMODE
 70
     1
  9
$FILLMODE
 70
     1
  9
$QTEXTMODE
 70
     0
  9
$MIRRTEXT
 70
     0
  9
$DRAGMODE
 70
     2
  9
$LTSCALE
 40
10.0
  9
$OSMODE
 70
    37
  9
$ATTMODE
 70
     1
  9
$TEXTSIZE
 40
0.2
  9
$TRACEWID
 40
0.05
  9
$TEXTSTYLE
  7
STANDARD
  9
$CLAYER
  8
0
  9
$CELTYPE
  6
BYLAYER
  9
$CECOLOR
 62
   256
  9
$DIMSCALE
 40
1.0
  9
$DIMASZ
 40
3.0
  9
$DIMEXO
 40
0.0625
  9
$DIMDLI
 40
0.38
  9
$DIMRND
 40
0.0
  9
$DIMDLE
 40
0.0
  9
$DIMEXE
 40
0.18
  9
$DIMTP
 40
0.0
  9
$DIMTM
 40
0.0
  9
$DIMTXT
 40
3.0
  9
$DIMCEN
 40
0.09
  9
$DIMTSZ
 40
0.0
  9
$DIMTOL
 70
     0
  9
$DIMLIM
 70
     0
  9
$DIMTIH
 70
     1
  9
$DIMTOH
 70
     1
  9
$DIMSE1
 70
     0
  9
$DIMSE2
 70
     0
  9
$DIMTAD
 70
     0
  9
$DIMZIN
 70
     0
  9
$DIMBLK
  1

  9
$DIMASO
 70
     1
  9
$DIMSHO
 70
     1
  9
$DIMPOST
  1

  9
$DIMAPOST
  1

  9
$DIMALT
 70
     0
  9
$DIMALTD
 70
     2
  9
$DIMALTF
 40
25.399999999999999
  9
$DIMLFAC
 40
1.0
  9
$DIMTOFL
 70
     0
  9
$DIMTVP
 40
0.0
  9
$DIMTIX
 70
     0
  9
$DIMSOXD
 70
     0
  9
$DIMSAH
 70
     0
  9
$DIMBLK1
  1

  9
$DIMBLK2
  1

  9
$DIMSTYLE
  2
STANDARD
  9
$DIMCLRD
 70
     0
  9
$DIMCLRE
 70
     0
  9
$DIMCLRT
 70
     0
  9
$DIMTFAC
 40
1.0
  9
$DIMGAP
 40
0.09
  9
$LUNITS
 70
     2
  9
$LUPREC
 70
     4
  9
$SKETCHINC
 40
0.1
  9
$FILLETRAD
 40
5.0
  9
$AUNITS
 70
     0
  9
$AUPREC
 70
     0
  9
$MENU
  1
E:\r13\win\SUPPORT\ACAD
  9
$ELEVATION
 40
0.0
  9
$PELEVATION
 40
0.0
  9
$THICKNESS
 40
0.0
  9
$LIMCHECK
 70
     0
  9
$BLIPMODE
 70
     0
  9
$CHAMFERA
 40
0.0
  9
$CHAMFERB
 40
0.0
  9
$SKPOLY
 70
     0
  9
$TDCREATE
 40
2450382.6899885419
  9
$TDUPDATE
 40
2456743.680319896
  9
$TDINDWG
 40
0.0399088889
  9
$TDUSRTIMER
 40
0.0399088889
  9
$USRTIMER
 70
     1
  9
$ANGBASE
 50
0.0
  9
$ANGDIR
 70
     0
  9
$PDMODE
 70
     0
  9
$PDSIZE
 40
0.0
  9
$PLINEWID
 40
0.0
  9
$COORDS
 70
     1
  9
$SPLFRAME
 70
     0
  9
$SPLINETYPE
 70
     6
  9
$SPLINESEGS
 70
     8
  9
$ATTDIA
 70
     0
  9
$ATTREQ
 70
     1
  9
$HANDLING
 70
     1
  9
$HANDSEED
  5
55B
  9
$SURFTAB1
 70
     6
  9
$SURFTAB2
 70
     6
  9
$SURFTYPE
 70
     6
  9
$SURFU
 70
     6
  9
$SURFV
 70
     6
  9
$UCSNAME
  2

  9
$UCSORG
 10
0.0
 20
0.0
 30
0.0
  9
$UCSXDIR
 10
1.0
 20
0.0
 30
0.0
  9
$UCSYDIR
 10
0.0
 20
1.0
 30
0.0
  9
$PUCSNAME
  2

  9
$PUCSORG
 10
0.0
 20
0.0
 30
0.0
  9
$PUCSXDIR
 10
1.0
 20
0.0
 30
0.0
  9
$PUCSYDIR
 10
0.0
 20
1.0
 30
0.0
  9
$USERI1
 70
     3
  9
$USERI2
 70
     1
  9
$USERI3
 70
     1
  9
$USERI4
 70
     0
  9
$USERI5
 70
     0
  9
$USERR1
 40
1.0
  9
$USERR2
 40
3.0
  9
$USERR3
 40
3.0
  9
$USERR4
 40
3.0
  9
$USERR5
 40
10.0
  9
$WORLDVIEW
 70
     1
  9
$SHADEDGE
 70
     3
  9
$SHADEDIF
 70
    70
  9
$TILEMODE
 70
     1
  9
$MAXACTVP
 70
    16
  9
$PLIMCHECK
 70
     0
  9
$PEXTMIN
 10
1.0000000000000000E+020
 20
1.0000000000000000E+020
 30
1.0000000000000000E+020
  9
$PEXTMAX
 10
-1.0000000000000000E+020
 20
-1.0000000000000000E+020
 30
-1.0000000000000000E+020
  9
$PLIMMIN
 10
0.0
 20
0.0
  9
$PLIMMAX
 10
12.0
 20
9.0
  9
$UNITMODE
 70
     0
  9
$VISRETAIN
 70
     0
  9
$PLINEGEN
 70
     0
  9
$PSLTSCALE
 70
     0
  0
ENDSEC
  0
SECTION
  2
TABLES
  0
TABLE
  2
VPORT
 70
     1
  0
VPORT
  2
*ACTIVE
 70
     0
 10
0.0
 20
0.0
 11
1.0
 21
1.0
 12
247.1297704060762
 22
141.5827130852341
 13
0.0
 23
0.0
 14
5.0
 24
5.0
 15
0.0
 25
0.0
 16
0.0
 26
0.0
 36
1.0
 17
0.0
 27
0.0
 37
0.0
 40
283.16542617046821
 41
1.7454798331015291
 42
50.0
 43
0.0
 44
0.0
 50
0.0
 51
0.0
 71
     0
 72
  2000
 73
     1
 74
     0
 75
     0
 76
     0
 77
     0
 78
     0
  0
ENDTAB
  0
TABLE
  2
LTYPE
 70
     4
  0
LTYPE
  2
CONTINUOUS
 70
     0
  3
Solid Line
 72
    65
 73
     0
 40
0.0
  0
LTYPE
  2
CENTER
 70
     0
  3
____ _ ____ _ ____ _ ____ _ ____ _ ____ _ ____
 72
    65
 73
     4
 40
2.0
 49
1.25
 49
-0.25
 49
0.25
 49
-0.25
  0
LTYPE
  2
HIDDEN
 70
     0
  3
_ _ _ _ _ _ _ _ _ _ _ _ _ _ _ _ _ _ _ _ _ _ _
 72
    65
 73
     2
 40
0.375
 49
0.25
 49
-0.125
  0
LTYPE
  2
PHANTOM2
 70
     0
  3
___ _ _ ___ _ _ ___ _ _ ___ _ _
 72
    65
 73
     6
 40
1.25
 49
0.625
 49
-0.125
 49
0.125
 49
-0.125
 49
0.125
 49
-0.125
  0
ENDTAB
  0
TABLE
  2
LAYER
 70
     4
  0
LAYER
  2
0
 70
     0
 62
     7
  6
CONTINUOUS
  0
LAYER
  2
1
 70
     0
 62
     1
  6
CENTER
  0
LAYER
  2
2
 70
     0
 62
     2
  6
HIDDEN
  0
LAYER
  2
3
 70
     0
 62
     3
  6
CONTINUOUS
  0
ENDTAB
  0
TABLE
  2
STYLE
 70
     2
  0
STYLE
  2
STANDARD
 70
     0
 40
0.0
 41
1.0
 50
0.0
 71
     0
 42
0.2
  3
SIMPLEX
  4
BIGFONT
  0
STYLE
  2
STANDARD1
 70
     0
 40
0.0
 41
1.0
 50
0.0
 71
     0
 42
3.0
  3
txt
  4

  0
ENDTAB
  0
TABLE
  2
VIEW
 70
     0
  0
ENDTAB
  0
TABLE
  2
UCS
 70
     0
  0
ENDTAB
  0
TABLE
  2
APPID
 70
     4
  0
APPID
  2
ACAD
 70
     0
  0
APPID
  2
ACAD_MLEADERVER
 70
     0
  0
APPID
  2
ACAD_EXEMPT_FROM_CAD_STANDARDS
 70
     0
  0
APPID
  2
ACAD_NAV_VCDISPLAY
 70
     0
  0
ENDTAB
  0
TABLE
  2
DIMSTYLE
 70
     1
  0
DIMSTYLE
  2
STANDARD
 70
     0
  3

  4

  5

  6

  7

 40
1.0
 41
0.18
 42
0.0625
 43
0.38
 44
0.18
 45
0.0
 46
0.0
 47
0.0
 48
0.0
140
0.18
141
0.09
142
0.0
143
25.399999999999999
144
1.0
145
0.0
146
1.0
147
0.09
 71
     0
 72
     0
 73
     1
 74
     1
 75
     0
 76
     0
 77
     0
 78
     0
170
     0
171
     2
172
     0
173
     0
174
     0
175
     0
176
     0
177
     0
178
     0
  0
ENDTAB
  0
ENDSEC
  0
SECTION
  2
BLOCKS
  0
BLOCK
  8
0
  2
$MODEL_SPACE
 70
     0
 10
0.0
 20
0.0
 30
0.0
  3
$MODEL_SPACE
  1

  0
ENDBLK
  5
19D
  8
0
  0
BLOCK
 67
     1
  8
0
  2
$PAPER_SPACE
 70
     0
 10
0.0
 20
0.0
 30
0.0
  3
$PAPER_SPACE
  1

  0
ENDBLK
  5
19B
 67
     1
  8
0
  0
ENDSEC
  0
SECTION
  2
ENTITIES
  0
LINE
  5
51
  8
1
 10
100.0
 20
95.0
 30
0.0
 11
100.0
 21
146.0
 31
0.0000000000000014
  0
LINE
  5
52
  8
3
 10
108.5
 20
126.5483356488924
 30
0.0000000000000014
 11
108.5
 21
132.88727919290019
 31
0.0
  0
LINE
  5
53
  8
3
 10
91.5
 20
126.5483356488924
 30
0.0000000000000014
 11
91.5
 21
132.88727919290019
 31
0.0
  0
ARC
  5
54
  8
3
 10
109.6489270878665
 20
130.8795046688335
 30
0.0
 40
1.900422523265507
 50
13.08575311209972
 51
62.48028104318675
  0
ARC
  5
55
  8
3
 10
108.0183103508173
 20
123.3247629019753
 30
0.0
 40
9.5746406059096412
 50
74.810249200236598
 51
91.454409758772329
  0
ARC
  5
56
  8
3
 10
100.81315249417899
 20
146.59451635958939
 30
-0.0000000000000019
 40
15.36593610878854
 50
266.96653828097232
 51
296.94205428227002
  0
ARC
  5
57
  8
3
 10
99.186847505820865
 20
146.59451635958939
 30
-0.0000000000000019
 40
15.36593610878854
 50
243.05794571773001
 51
273.0334617190278
  0
ARC
  5
58
  8
3
 10
91.981689649182499
 20
123.3247629019753
 30
0.0
 40
9.5746406059096412
 50
88.545590241227671
 51
105.1897507997634
  0
ARC
  5
59
  8
3
 10
90.351072912133304
 20
130.8795046688335
 30
0.0
 40
1.900422523265507
 50
117.51971895681319
 51
166.91424688790019
  0
ARC
  5
5A
  8
0
 10
100.0
 20
129.33099999999999
 30
0.0
 40
11.668999999999979
 50
9.7631443520040033
 51
170.57842864430961
  0
LINE
  5
5B
  8
0
 10
88.499999999999986
 20
126.0725167950704
 30
0.0000000000000014
 11
88.499999999999986
 21
131.30977765299679
 31
0.0
  0
LINE
  5
5C
  8
0
 10
111.5
 20
126.0725167950705
 30
0.0000000000000014
 11
111.5
 21
131.30977765299679
 31
0.0
  0
LINE
  5
5D
  8
2
 10
115.5
 20
100.3
 30
0.0
 11
115.5
 21
112.8
 31
0.0
  0
LINE
  5
5E
  8
1
 10
113.0
 20
125.3
 30
0.0
 11
113.0
 21
97.300000000000026
 31
0.0
  0
LINE
  5
5F
  8
2
 10
110.5
 20
100.3
 30
0.0
 11
110.5
 21
112.8
 31
0.0
  0
LINE
  5
60
  8
2
 10
115.5
 20
112.8
 30
0.0
 11
110.5
 21
112.8
 31
0.0
  0
LINE
  5
61
  8
2
 10
114.5
 20
112.8
 30
0.0
 11
114.5
 21
122.3
 31
0.0
  0
LINE
  5
62
  8
2
 10
111.5
 20
112.8
 30
0.0
 11
111.5
 21
122.3
 31
0.0
  0
LINE
  5
63
  8
2
 10
114.5
 20
122.3
 30
0.0
 11
111.5
 21
122.3
 31
0.0
  0
LINE
  5
64
  8
1
 10
87.0
 20
125.3
 30
0.0
 11
87.0
 21
97.300000000000026
 31
0.0
  0
LINE
  5
65
  8
2
 10
85.5
 20
122.3
 30
0.0
 11
88.499999999999986
 21
122.3
 31
0.0
  0
LINE
  5
66
  8
2
 10
88.499999999999986
 20
112.8
 30
0.0
 11
88.499999999999986
 21
122.3
 31
0.0
  0
LINE
  5
67
  8
2
 10
85.5
 20
112.8
 30
0.0
 11
85.5
 21
122.3
 31
0.0
  0
LINE
  5
68
  8
2
 10
84.500000000000014
 20
112.8
 30
0.0
 11
89.500000000000014
 21
112.8
 31
0.0
  0
LINE
  5
69
  8
2
 10
84.500000000000014
 20
100.3
 30
0.0
 11
84.500000000000014
 21
112.8
 31
0.0
  0
LINE
  5
6A
  8
2
 10
89.500000000000014
 20
100.3
 30
0.0
 11
89.500000000000014
 21
112.8
 31
0.0
  0
LINE
  5
6D
  8
2
 10
106.75
 20
117.5
 30
0.0
 11
106.75
 21
120.0
 31
-0.000000000000001
  0
LINE
  5
6E
  8
0
 10
118.5000000000002
 20
100.3
 30
0.0
 11
118.5000000000002
 21
121.2999999999999
 31
0.0
  0
LINE
  5
72
  8
2
 10
110.0500000000002
 20
120.0
 30
0.0
 11
110.0500000000002
 21
125.0
 31
0.0000000000000013
  0
ARC
  5
74
  8
0
 10
114.0000000000002
 20
121.2999999999999
 30
0.0000000000000014
 40
4.5
 50
0.0
 51
90.0
  0
LINE
  5
76
  8
2
 10
109.0000000000002
 20
100.3
 30
0.0
 11
109.0000000000002
 21
115.9999999999999
 31
0.0
  0
LINE
  5
77
  8
2
 10
109.0000000000002
 20
115.9999999999999
 30
0.0
 11
108.0
 21
115.9999999999999
 31
0.0
  0
LINE
  5
78
  8
2
 10
108.0
 20
115.9999999999999
 30
0.0
 11
108.0
 21
117.5
 31
0.0
  0
LINE
  5
7A
  8
0
 10
109.0000000000002
 20
100.0
 30
0.0
 11
109.0000000000002
 21
100.3
 31
0.0
  0
LINE
  5
7B
  8
2
 10
104.0000000000002
 20
100.0
 30
0.0
 11
104.0000000000002
 21
117.5
 31
0.0
  0
LINE
  5
7C
  8
2
 10
95.999999999999886
 20
100.0
 30
0.0
 11
95.999999999999886
 21
117.5
 31
0.0
  0
LINE
  5
7D
  8
0
 10
90.999999999999886
 20
100.0
 30
0.0
 11
90.999999999999886
 21
100.3
 31
0.0
  0
LINE
  5
7E
  8
2
 10
92.0
 20
117.5
 30
0.0
 11
108.0
 21
117.5
 31
0.0
  0
LINE
  5
7F
  8
2
 10
92.0
 20
115.9999999999999
 30
0.0
 11
92.0
 21
117.5
 31
0.0
  0
LINE
  5
80
  8
2
 10
90.999999999999886
 20
115.9999999999999
 30
0.0
 11
92.0
 21
115.9999999999999
 31
0.0
  0
LINE
  5
81
  8
2
 10
90.999999999999886
 20
100.3
 30
0.0
 11
90.999999999999886
 21
115.9999999999999
 31
0.0
  0
LINE
  5
82
  8
0
 10
109.0000000000002
 20
100.0
 30
0.0
 11
90.999999999999886
 21
100.0
 31
0.0
  0
ARC
  5
83
  8
0
 10
85.999999999999886
 20
121.2999999999999
 30
0.0000000000000014
 40
4.5
 50
90.0
 51
180.0
  0
LINE
  5
84
  8
0
 10
81.499999999999886
 20
100.3
 30
0.0
 11
118.5000000000002
 21
100.3
 31
0.0
  0
LINE
  5
85
  8
2
 10
89.949999999999804
 20
120.0
 30
0.0
 11
89.949999999999804
 21
125.0
 31
0.0000000000000013
  0
LINE
  5
86
  8
2
 10
110.0500000000002
 20
120.0
 30
0.0
 11
89.949999999999804
 21
120.0
 31
0.0
  0
LINE
  5
88
  8
0
 10
114.0000000000002
 20
125.7999999999998
 30
0.0000000000000028
 11
85.999999999999886
 21
125.7999999999998
 31
0.0
  0
LINE
  5
89
  8
0
 10
81.499999999999886
 20
100.3
 30
0.0
 11
81.499999999999886
 21
121.2999999999999
 31
0.0
  0
LINE
  5
8A
  8
2
 10
93.250000000000014
 20
117.5
 30
0.0
 11
93.250000000000014
 21
120.0
 31
-0.000000000000001
  0
ARC
  5
8D
  8
0
 10
183.75915490171889
 20
62.277624887521057
 30
0.0
 40
64.838970842622672
 50
78.433993524072491
 51
101.56600647592821
  0
LINE
  5
8E
  8
2
 10
170.7591549017186
 20
125.0
 30
0.0
 11
170.7591549017186
 21
125.7999999999998
 31
0.0
  0
LINE
  5
8F
  8
2
 10
196.75915490171849
 20
125.0
 30
0.0
 11
196.75915490171849
 21
125.80271883625279
 31
0.0
  0
LINE
  5
90
  8
2
 10
190.50915490171849
 20
117.5
 30
0.0
 11
190.50915490171849
 21
120.0
 31
-0.000000000000001
  0
LINE
  5
91
  8
2
 10
177.00915490171849
 20
117.5
 30
0.0
 11
177.00915490171849
 21
120.0
 31
-0.000000000000001
  0
LINE
  5
92
  8
2
 10
199.70915490171879
 20
100.3
 30
0.0
 11
199.30915490171881
 21
120.55
 31
0.0
  0
LINE
  5
93
  8
2
 10
195.40915490171869
 20
100.3
 30
0.0
 11
195.80915490171881
 21
120.55
 31
0.0
  0
ARC
  5
94
  8
2
 10
197.55915490171881
 20
120.55
 30
0.0
 40
1.75
 50
359.99999999997578
 51
179.99999999990331
  0
LINE
  5
95
  8
2
 10
172.10915490171831
 20
100.3
 30
0.0
 11
171.70915490171819
 21
120.55
 31
0.0
  0
LINE
  5
96
  8
2
 10
167.8091549017183
 20
100.3
 30
0.0
 11
168.20915490171819
 21
120.55
 31
0.0
  0
ARC
  5
97
  8
2
 10
169.95915490171819
 20
120.55
 30
0.0
 40
1.75
 50
0.0000000000966889
 51
180.00000000002419
  0
ARC
  5
98
  8
0
 10
183.75915490171849
 20
196.52649190328299
 30
0.0
 40
18.5
 50
51.37516712694697
 51
308.62483287305298
  0
ARC
  5
99
  8
0
 10
183.75915490171849
 20
196.52649190328299
 30
0.0
 40
18.5
 50
51.37516712694697
 51
308.62483287305298
  0
CIRCLE
  5
9A
  8
0
 10
257.35056290171872
 20
196.52649190328299
 30
0.0
 40
11.5
  0
CIRCLE
  5
9B
  8
0
 10
257.35056290171872
 20
196.52649190328299
 30
0.0
 40
11.5
  0
LINE
  5
9C
  8
0
 10
257.35056290171872
 20
208.0264919032829
 30
0.0
 11
203.73413925715661
 21
208.0264919032829
 31
0.0
  0
ARC
  5
9D
  8
0
 10
203.73413925715661
 20
221.52649190328299
 30
0.0
 40
13.5
 50
231.37516712694699
 51
270.0
  0
LINE
  5
9E
  8
0
 10
257.35056290171872
 20
185.0264919032829
 30
0.0
 11
203.73413925715661
 21
185.0264919032829
 31
0.0
  0
ARC
  5
9F
  8
0
 10
203.73413925715661
 20
171.5264919032829
 30
0.0
 40
13.5
 50
90.0
 51
128.62483287305301
  0
LINE
  5
A0
  8
1
 10
183.75915490171849
 20
95.0
 30
0.0
 11
183.75915490171849
 21
132.1165957301437
 31
0.0
  0
LINE
  5
A1
  8
1
 10
183.75915490171849
 20
173.02649190328299
 30
0.0
 11
183.75915490171849
 21
220.02649190328299
 31
0.0
  0
LINE
  5
A2
  8
0
 10
165.2591549017184
 20
100.3
 30
0.0
 11
165.2591549017184
 21
121.2999999999999
 31
0.0
  0
LINE
  5
A3
  8
0
 10
196.75915490171849
 20
125.8
 30
0.0
 11
169.7591549017184
 21
125.7999999999998
 31
0.0
  0
LINE
  5
A4
  8
2
 10
196.75915490171849
 20
125.0
 30
0.0000000000000013
 11
170.7591549017186
 21
125.0
 31
0.0000000000000013
  0
LINE
  5
A5
  8
2
 10
193.8091549017185
 20
120.0
 30
0.0
 11
173.70915490171839
 21
120.0
 31
0.0
  0
LINE
  5
A6
  8
2
 10
173.70915490171839
 20
120.0
 30
0.0
 11
173.70915490171839
 21
125.0
 31
0.0000000000000013
  0
LINE
  5
A7
  8
0
 10
165.2591549017184
 20
100.3
 30
0.0
 11
202.25915490171849
 21
100.3
 31
0.0
  0
ARC
  5
A8
  8
0
 10
169.7591549017184
 20
121.2999999999999
 30
0.0000000000000014
 40
4.5
 50
90.0
 51
180.0
  0
LINE
  5
A9
  8
0
 10
192.7591549017184
 20
100.0
 30
0.0
 11
174.7591549017184
 21
100.0
 31
0.0
  0
LINE
  5
AA
  8
2
 10
174.7591549017184
 20
100.3
 30
0.0
 11
174.7591549017184
 21
115.9999999999999
 31
0.0
  0
LINE
  5
AB
  8
2
 10
174.7591549017184
 20
115.9999999999999
 30
0.0
 11
175.75915490171849
 21
115.9999999999999
 31
0.0
  0
LINE
  5
AC
  8
2
 10
175.75915490171849
 20
115.9999999999999
 30
0.0
 11
175.75915490171849
 21
117.5
 31
0.0
  0
LINE
  5
AD
  8
2
 10
175.75915490171849
 20
117.5
 30
0.0
 11
191.7591549017184
 21
117.5
 31
0.0
  0
LINE
  5
AE
  8
0
 10
202.2591549017184
 20
100.3
 30
0.0
 11
202.2591549017184
 21
114.9522906662736
 31
0.0
  0
LINE
  5
B0
  8
2
 10
192.7591549017184
 20
100.3
 30
0.0
 11
192.7591549017184
 21
115.9999999999999
 31
0.0
  0
LINE
  5
B2
  8
2
 10
191.7591549017184
 20
115.9999999999999
 30
0.0
 11
191.7591549017184
 21
117.5
 31
0.0
  0
LINE
  5
B3
  8
2
 10
192.7591549017184
 20
115.9999999999999
 30
0.0
 11
191.7591549017184
 21
115.9999999999999
 31
0.0
  0
ARC
  5
B6
  8
0
 10
192.41498536230989
 20
389.05671676736699
 30
0.0
 40
263.29255730483692
 50
270.94538895122508
 51
281.70702249994071
  0
ARC
  5
B7
  8
0
 10
257.35056290171838
 20
129.33099999999999
 30
0.0
 40
11.668999999999979
 50
15.646542105599149
 51
170.57842864430961
  0
ARC
  5
B8
  8
0
 10
264.16724209013012
 20
131.2402213082828
 30
0.0
 40
4.5899999885770431
 50
286.40186707276911
 51
15.64654225110084
  0
ARC
  5
B9
  8
0
 10
191.7880437495939
 20
388.64835316026949
 30
0.0
 40
271.9801948144663
 50
272.6037144166898
 51
285.7169218515179
  0
ARC
  5
BA
  8
0
 10
204.2591549017184
 20
114.9522906662736
 30
-0.0000000000000005
 40
2.0
 50
93.315345783275959
 51
180.0
  0
ARC
  5
BB
  8
3
 10
252.81741645630299
 20
121.34598524897859
 30
0.0
 40
9.5746406059096412
 50
74.810249200236598
 51
91.454409758772329
  0
ARC
  5
BC
  8
3
 10
251.40743268214581
 20
176.87969329676611
 30
0.0
 40
45.976964085406692
 50
263.04359098077288
 51
271.45440975877227
  0
ARC
  5
BD
  8
3
 10
254.23439127932789
 20
126.5650086720325
 30
0.0
 40
4.166681366097424
 50
41.593055915734382
 51
74.810249200236598
  0
LINE
  5
BE
  8
0
 10
174.7591549017184
 20
100.0
 30
0.0
 11
174.7591549017184
 21
100.3
 31
0.0
  0
LINE
  5
BF
  8
0
 10
192.7591549017184
 20
100.0
 30
0.0
 11
192.7591549017184
 21
100.3
 31
0.0
  0
LINE
  5
C0
  8
2
 10
187.7591549017184
 20
100.0
 30
0.0
 11
187.7591549017184
 21
117.5
 31
0.0
  0
LINE
  5
C2
  8
2
 10
193.8091549017185
 20
120.0
 30
0.0
 11
193.8091549017185
 21
125.0
 31
0.0000000000000013
  0
LINE
  5
C4
  8
2
 10
179.7591549017184
 20
100.0
 30
0.0
 11
179.7591549017184
 21
117.5
 31
0.0
  0
LINE
  5
C5
  8
1
 10
273.85056290171872
 20
196.52649190328299
 30
0.0
 11
160.25915490171849
 21
196.52649190328299
 31
0.0
  0
CIRCLE
  5
C6
  8
0
 10
183.75915490171849
 20
196.52649190328299
 30
0.0
 40
12.99999999999994
  0
CIRCLE
  5
C7
  8
0
 10
183.75915490171849
 20
196.52649190328299
 30
0.0
 40
1.25
  0
CIRCLE
  5
C8
  8
0
 10
188.25915490171849
 20
196.52649190328299
 30
0.0
 40
1.25
  0
CIRCLE
  5
C9
  8
0
 10
192.7591549017184
 20
196.52649190328299
 30
0.0
 40
1.25
  0
CIRCLE
  5
CA
  8
0
 10
174.7591549017184
 20
196.52649190328299
 30
0.0
 40
1.25
  0
CIRCLE
  5
CB
  8
0
 10
179.2591549017184
 20
196.52649190328299
 30
0.0
 40
1.25
  0
CIRCLE
  5
CC
  8
2
 10
183.75915490171849
 20
196.52649190328299
 30
0.0
 40
4.0
  0
ARC
  5
CD
  8
2
 10
177.28044733527301
 20
208.71116868473609
 30
0.0
 40
2.149999999999999
 50
297.9999999999996
 51
117.9999999999996
  0
ARC
  5
CE
  8
2
 10
177.28044733527301
 20
184.34181512182971
 30
0.0
 40
2.1499999999999089
 50
242.0000000000004
 51
62.000000000000433
  0
ARC
  5
CF
  8
2
 10
183.7591549017182
 20
196.52649190328299
 30
0.0
 40
15.949999999999999
 50
117.9999999999996
 51
242.0000000000004
  0
ARC
  5
D0
  8
2
 10
183.75915490171849
 20
196.52649190328299
 30
0.0
 40
11.650000000000031
 50
117.9999999999996
 51
242.0000000000004
  0
CIRCLE
  5
D1
  8
2
 10
183.75915490171849
 20
209.52649190328299
 30
0.0
 40
2.5
  0
CIRCLE
  5
D2
  8
2
 10
183.75915490171849
 20
183.52649190328299
 30
0.0
 40
2.5
  0
ARC
  5
D3
  8
2
 10
190.2378624681634
 20
208.71116868473629
 30
0.0
 40
2.149999999999999
 50
62.000000000000412
 51
242.0000000000004
  0
ARC
  5
D4
  8
2
 10
183.75915490171809
 20
196.52649190328299
 30
0.0
 40
11.650000000000031
 50
297.9999999999996
 51
62.000000000000412
  0
ARC
  5
D5
  8
2
 10
183.75915490171829
 20
196.52649190328299
 30
0.0
 40
15.949999999999999
 50
297.9999999999996
 51
62.000000000000412
  0
ARC
  5
D6
  8
2
 10
190.23786246816351
 20
184.34181512182971
 30
0.0
 40
2.1499999999999089
 50
117.9999999999996
 51
297.9999999999996
  0
LINE
  5
D7
  8
1
 10
169.95915490171819
 20
125.3
 30
0.0
 11
169.95915490171819
 21
97.300000000000026
 31
0.0
  0
LINE
  5
D8
  8
1
 10
197.55915490171861
 20
125.3
 30
0.0
 11
197.5591549017187
 21
97.300000000000026
 31
0.0
  0
TEXT
  5
2EB
  8
0
 62
     3
 10
0.0
 20
0.0
 30
0.0
 40
10.0
  1
ECL37-RE
  7
STANDARD1
  0
ARC
  5
393
  8
0
 10
100.0000000000006
 20
62.277624887521057
 30
0.0
 40
64.838970842622672
 50
78.433993524072321
 51
101.5660064759285
  0
LINE
  5
394
  8
2
 10
87.000000000000213
 20
125.0
 30
0.0
 11
87.000000000000213
 21
125.7999999999998
 31
0.0
  0
LINE
  5
395
  8
2
 10
113.0000000000001
 20
125.0
 30
0.0
 11
113.0000000000001
 21
125.80271883625279
 31
0.0
  0
LINE
  5
396
  8
2
 10
113.0000000000001
 20
125.0
 30
0.0
 11
87.000000000000213
 21
125.0
 31
0.0
  0
ENDSEC
  0
EOF
