  0
SECTION
  2
HEADER
  9
$ACADVER
  1
AC1009
  9
$INSBASE
 10
0.0
 20
0.0
 30
0.0
  9
$EXTMIN
 10
0.0
 20
-2.960436562073669
 30
-0.0000000000000019
  9
$EXTMAX
 10
226.9980871769888
 20
164.4999481599842
 30
0.0000000000000028
  9
$LIMMIN
 10
0.0
 20
0.0
  9
$LIMMAX
 10
375.0
 20
270.0
  9
$ORTHOMODE
 70
     1
  9
$REGENMODE
 70
     1
  9
$FILLMODE
 70
     1
  9
$QTEXTMODE
 70
     0
  9
$MIRRTEXT
 70
     0
  9
$DRAGMODE
 70
     2
  9
$LTSCALE
 40
10.0
  9
$OSMODE
 70
    37
  9
$ATTMODE
 70
     1
  9
$TEXTSIZE
 40
0.2
  9
$TRACEWID
 40
0.05
  9
$TEXTSTYLE
  7
STANDARD
  9
$CLAYER
  8
0
  9
$CELTYPE
  6
BYLAYER
  9
$CECOLOR
 62
   256
  9
$DIMSCALE
 40
1.0
  9
$DIMASZ
 40
3.0
  9
$DIMEXO
 40
0.0625
  9
$DIMDLI
 40
0.38
  9
$DIMRND
 40
0.0
  9
$DIMDLE
 40
0.0
  9
$DIMEXE
 40
0.18
  9
$DIMTP
 40
0.0
  9
$DIMTM
 40
0.0
  9
$DIMTXT
 40
3.0
  9
$DIMCEN
 40
0.09
  9
$DIMTSZ
 40
0.0
  9
$DIMTOL
 70
     0
  9
$DIMLIM
 70
     0
  9
$DIMTIH
 70
     1
  9
$DIMTOH
 70
     1
  9
$DIMSE1
 70
     0
  9
$DIMSE2
 70
     0
  9
$DIMTAD
 70
     0
  9
$DIMZIN
 70
     8
  9
$DIMBLK
  1

  9
$DIMASO
 70
     1
  9
$DIMSHO
 70
     1
  9
$DIMPOST
  1

  9
$DIMAPOST
  1

  9
$DIMALT
 70
     0
  9
$DIMALTD
 70
     2
  9
$DIMALTF
 40
25.399999999999999
  9
$DIMLFAC
 40
1.0
  9
$DIMTOFL
 70
     0
  9
$DIMTVP
 40
0.0
  9
$DIMTIX
 70
     0
  9
$DIMSOXD
 70
     0
  9
$DIMSAH
 70
     0
  9
$DIMBLK1
  1

  9
$DIMBLK2
  1

  9
$DIMSTYLE
  2
STANDARD
  9
$DIMCLRD
 70
     0
  9
$DIMCLRE
 70
     0
  9
$DIMCLRT
 70
     0
  9
$DIMTFAC
 40
1.0
  9
$DIMGAP
 40
0.09
  9
$LUNITS
 70
     2
  9
$LUPREC
 70
     1
  9
$SKETCHINC
 40
0.1
  9
$FILLETRAD
 40
0.5
  9
$AUNITS
 70
     0
  9
$AUPREC
 70
     1
  9
$MENU
  1
E:\r13\win\SUPPORT\ACAD
  9
$ELEVATION
 40
0.0
  9
$PELEVATION
 40
0.0
  9
$THICKNESS
 40
0.0
  9
$LIMCHECK
 70
     0
  9
$BLIPMODE
 70
     0
  9
$CHAMFERA
 40
0.0
  9
$CHAMFERB
 40
0.0
  9
$SKPOLY
 70
     0
  9
$TDCREATE
 40
2450382.6899885419
  9
$TDUPDATE
 40
2457162.641192616
  9
$TDINDWG
 40
0.2815955208
  9
$TDUSRTIMER
 40
0.2815955208
  9
$USRTIMER
 70
     1
  9
$ANGBASE
 50
0.0
  9
$ANGDIR
 70
     0
  9
$PDMODE
 70
     0
  9
$PDSIZE
 40
0.0
  9
$PLINEWID
 40
0.0
  9
$COORDS
 70
     1
  9
$SPLFRAME
 70
     0
  9
$SPLINETYPE
 70
     6
  9
$SPLINESEGS
 70
     8
  9
$ATTDIA
 70
     0
  9
$ATTREQ
 70
     1
  9
$HANDLING
 70
     1
  9
$HANDSEED
  5
26F3
  9
$SURFTAB1
 70
     6
  9
$SURFTAB2
 70
     6
  9
$SURFTYPE
 70
     6
  9
$SURFU
 70
     6
  9
$SURFV
 70
     6
  9
$UCSNAME
  2

  9
$UCSORG
 10
0.0
 20
0.0
 30
0.0
  9
$UCSXDIR
 10
1.0
 20
0.0
 30
0.0
  9
$UCSYDIR
 10
0.0
 20
1.0
 30
0.0
  9
$PUCSNAME
  2

  9
$PUCSORG
 10
0.0
 20
0.0
 30
0.0
  9
$PUCSXDIR
 10
1.0
 20
0.0
 30
0.0
  9
$PUCSYDIR
 10
0.0
 20
1.0
 30
0.0
  9
$USERI1
 70
     3
  9
$USERI2
 70
     1
  9
$USERI3
 70
     1
  9
$USERI4
 70
     0
  9
$USERI5
 70
     0
  9
$USERR1
 40
1.0
  9
$USERR2
 40
3.0
  9
$USERR3
 40
3.0
  9
$USERR4
 40
3.0
  9
$USERR5
 40
10.0
  9
$WORLDVIEW
 70
     1
  9
$SHADEDGE
 70
     3
  9
$SHADEDIF
 70
    70
  9
$TILEMODE
 70
     1
  9
$MAXACTVP
 70
    16
  9
$PLIMCHECK
 70
     0
  9
$PEXTMIN
 10
1.0000000000000000E+020
 20
1.0000000000000000E+020
 30
1.0000000000000000E+020
  9
$PEXTMAX
 10
-1.0000000000000000E+020
 20
-1.0000000000000000E+020
 30
-1.0000000000000000E+020
  9
$PLIMMIN
 10
0.0
 20
0.0
  9
$PLIMMAX
 10
12.0
 20
9.0
  9
$UNITMODE
 70
     0
  9
$VISRETAIN
 70
     0
  9
$PLINEGEN
 70
     0
  9
$PSLTSCALE
 70
     0
  0
ENDSEC
  0
SECTION
  2
TABLES
  0
TABLE
  2
VPORT
 70
     1
  0
VPORT
  2
*ACTIVE
 70
     0
 10
0.0
 20
0.0
 11
1.0
 21
1.0
 12
245.19230769230771
 22
135.0
 13
0.0
 23
0.0
 14
5.0
 24
5.0
 15
0.0
 25
0.0
 16
0.0
 26
0.0
 36
1.0
 17
0.0
 27
0.0
 37
0.0
 40
270.0
 41
1.816239316239316
 42
50.0
 43
0.0
 44
0.0
 50
0.0
 51
0.0
 71
     0
 72
  2000
 73
     1
 74
     0
 75
     0
 76
     0
 77
     0
 78
     0
  0
ENDTAB
  0
TABLE
  2
LTYPE
 70
     4
  0
LTYPE
  2
CONTINUOUS
 70
     0
  3
Solid Line
 72
    65
 73
     0
 40
0.0
  0
LTYPE
  2
CENTER
 70
     0
  3
____ _ ____ _ ____ _ ____ _ ____ _ ____ _ ____
 72
    65
 73
     4
 40
2.0
 49
1.25
 49
-0.25
 49
0.25
 49
-0.25
  0
LTYPE
  2
HIDDEN
 70
     0
  3
_ _ _ _ _ _ _ _ _ _ _ _ _ _ _ _ _ _ _ _ _ _ _
 72
    65
 73
     2
 40
0.375
 49
0.25
 49
-0.125
  0
LTYPE
  2
PHANTOM2
 70
     0
  3
___ _ _ ___ _ _ ___ _ _ ___ _ _
 72
    65
 73
     6
 40
1.25
 49
0.625
 49
-0.125
 49
0.125
 49
-0.125
 49
0.125
 49
-0.125
  0
ENDTAB
  0
TABLE
  2
LAYER
 70
     5
  0
LAYER
  2
0
 70
     0
 62
     7
  6
CONTINUOUS
  0
LAYER
  2
1
 70
     0
 62
     1
  6
CENTER
  0
LAYER
  2
2
 70
     0
 62
     2
  6
HIDDEN
  0
LAYER
  2
3
 70
     0
 62
     3
  6
CONTINUOUS
  0
LAYER
  2
DEFPOINTS
 70
     0
 62
     7
  6
CONTINUOUS
  0
ENDTAB
  0
TABLE
  2
STYLE
 70
     2
  0
STYLE
  2
STANDARD
 70
     0
 40
0.0
 41
1.0
 50
0.0
 71
     0
 42
0.2
  3
SIMPLEX
  4
BIGFONT
  0
STYLE
  2
STANDARD1
 70
     0
 40
0.0
 41
1.0
 50
0.0
 71
     0
 42
3.0
  3
txt
  4

  0
ENDTAB
  0
TABLE
  2
VIEW
 70
     1
  0
VIEW
  2
OLE1
 70
     0
 40
38.600932419052697
 10
1305.54318692776
 20
185.5439585691561
 41
49.054352626945231
 11
0.0
 21
0.0
 31
1.0
 12
0.0
 22
0.0
 32
0.0
 42
50.0
 43
0.0
 44
0.0
 50
0.0
 71
     0
  0
ENDTAB
  0
TABLE
  2
UCS
 70
     0
  0
ENDTAB
  0
TABLE
  2
APPID
 70
     8
  0
APPID
  2
ACAD
 70
     0
  0
APPID
  2
ASM_BASE
 70
     0
  0
APPID
  2
ASM_EXPLO_VER_2_00
 70
     0
  0
APPID
  2
ACAD_MLEADERVER
 70
     0
  0
APPID
  2
ACAD_EXEMPT_FROM_CAD_STANDARDS
 70
     0
  0
APPID
  2
ACAD_NAV_VCDISPLAY
 70
     0
  0
APPID
  2
ACAD_DSTYLE_DIMJAG
 70
     0
  0
APPID
  2
ACAD_DSTYLE_DIMTALN
 70
     0
  0
ENDTAB
  0
TABLE
  2
DIMSTYLE
 70
     1
  0
DIMSTYLE
  2
STANDARD
 70
     0
  3

  4

  5

  6

  7

 40
1.0
 41
0.18
 42
0.0625
 43
0.38
 44
0.18
 45
0.0
 46
0.0
 47
0.0
 48
0.0
140
0.18
141
0.09
142
0.0
143
25.399999999999999
144
1.0
145
0.0
146
1.0
147
0.09
 71
     0
 72
     0
 73
     1
 74
     1
 75
     0
 76
     0
 77
     0
 78
     0
170
     0
171
     2
172
     0
173
     0
174
     0
175
     0
176
     0
177
     0
178
     0
  0
ENDTAB
  0
ENDSEC
  0
SECTION
  2
BLOCKS
  0
BLOCK
  8
0
  2
$MODEL_SPACE
 70
     0
 10
0.0
 20
0.0
 30
0.0
  3
$MODEL_SPACE
  1

  0
ENDBLK
  5
19D
  8
0
  0
BLOCK
 67
     1
  8
0
  2
$PAPER_SPACE
 70
     0
 10
0.0
 20
0.0
 30
0.0
  3
$PAPER_SPACE
  1

  0
ENDBLK
  5
19B
 67
     1
  8
0
  0
ENDSEC
  0
SECTION
  2
ENTITIES
  0
LINE
  5
FAB
  8
1
 10
68.500000000000114
 20
44.999999999999993
 30
0.0
 11
68.500000000000114
 21
96.0
 31
0.0000000000000014
  0
LINE
  5
FAC
  8
3
 10
77.000000000000114
 20
76.548335648892433
 30
0.0000000000000014
 11
77.000000000000114
 21
82.887279192900252
 31
0.0
  0
LINE
  5
FAD
  8
3
 10
60.000000000000107
 20
76.548335648892433
 30
0.0000000000000014
 11
60.000000000000107
 21
82.887279192900252
 31
0.0
  0
ARC
  5
FAE
  8
3
 10
78.148927087866696
 20
80.879504668833562
 30
0.0
 40
1.900422523265507
 50
13.085753112100321
 51
62.48028104318675
  0
ARC
  5
FAF
  8
3
 10
76.518310350817373
 20
73.324762901975362
 30
0.0
 40
9.5746406059096412
 50
74.810249200238275
 51
91.45440975877068
  0
ARC
  5
FB0
  8
3
 10
69.313152494179121
 20
96.594516359589434
 30
-0.0000000000000019
 40
15.36593610878854
 50
266.96653828097232
 51
296.94205428226832
  0
ARC
  5
FB1
  8
3
 10
67.686847505820992
 20
96.594516359589434
 30
-0.0000000000000019
 40
15.36593610878854
 50
243.05794571773171
 51
273.0334617190278
  0
ARC
  5
FB2
  8
3
 10
60.481689649182613
 20
73.324762901975362
 30
0.0
 40
9.5746406059096412
 50
88.545590241229306
 51
105.1897507997617
  0
ARC
  5
FB3
  8
3
 10
58.851072912133411
 20
80.879504668833562
 30
0.0
 40
1.900422523265507
 50
117.51971895681319
 51
166.91424688789959
  0
ARC
  5
FB4
  8
0
 10
68.500000000000114
 20
79.331000000000017
 30
0.0
 40
11.668999999999979
 50
9.7631443520039092
 51
170.23685564800411
  0
LINE
  5
FB5
  8
0
 10
57.000000000000107
 20
76.07251679507047
 30
0.0000000000000014
 11
57.000000000000107
 21
81.309777652996786
 31
0.0
  0
LINE
  5
FB6
  8
0
 10
80.000000000000114
 20
76.072516795070499
 30
0.0000000000000014
 11
80.000000000000114
 21
81.309777652996814
 31
0.0
  0
LINE
  5
FB7
  8
2
 10
84.000000000000114
 20
50.300000000000011
 30
0.0
 11
84.000000000000114
 21
62.800000000000011
 31
0.0
  0
LINE
  5
FB8
  8
1
 10
81.500000000000114
 20
75.300000000000011
 30
0.0
 11
81.500000000000114
 21
47.299999999999997
 31
0.0
  0
LINE
  5
FB9
  8
2
 10
79.000000000000114
 20
50.300000000000011
 30
0.0
 11
79.000000000000114
 21
62.800000000000011
 31
0.0
  0
LINE
  5
FBA
  8
2
 10
84.000000000000114
 20
62.800000000000011
 30
0.0
 11
79.000000000000114
 21
62.800000000000011
 31
0.0
  0
LINE
  5
FBB
  8
2
 10
83.000000000000114
 20
62.800000000000011
 30
0.0
 11
83.000000000000114
 21
72.300000000000011
 31
0.0
  0
LINE
  5
FBC
  8
2
 10
80.000000000000114
 20
62.800000000000011
 30
0.0
 11
80.000000000000114
 21
72.300000000000011
 31
0.0
  0
LINE
  5
FBD
  8
2
 10
83.000000000000114
 20
72.300000000000011
 30
0.0
 11
80.000000000000114
 21
72.300000000000011
 31
0.0
  0
LINE
  5
FBE
  8
1
 10
55.500000000000107
 20
75.300000000000011
 30
0.0
 11
55.500000000000107
 21
47.299999999999997
 31
0.0
  0
LINE
  5
FBF
  8
2
 10
54.000000000000107
 20
72.300000000000011
 30
0.0
 11
57.000000000000107
 21
72.300000000000011
 31
0.0
  0
LINE
  5
FC0
  8
2
 10
57.000000000000107
 20
62.800000000000011
 30
0.0
 11
57.000000000000107
 21
72.300000000000011
 31
0.0
  0
LINE
  5
FC1
  8
2
 10
54.000000000000107
 20
62.800000000000011
 30
0.0
 11
54.000000000000107
 21
72.300000000000011
 31
0.0
  0
LINE
  5
FC2
  8
2
 10
53.000000000000107
 20
62.800000000000011
 30
0.0
 11
58.000000000000107
 21
62.800000000000011
 31
0.0
  0
LINE
  5
FC3
  8
2
 10
53.000000000000107
 20
50.300000000000011
 30
0.0
 11
53.000000000000107
 21
62.800000000000011
 31
0.0
  0
LINE
  5
FC4
  8
2
 10
58.000000000000107
 20
50.300000000000011
 30
0.0
 11
58.000000000000107
 21
62.800000000000011
 31
0.0
  0
LINE
  5
FC5
  8
2
 10
75.250000000000114
 20
67.5
 30
0.0
 11
75.250000000000114
 21
69.999999999999972
 31
-0.000000000000001
  0
LINE
  5
FC6
  8
0
 10
87.000000000000341
 20
50.300000000000011
 30
0.0
 11
87.000000000000341
 21
71.299999999999955
 31
0.0
  0
ARC
  5
FC8
  8
0
 10
82.500000000000327
 20
71.299999999999955
 30
0.0000000000000014
 40
4.5
 50
0.0
 51
90.0
  0
LINE
  5
FC9
  8
2
 10
77.500000000000341
 20
50.300000000000011
 30
0.0
 11
77.500000000000341
 21
65.999999999999943
 31
0.0
  0
LINE
  5
FCA
  8
2
 10
77.500000000000341
 20
65.999999999999943
 30
0.0
 11
76.500000000000114
 21
65.999999999999943
 31
0.0
  0
LINE
  5
FCB
  8
2
 10
76.500000000000114
 20
65.999999999999943
 30
0.0
 11
76.500000000000114
 21
67.5
 31
0.0
  0
LINE
  5
FCC
  8
0
 10
77.500000000000341
 20
50.0
 30
0.0
 11
77.500000000000341
 21
50.300000000000011
 31
0.0
  0
LINE
  5
FCD
  8
2
 10
72.500000000000341
 20
50.0
 30
0.0
 11
72.500000000000341
 21
67.5
 31
0.0
  0
LINE
  5
FCE
  8
2
 10
64.5
 20
50.0
 30
0.0
 11
64.5
 21
67.5
 31
0.0
  0
LINE
  5
FCF
  8
0
 10
59.5
 20
50.0
 30
0.0
 11
59.5
 21
50.300000000000011
 31
0.0
  0
LINE
  5
FD0
  8
2
 10
60.500000000000107
 20
67.5
 30
0.0
 11
76.500000000000114
 21
67.5
 31
0.0
  0
LINE
  5
FD1
  8
2
 10
60.500000000000107
 20
65.999999999999943
 30
0.0
 11
60.500000000000107
 21
67.5
 31
0.0
  0
LINE
  5
FD2
  8
2
 10
59.5
 20
65.999999999999943
 30
0.0
 11
60.500000000000107
 21
65.999999999999943
 31
0.0
  0
LINE
  5
FD3
  8
2
 10
59.5
 20
50.300000000000011
 30
0.0
 11
59.5
 21
65.999999999999943
 31
0.0
  0
LINE
  5
FD4
  8
0
 10
77.500000000000341
 20
50.0
 30
0.0
 11
59.5
 21
50.0
 31
0.0
  0
ARC
  5
FD5
  8
0
 10
54.5
 20
71.299999999999955
 30
0.0000000000000014
 40
4.5
 50
90.0
 51
180.0
  0
LINE
  5
FD6
  8
0
 10
50.0
 20
50.300000000000011
 30
0.0
 11
87.000000000000341
 21
50.300000000000011
 31
0.0
  0
LINE
  5
FD9
  8
0
 10
82.500000000000327
 20
75.799999999999841
 30
0.0000000000000028
 11
54.5
 21
75.799999999999841
 31
0.0
  0
LINE
  5
FDA
  8
0
 10
50.0
 20
50.300000000000011
 30
0.0
 11
50.0
 21
71.299999999999955
 31
0.0
  0
LINE
  5
FDB
  8
2
 10
61.750000000000107
 20
67.5
 30
0.0
 11
61.750000000000107
 21
69.999999999999972
 31
-0.000000000000001
  0
ARC
  5
FDC
  8
0
 10
137.0000000000006
 20
12.27762488752105
 30
0.0000000000000011
 40
64.838970842622672
 50
78.433993524071482
 51
101.5660064759285
  0
LINE
  5
FDD
  8
2
 10
124.0000000000003
 20
75.0
 30
0.0000000000000011
 11
124.0000000000003
 21
75.799999999999841
 31
0.0000000000000011
  0
LINE
  5
FDE
  8
2
 10
150.00000000000011
 20
75.0
 30
0.0000000000000011
 11
150.00000000000011
 21
75.802718836252865
 31
0.0000000000000011
  0
LINE
  5
FDF
  8
2
 10
143.75000000000031
 20
67.5
 30
0.0000000000000011
 11
143.75000000000031
 21
70.0
 31
0.0000000000000001
  0
LINE
  5
FE0
  8
2
 10
130.2500000000002
 20
67.5
 30
0.0000000000000011
 11
130.2500000000002
 21
70.0
 31
0.0000000000000001
  0
LINE
  5
FE1
  8
2
 10
152.75839506172889
 20
59.999999999999339
 30
0.0000000000000011
 11
152.55000000000041
 21
70.550000000000011
 31
0.0000000000000011
  0
LINE
  5
FE2
  8
2
 10
148.84160493827201
 20
59.99999999999951
 30
0.0000000000000011
 11
149.05000000000041
 21
70.550000000000011
 31
0.0000000000000011
  0
ARC
  5
FE3
  8
2
 10
150.80000000000041
 20
70.550000000000011
 30
0.0000000000000011
 40
1.75
 50
359.99999999997561
 51
179.99999999990311
  0
LINE
  5
FE4
  8
2
 10
125.1583950617283
 20
60.0
 30
0.0000000000000011
 11
124.9499999999999
 21
70.550000000000011
 31
0.0000000000000011
  0
LINE
  5
FE5
  8
2
 10
121.24160493827149
 20
60.000000000000021
 30
0.0000000000000011
 11
121.4499999999999
 21
70.550000000000011
 31
0.0000000000000011
  0
ARC
  5
FE6
  8
2
 10
123.1999999999999
 20
70.550000000000011
 30
0.0000000000000011
 40
1.75
 50
0.0000000000964853
 51
180.00000000002399
  0
ARC
  5
FE7
  8
0
 10
137.0000000000002
 20
140.9999481599842
 30
0.0
 40
18.5
 50
51.37516712694697
 51
308.62483287305292
  0
ARC
  5
FE8
  8
0
 10
137.0000000000002
 20
140.9999481599842
 30
0.0
 40
18.5
 50
51.37516712694697
 51
308.62483287305292
  0
CIRCLE
  5
FE9
  8
0
 10
210.4980871769888
 20
140.9999481599842
 30
0.0
 40
11.5
  0
CIRCLE
  5
FEA
  8
0
 10
210.4980871769888
 20
140.9999481599842
 30
0.0
 40
11.5
  0
LINE
  5
FEB
  8
0
 10
210.4980871769888
 20
152.49994815998409
 30
0.0
 11
156.97498435543829
 21
152.49994815998409
 31
0.0
  0
ARC
  5
FEC
  8
0
 10
156.97498435543829
 20
165.9999481599842
 30
0.0
 40
13.5
 50
231.37516712694699
 51
270.0
  0
LINE
  5
FED
  8
0
 10
210.4980871769888
 20
129.4999481599842
 30
0.0
 11
156.97498435543829
 21
129.4999481599842
 31
0.0
  0
ARC
  5
FEE
  8
0
 10
156.97498435543829
 20
115.9999481599841
 30
0.0
 40
13.5
 50
90.0
 51
128.62483287305301
  0
LINE
  5
FEF
  8
1
 10
137.0000000000002
 20
44.999999999999993
 30
0.0000000000000011
 11
137.0000000000002
 21
82.116595730143715
 31
0.0000000000000011
  0
LINE
  5
FF0
  8
1
 10
137.0000000000002
 20
117.4999481599842
 30
0.0
 11
137.0000000000002
 21
164.4999481599842
 31
0.0
  0
LINE
  5
FF1
  8
0
 10
118.5000000000001
 20
50.300000000000011
 30
0.0000000000000011
 11
118.5000000000001
 21
71.299999999999955
 31
0.0000000000000011
  0
LINE
  5
FF2
  8
0
 10
150.00000000000011
 20
75.800000000000011
 30
0.0000000000000011
 11
123.0000000000001
 21
75.799999999999841
 31
0.0000000000000011
  0
LINE
  5
FF3
  8
2
 10
150.00000000000011
 20
75.0
 30
0.0000000000000024
 11
124.0000000000003
 21
75.0
 31
0.0000000000000024
  0
LINE
  5
FF4
  8
2
 10
147.0000000000002
 20
69.999999999999957
 30
0.0000000000000011
 11
127.0000000000002
 21
70.0
 31
0.0000000000000011
  0
LINE
  5
FF5
  8
2
 10
127.0000000000002
 20
70.0
 30
0.0000000000000011
 11
127.0000000000002
 21
75.0
 31
0.0000000000000024
  0
LINE
  5
FF6
  8
0
 10
118.5000000000001
 20
50.300000000000011
 30
0.0000000000000011
 11
155.50000000000011
 21
50.300000000000011
 31
0.0000000000000011
  0
ARC
  5
FF7
  8
0
 10
123.0000000000001
 20
71.299999999999955
 30
0.0000000000000025
 40
4.5
 50
90.0
 51
180.0
  0
LINE
  5
FF8
  8
0
 10
146.0
 20
50.0
 30
0.0000000000000011
 11
128.00000000000011
 21
50.0
 31
0.0000000000000011
  0
LINE
  5
FF9
  8
2
 10
128.00000000000011
 20
50.300000000000011
 30
0.0000000000000011
 11
128.00000000000011
 21
65.999999999999943
 31
0.0000000000000011
  0
LINE
  5
FFA
  8
2
 10
128.00000000000011
 20
65.999999999999943
 30
0.0000000000000011
 11
129.0000000000002
 21
65.999999999999943
 31
0.0000000000000011
  0
LINE
  5
FFB
  8
2
 10
129.0000000000002
 20
65.999999999999943
 30
0.0000000000000011
 11
129.0000000000002
 21
67.5
 31
0.0000000000000011
  0
LINE
  5
FFC
  8
2
 10
129.0000000000002
 20
67.5
 30
0.0000000000000011
 11
145.0
 21
67.5
 31
0.0000000000000011
  0
LINE
  5
FFD
  8
0
 10
155.50000000000011
 20
50.300000000000011
 30
0.0000000000000011
 11
155.50000000000011
 21
64.952290666273583
 31
0.0000000000000011
  0
LINE
  5
FFE
  8
2
 10
146.0
 20
50.300000000000011
 30
0.0000000000000011
 11
146.0
 21
65.999999999999943
 31
0.0000000000000011
  0
LINE
  5
FFF
  8
2
 10
145.0
 20
65.999999999999943
 30
0.0000000000000011
 11
145.0
 21
67.5
 31
0.0000000000000011
  0
LINE
  5
1000
  8
2
 10
146.0
 20
65.999999999999943
 30
0.0000000000000011
 11
145.0
 21
65.999999999999943
 31
0.0000000000000011
  0
ARC
  5
1001
  8
0
 10
145.65583046059149
 20
339.05671676736699
 30
0.0000000000000011
 40
263.29255730483692
 50
270.94538895122508
 51
281.70702249994071
  0
ARC
  5
1002
  8
0
 10
210.59140800000009
 20
79.331000000000017
 30
0.0000000000000011
 40
11.668999999999979
 50
15.646542105600011
 51
170.5784286443095
  0
ARC
  5
1003
  8
0
 10
217.40808718841171
 20
81.240221308282855
 30
0.0000000000000011
 40
4.5899999885770431
 50
286.4018670727674
 51
15.64654225110152
  0
ARC
  5
1004
  8
0
 10
145.02888884787561
 20
338.64835316026949
 30
0.0000000000000011
 40
271.9801948144663
 50
272.60371441668809
 51
285.7169218515179
  0
ARC
  5
1005
  8
0
 10
157.50000000000011
 20
64.952290666273583
 30
0.0000000000000006
 40
2.0
 50
93.315345783277564
 51
180.0
  0
ARC
  5
1006
  8
3
 10
206.05826155458459
 20
71.345985248978593
 30
0.0000000000000011
 40
9.5746406059096412
 50
74.810249200238275
 51
91.45440975877068
  0
ARC
  5
1007
  8
3
 10
204.64827778042749
 20
126.87969329676611
 30
0.0000000000000011
 40
45.976964085406692
 50
263.04359098077288
 51
271.45440975877068
  0
ARC
  5
1008
  8
3
 10
207.4752363776096
 20
76.565008672032548
 30
0.0000000000000011
 40
4.166681366097424
 50
41.593055915734617
 51
74.810249200238275
  0
LINE
  5
1009
  8
0
 10
128.00000000000011
 20
50.0
 30
0.0000000000000011
 11
128.00000000000011
 21
50.300000000000011
 31
0.0000000000000011
  0
LINE
  5
100A
  8
0
 10
146.0
 20
50.0
 30
0.0000000000000011
 11
146.0
 21
50.300000000000011
 31
0.0000000000000011
  0
LINE
  5
100B
  8
2
 10
141.0
 20
50.0
 30
0.0000000000000011
 11
141.0
 21
67.5
 31
0.0000000000000011
  0
LINE
  5
100C
  8
2
 10
147.0000000000002
 20
69.999999999999972
 30
0.0000000000000011
 11
147.0000000000002
 21
74.999999999999972
 31
0.0000000000000024
  0
LINE
  5
100D
  8
2
 10
133.00000000000011
 20
50.0
 30
0.0000000000000011
 11
133.00000000000011
 21
67.5
 31
0.0000000000000011
  0
LINE
  5
100E
  8
1
 10
226.9980871769888
 20
140.9999481599842
 30
0.0
 11
113.5000000000003
 21
140.9999481599842
 31
0.0
  0
CIRCLE
  5
100F
  8
0
 10
137.0000000000002
 20
140.9999481599842
 30
0.0
 40
12.99999999999994
  0
CIRCLE
  5
1015
  8
2
 10
137.0000000000002
 20
140.9999481599842
 30
0.0
 40
4.0
  0
CIRCLE
  5
101A
  8
2
 10
137.0000000000002
 20
153.9999481599842
 30
0.0
 40
2.5
  0
CIRCLE
  5
101B
  8
2
 10
137.0000000000002
 20
127.9999481599842
 30
0.0
 40
2.5
  0
LINE
  5
1020
  8
1
 10
123.1999999999999
 20
75.300000000000011
 30
0.0000000000000011
 11
123.1999999999999
 21
47.299999999999997
 31
0.0000000000000011
  0
LINE
  5
1021
  8
1
 10
150.8000000000003
 20
75.300000000000011
 30
0.0000000000000011
 11
150.80000000000041
 21
47.299999999999997
 31
0.0000000000000011
  0
TEXT
  5
1022
  8
0
 62
     3
 10
0.0
 20
0.0
 30
0.0
 40
10.0
  1
ECL37-GR-I
  7
STANDARD1
  0
ARC
  5
1023
  8
0
 10
68.500000000000682
 20
12.27762488752105
 30
0.0
 40
64.838970842622672
 50
78.433993524071482
 51
101.5660064759285
  0
LINE
  5
1024
  8
2
 10
55.500000000000341
 20
75.0
 30
0.0
 11
55.500000000000341
 21
75.799999999999841
 31
0.0
  0
LINE
  5
1025
  8
2
 10
81.500000000000227
 20
75.0
 30
0.0
 11
81.500000000000227
 21
75.802718836252865
 31
0.0
  0
LINE
  5
1026
  8
2
 10
81.500000000000227
 20
75.0
 30
0.0
 11
55.500000000000341
 21
75.0
 31
0.0
  0
ARC
  5
120F
  8
2
 10
130.6278691373565
 20
153.24069765784361
 30
0.0
 40
2.149999999999999
 50
297.5000000000008
 51
117.5000000000009
  0
ARC
  5
1210
  8
2
 10
130.6278691373565
 20
128.75919866212459
 30
0.0
 40
2.149999999999999
 50
242.49999999999929
 51
62.49999999999924
  0
ARC
  5
1213
  8
2
 10
137.0000000000002
 20
140.9999481599842
 30
0.0
 40
11.650000000000031
 50
117.5000000000008
 51
242.49999999999929
  0
ARC
  5
1214
  8
2
 10
137.0000000000002
 20
140.9999481599842
 30
0.0
 40
15.94999999999999
 50
117.5000000000008
 51
242.49999999999929
  0
ARC
  5
125A
  8
2
 10
143.37213086264461
 20
153.2406976578433
 30
0.0
 40
2.149999999999999
 50
62.499999999999091
 51
242.4999999999992
  0
ARC
  5
125B
  8
2
 10
143.3721308626435
 20
128.75919866212431
 30
0.0
 40
2.149999999999999
 50
117.5000000000006
 51
297.50000000000063
  0
ARC
  5
125C
  8
2
 10
137.00000000000031
 20
140.9999481599842
 30
0.0
 40
11.650000000000031
 50
297.50000000000063
 51
62.49999999999914
  0
ARC
  5
125D
  8
2
 10
137.00000000000031
 20
140.9999481599842
 30
0.0
 40
15.94999999999999
 50
297.50000000000063
 51
62.49999999999914
  0
LINE
  5
12E9
  8
2
 10
121.0499999999999
 20
50.300000000000011
 30
0.0000000000000011
 11
121.0499999999999
 21
60.0
 31
0.0000000000000011
  0
LINE
  5
12EA
  8
2
 10
125.34999999999999
 20
50.300000000000011
 30
0.0000000000000011
 11
125.34999999999989
 21
60.0
 31
0.0000000000000011
  0
LINE
  5
12EB
  8
2
 10
121.0499999999999
 20
60.0
 30
0.0000000000000011
 11
121.24160493827171
 21
60.000000000000028
 31
0.0000000000000011
  0
LINE
  5
12EC
  8
2
 10
152.9500000000003
 20
50.299999999999329
 30
0.0000000000000011
 11
152.95000000000081
 21
59.999999999999339
 31
0.0000000000000011
  0
LINE
  5
12ED
  8
2
 10
148.6500000000002
 20
50.299999999999507
 30
0.0000000000000011
 11
148.65000000000069
 21
59.999999999999503
 31
0.0000000000000011
  0
LINE
  5
12EE
  8
2
 10
152.95000000000081
 20
59.999999999999339
 30
0.0000000000000011
 11
152.758395061729
 21
59.999999999999361
 31
0.0000000000000011
  0
LINE
  5
1332
  8
2
 10
125.1583950617283
 20
60.0
 30
0.0000000000000011
 11
125.34999999999999
 21
60.0
 31
0.0000000000000011
  0
LINE
  5
1333
  8
2
 10
148.84160493827201
 20
59.999999999999503
 30
0.0000000000000011
 11
148.6500000000006
 21
59.999999999999503
 31
0.0000000000000011
  0
LINE
  5
133B
  8
0
 10
139.7958169699711
 20
144.7063572859316
 30
0.0
 11
131.7958169699711
 21
141.45635728593169
 31
0.0
  0
LINE
  5
133C
  8
0
 10
131.7958169699711
 20
140.54353903403671
 30
0.0
 11
139.7958169699711
 21
137.2935390340368
 31
0.0
  0
LINE
  5
133D
  8
0
 10
140.5000000000002
 20
144.2499481599842
 30
0.0
 11
140.5000000000002
 21
137.7499481599842
 31
0.0
  0
ARC
  5
133E
  8
0
 10
140.0000000000002
 20
144.2499481599842
 30
0.0
 40
0.5
 50
0.0
 51
114.10223450116121
  0
ARC
  5
133F
  8
0
 10
140.0000000000002
 20
137.7499481599842
 30
0.0
 40
0.5
 50
245.89776549883871
 51
0.0
  0
ARC
  5
1340
  8
0
 10
132.0000000000002
 20
140.9999481599842
 30
0.0
 40
0.5
 50
114.10223450116121
 51
245.89776549883871
  0
LINE
  5
25F7
  8
2
 10
78.500000000000256
 20
69.999999999999957
 30
0.0
 11
58.500000000000263
 21
70.0
 31
0.0
  0
LINE
  5
25F8
  8
2
 10
58.500000000000263
 20
70.0
 30
0.0
 11
58.500000000000263
 21
75.0
 31
0.0000000000000013
  0
LINE
  5
25F9
  8
2
 10
78.500000000000256
 20
69.999999999999972
 30
0.0
 11
78.500000000000256
 21
74.999999999999972
 31
0.0000000000000013
  0
ENDSEC
  0
EOF
