  0
SECTION
  2
HEADER
  9
$ACADVER
  1
AC1009
  9
$INSBASE
 10
0.0
 20
0.0
 30
0.0
  9
$EXTMIN
 10
0.0
 20
-2.960436562073669
 30
0.0
  9
$EXTMAX
 10
96.9999999999999716
 20
194.5473790923248032
 30
0.0
  9
$LIMMIN
 10
0.0
 20
0.0
  9
$LIMMAX
 10
187.5
 20
135.0
  9
$ORTHOMODE
 70
     1
  9
$REGENMODE
 70
     1
  9
$FILLMODE
 70
     1
  9
$QTEXTMODE
 70
     0
  9
$MIRRTEXT
 70
     0
  9
$DRAGMODE
 70
     2
  9
$LTSCALE
 40
5.0
  9
$OSMODE
 70
    37
  9
$ATTMODE
 70
     1
  9
$TEXTSIZE
 40
0.2
  9
$TRACEWID
 40
0.05
  9
$TEXTSTYLE
  7
STANDARD
  9
$CLAYER
  8
0
  9
$CELTYPE
  6
BYLAYER
  9
$CECOLOR
 62
   256
  9
$DIMSCALE
 40
0.5
  9
$DIMASZ
 40
3.0
  9
$DIMEXO
 40
2.0
  9
$DIMDLI
 40
0.38
  9
$DIMRND
 40
0.0
  9
$DIMDLE
 40
0.0
  9
$DIMEXE
 40
2.0
  9
$DIMTP
 40
0.0
  9
$DIMTM
 40
0.0
  9
$DIMTXT
 40
3.0
  9
$DIMCEN
 40
0.0
  9
$DIMTSZ
 40
0.0
  9
$DIMTOL
 70
     0
  9
$DIMLIM
 70
     0
  9
$DIMTIH
 70
     0
  9
$DIMTOH
 70
     0
  9
$DIMSE1
 70
     0
  9
$DIMSE2
 70
     0
  9
$DIMTAD
 70
     1
  9
$DIMZIN
 70
     0
  9
$DIMBLK
  1

  9
$DIMASO
 70
     0
  9
$DIMSHO
 70
     0
  9
$DIMPOST
  1

  9
$DIMAPOST
  1

  9
$DIMALT
 70
     0
  9
$DIMALTD
 70
     2
  9
$DIMALTF
 40
25.3999999999999986
  9
$DIMLFAC
 40
1.0
  9
$DIMTOFL
 70
     1
  9
$DIMTVP
 40
1.6000000000000001
  9
$DIMTIX
 70
     1
  9
$DIMSOXD
 70
     0
  9
$DIMSAH
 70
     0
  9
$DIMBLK1
  1

  9
$DIMBLK2
  1

  9
$DIMSTYLE
  2
STANDARD
  9
$DIMCLRD
 70
     0
  9
$DIMCLRE
 70
     0
  9
$DIMCLRT
 70
     0
  9
$DIMTFAC
 40
1.0
  9
$DIMGAP
 40
0.09
  9
$LUNITS
 70
     2
  9
$LUPREC
 70
     4
  9
$SKETCHINC
 40
0.1
  9
$FILLETRAD
 40
3.0
  9
$AUNITS
 70
     0
  9
$AUPREC
 70
     4
  9
$MENU
  1
E:\r13\win\SUPPORT\ACAD
  9
$ELEVATION
 40
0.0
  9
$PELEVATION
 40
0.0
  9
$THICKNESS
 40
0.0
  9
$LIMCHECK
 70
     0
  9
$BLIPMODE
 70
     0
  9
$CHAMFERA
 40
0.0
  9
$CHAMFERB
 40
0.0
  9
$SKPOLY
 70
     0
  9
$TDCREATE
 40
2451584.6354745370335877
  9
$TDUPDATE
 40
2460095.5804398148320615
  9
$TDINDWG
 40
0.1420694329
  9
$TDUSRTIMER
 40
2456689.1715484717860818
  9
$USRTIMER
 70
     1
  9
$ANGBASE
 50
0.0
  9
$ANGDIR
 70
     0
  9
$PDMODE
 70
     0
  9
$PDSIZE
 40
0.0
  9
$PLINEWID
 40
0.0
  9
$COORDS
 70
     1
  9
$SPLFRAME
 70
     0
  9
$SPLINETYPE
 70
     6
  9
$SPLINESEGS
 70
     8
  9
$ATTDIA
 70
     1
  9
$ATTREQ
 70
     1
  9
$HANDLING
 70
     1
  9
$HANDSEED
  5
355B
  9
$SURFTAB1
 70
     6
  9
$SURFTAB2
 70
     6
  9
$SURFTYPE
 70
     6
  9
$SURFU
 70
     6
  9
$SURFV
 70
     6
  9
$UCSNAME
  2

  9
$UCSORG
 10
0.0
 20
0.0
 30
0.0
  9
$UCSXDIR
 10
1.0
 20
0.0
 30
0.0
  9
$UCSYDIR
 10
0.0
 20
1.0
 30
0.0
  9
$PUCSNAME
  2

  9
$PUCSORG
 10
0.0
 20
0.0
 30
0.0
  9
$PUCSXDIR
 10
1.0
 20
0.0
 30
0.0
  9
$PUCSYDIR
 10
0.0
 20
1.0
 30
0.0
  9
$USERI1
 70
     0
  9
$USERI2
 70
     1
  9
$USERI3
 70
     1
  9
$USERI4
 70
     0
  9
$USERI5
 70
     0
  9
$USERR1
 40
0.0
  9
$USERR2
 40
0.0
  9
$USERR3
 40
0.0
  9
$USERR4
 40
0.0
  9
$USERR5
 40
0.0
  9
$WORLDVIEW
 70
     1
  9
$SHADEDGE
 70
     3
  9
$SHADEDIF
 70
    70
  9
$TILEMODE
 70
     1
  9
$MAXACTVP
 70
    16
  9
$PLIMCHECK
 70
     0
  9
$PEXTMIN
 10
1.0000000000000000E+20
 20
1.0000000000000000E+20
 30
1.0000000000000000E+20
  9
$PEXTMAX
 10
-1.0000000000000000E+20
 20
-1.0000000000000000E+20
 30
-1.0000000000000000E+20
  9
$PLIMMIN
 10
0.0
 20
0.0
  9
$PLIMMAX
 10
0.0
 20
0.0
  9
$UNITMODE
 70
     0
  9
$VISRETAIN
 70
     0
  9
$PLINEGEN
 70
     0
  9
$PSLTSCALE
 70
     0
  0
ENDSEC
  0
SECTION
  2
TABLES
  0
TABLE
  2
VPORT
 70
     1
  0
VPORT
  2
*ACTIVE
 70
     0
 10
0.0
 20
0.0
 11
1.0
 21
1.0
 12
232.5609756097560989
 22
100.0
 13
0.0
 23
0.0
 14
5.0
 24
5.0
 15
5.0
 25
5.0
 16
0.0
 26
0.0
 36
1.0
 17
0.0
 27
0.0
 37
0.0
 40
200.0
 41
2.325609756097561
 42
50.0
 43
0.0
 44
0.0
 50
0.0
 51
0.0
 71
    16
 72
   500
 73
     1
 74
     0
 75
     0
 76
     0
 77
     0
 78
     2
  0
ENDTAB
  0
TABLE
  2
LTYPE
 70
     3
  0
LTYPE
  2
CONTINUOUS
 70
     0
  3
Solid Line
 72
    65
 73
     0
 40
0.0
  0
LTYPE
  2
CENTER
 70
     0
  3
____ _ ____ _ ____ _ ____ _ ____ _ ____ _ ____
 72
    65
 73
     4
 40
2.0
 49
1.25
 49
-0.25
 49
0.25
 49
-0.25
  0
LTYPE
  2
PHANTOM2
 70
     0
  3
___ _ _ ___ _ _ ___ _ _ ___ _ _
 72
    65
 73
     6
 40
1.25
 49
0.625
 49
-0.125
 49
0.125
 49
-0.125
 49
0.125
 49
-0.125
  0
ENDTAB
  0
TABLE
  2
LAYER
 70
     4
  0
LAYER
  2
0
 70
     0
 62
     7
  6
CONTINUOUS
  0
LAYER
  2
1
 70
     0
 62
     1
  6
CENTER
  0
LAYER
  2
3
 70
     0
 62
     3
  6
CONTINUOUS
  0
LAYER
  2
DEFPOINTS
 70
     0
 62
     7
  6
CONTINUOUS
  0
ENDTAB
  0
TABLE
  2
STYLE
 70
     2
  0
STYLE
  2
STANDARD
 70
     0
 40
0.0
 41
1.0
 50
0.0
 71
     0
 42
0.2
  3
TXT
  4
BIGFONT
  0
STYLE
  2
STANDARD1
 70
     0
 40
0.0
 41
1.0
 50
0.0
 71
     0
 42
3.0
  3
txt
  4

  0
ENDTAB
  0
TABLE
  2
VIEW
 70
     1
  0
VIEW
  2
ALL
 70
     0
 40
175.0
 10
142.7371014838101075
 20
87.5
 41
0.0
 11
0.0
 21
0.0
 31
1.0
 12
0.0
 22
0.0
 32
0.0
 42
50.0
 43
0.0
 44
0.0
 50
0.0
 71
     0
  0
ENDTAB
  0
TABLE
  2
UCS
 70
     0
  0
ENDTAB
  0
TABLE
  2
APPID
 70
     9
  0
APPID
  2
ACAD
 70
     0
  0
APPID
  2
GENIUS_GENODEF_13
 70
     0
  0
APPID
  2
GENIUS_GENOBJ-N-FIL_13
 70
     0
  0
APPID
  2
GENIUS_GENOREF_13
 70
     0
  0
APPID
  2
GENIUS_GENFIL_13
 70
     0
  0
APPID
  2
GENIUS_GENOBJ-N-CHA_13
 70
     0
  0
APPID
  2
ACAD_MLEADERVER
 70
     0
  0
APPID
  2
ACAD_EXEMPT_FROM_CAD_STANDARDS
 70
     0
  0
APPID
  2
ACAD_NAV_VCDISPLAY
 70
     0
  0
ENDTAB
  0
TABLE
  2
DIMSTYLE
 70
     1
  0
DIMSTYLE
  2
STANDARD
 70
     0
  3

  4

  5

  6

  7

 40
1.0
 41
0.18
 42
0.0625
 43
0.38
 44
0.18
 45
0.0
 46
0.0
 47
0.0
 48
0.0
140
0.18
141
0.09
142
0.0
143
25.3999999999999986
144
1.0
145
0.0
146
1.0
147
0.09
 71
     0
 72
     0
 73
     1
 74
     1
 75
     0
 76
     0
 77
     0
 78
     0
170
     0
171
     2
172
     0
173
     0
174
     0
175
     0
176
     0
177
     0
178
     0
  0
ENDTAB
  0
ENDSEC
  0
SECTION
  2
BLOCKS
  0
BLOCK
  8
0
  2
$MODEL_SPACE
 70
     0
 10
0.0
 20
0.0
 30
0.0
  3
$MODEL_SPACE
  1

  0
ENDBLK
  5
49C
  8
0
  0
BLOCK
 67
     1
  8
0
  2
$PAPER_SPACE
 70
     0
 10
0.0
 20
0.0
 30
0.0
  3
$PAPER_SPACE
  1

  0
ENDBLK
  5
49A
 67
     1
  8
0
  0
ENDSEC
  0
SECTION
  2
ENTITIES
  0
TEXT
  5
1C19
  8
0
 62
     3
 10
0.0
 20
0.0
 30
0.0
 40
10.0
  1
ECL05X40
  7
STANDARD1
  0
POLYLINE
  5
27F9
  8
0
 66
     1
 10
0.0
 20
0.0
 30
0.0
  0
VERTEX
  5
2F6C
  8
0
 10
91.896241488076754
 20
174.7644859290259092
 30
0.0
  0
VERTEX
  5
2F6D
  8
0
 10
92.2506052881242482
 20
175.2158246328660027
 30
0.0
  0
VERTEX
  5
2F6E
  8
0
 10
92.5714680439552637
 20
175.6825031027487967
 30
0.0
  0
VERTEX
  5
2F6F
  8
0
 10
92.8582460439677675
 20
176.1605074944363878
 30
0.0
  0
VERTEX
  5
2F70
  8
0
 10
93.1103555765596838
 20
176.6458239636912992
 30
0.0
  0
VERTEX
  5
2F71
  8
0
 10
93.363355408566207
 20
177.2226851377490107
 30
0.0
  0
VERTEX
  5
2F72
  8
0
 10
93.5730792186389237
 20
177.8086794260017882
 30
0.0
  0
VERTEX
  5
2F73
  8
0
 10
93.7402007726032878
 20
178.4010333627390992
 30
0.0
  0
VERTEX
  5
2F74
  8
0
 10
93.865393836284639
 20
178.9969734822497003
 30
0.0
  0
VERTEX
  5
2F75
  8
0
 10
93.949332175508431
 20
179.5937263188226041
 30
0.0
  0
VERTEX
  5
2F76
  8
0
 10
93.9869066614855342
 20
180.0620872673154906
 30
0.0
  0
VERTEX
  5
2F77
  8
0
 10
93.9999849999811943
 20
180.5309474121795859
 30
0.0
  0
VERTEX
  5
2F78
  8
0
 10
93.9999999999999432
 20
180.5473790923248032
 30
0.0
  0
SEQEND
  5
2F79
  8
0
  0
POLYLINE
  5
27FA
  8
0
 66
     1
 10
0.0
 20
0.0
 30
0.0
  0
VERTEX
  5
2F7A
  8
0
 10
93.9999999999999432
 20
180.5473790923248032
 30
0.0
  0
VERTEX
  5
2F7B
  8
0
 10
93.9999849999811943
 20
180.5638107724699069
 30
0.0
  0
VERTEX
  5
2F7C
  8
0
 10
93.9869066614855342
 20
181.0326709173340021
 30
0.0
  0
VERTEX
  5
2F7D
  8
0
 10
93.949332175508431
 20
181.5010318658268886
 30
0.0
  0
VERTEX
  5
2F7E
  8
0
 10
93.865393836284639
 20
182.0977847023997924
 30
0.0
  0
VERTEX
  5
2F7F
  8
0
 10
93.7402007726032878
 20
182.6937248219103935
 30
0.0
  0
VERTEX
  5
2F80
  8
0
 10
93.5730792186389522
 20
183.2860787586477045
 30
0.0
  0
VERTEX
  5
2F81
  8
0
 10
93.363355408566207
 20
183.8720730469005105
 30
0.0
  0
VERTEX
  5
2F82
  8
0
 10
93.1103555765596838
 20
184.4489342209581935
 30
0.0
  0
VERTEX
  5
2F83
  8
0
 10
92.8582460439677675
 20
184.9342506902129912
 30
0.0
  0
VERTEX
  5
2F84
  8
0
 10
92.5714680439552637
 20
185.412255081900696
 30
0.0
  0
VERTEX
  5
2F85
  8
0
 10
92.2506052881242482
 20
185.87893355178349
 30
0.0
  0
VERTEX
  5
2F86
  8
0
 10
91.896241488076754
 20
186.330272255623612
 30
0.0
  0
SEQEND
  5
2F87
  8
0
  0
LINE
  5
27FB
  8
0
 10
84.9999999999999432
 20
189.5473790923246895
 30
0.0
 11
41.9999999999999076
 21
189.5473790923246895
 31
0.0
  0
LINE
  5
27FC
  8
0
 10
41.9999999999999076
 20
189.5473790923246895
 30
0.0
 11
41.9999999999999076
 21
184.4473790923246952
 31
0.0
  0
LINE
  5
27FD
  8
0
 10
41.9999999999999076
 20
184.4473790923246952
 30
0.0
 11
57.3599999999999284
 21
184.4473790923246952
 31
0.0
  0
LINE
  5
27FE
  8
0
 10
84.9999999999999432
 20
171.5473790923248032
 30
0.0
 11
41.9999999999999076
 21
171.5473790923248032
 31
0.0
  0
LINE
  5
27FF
  8
0
 10
57.3599999999999284
 20
176.6473790923247975
 30
0.0
 11
41.9999999999999076
 21
176.6473790923247975
 31
0.0
  0
LINE
  5
2800
  8
0
 10
41.9999999999999076
 20
176.6473790923247975
 30
0.0
 11
41.9999999999999076
 21
171.5473790923248032
 31
0.0
  0
POLYLINE
  5
2802
  8
0
 66
     1
 10
0.0
 20
0.0
 30
0.0
  0
VERTEX
  5
2F88
  8
0
 10
91.896241488076754
 20
186.330272255623612
 30
0.0
  0
VERTEX
  5
2F89
  8
0
 10
91.3782334560844731
 20
186.8969586743554032
 30
0.0
  0
VERTEX
  5
2F8A
  8
0
 10
90.8156056942080454
 20
187.4160565785294068
 30
0.0
  0
VERTEX
  5
2F8B
  8
0
 10
90.1940243951644334
 20
187.8972833214689047
 30
0.0
  0
VERTEX
  5
2F8C
  8
0
 10
89.534276052031629
 20
188.3217176933873134
 30
0.0
  0
VERTEX
  5
2F8D
  8
0
 10
88.8615888655329798
 20
188.6767859327715087
 30
0.0
  0
VERTEX
  5
2F8E
  8
0
 10
88.1619443942586543
 20
188.9736539304495864
 30
0.0
  0
VERTEX
  5
2F8F
  8
0
 10
87.41924598865711
 20
189.2160734711987971
 30
0.0
  0
VERTEX
  5
2F90
  8
0
 10
86.6580711835740942
 20
189.3933273145449903
 30
0.0
  0
VERTEX
  5
2F91
  8
0
 10
86.2487972626920225
 20
189.4603149261162969
 30
0.0
  0
VERTEX
  5
2F92
  8
0
 10
85.8366140069200299
 20
189.5084101157854946
 30
0.0
  0
VERTEX
  5
2F93
  8
0
 10
85.4189447065507039
 20
189.5376182509220939
 30
0.0
  0
VERTEX
  5
2F94
  8
0
 10
84.9999999999999432
 20
189.5473790923246895
 30
0.0
  0
SEQEND
  5
2F95
  8
0
  0
POLYLINE
  5
2804
  8
0
 66
     1
 10
0.0
 20
0.0
 30
0.0
  0
VERTEX
  5
2F96
  8
0
 10
58.3599999999999284
 20
183.4473790923246952
 30
0.0
  0
VERTEX
  5
2F97
  8
0
 10
58.3457138415841428
 20
183.6152086093368894
 30
0.0
  0
VERTEX
  5
2F98
  8
0
 10
58.303656037095287
 20
183.7783070054017003
 30
0.0
  0
VERTEX
  5
2F99
  8
0
 10
58.2346397218494971
 20
183.9319448268215069
 30
0.0
  0
VERTEX
  5
2F9A
  8
0
 10
58.1409880261864416
 20
184.0719250897928134
 30
0.0
  0
VERTEX
  5
2F9B
  8
0
 10
58.0250231735816513
 20
184.1940670365171115
 30
0.0
  0
VERTEX
  5
2F9C
  8
0
 10
57.89033500816398
 20
184.2951672611002039
 30
0.0
  0
VERTEX
  5
2F9D
  8
0
 10
57.7404703286892413
 20
184.372063450519903
 30
0.0
  0
VERTEX
  5
2F9E
  8
0
 10
57.5798994712840511
 20
184.4229016305210962
 30
0.0
  0
VERTEX
  5
2F9F
  8
0
 10
57.3599999999999284
 20
184.4473790923246952
 30
0.0
  0
SEQEND
  5
2FA0
  8
0
  0
LINE
  5
2805
  8
0
 10
58.3599999999999284
 20
183.4473790923246952
 30
0.0
 11
58.3599999999999284
 21
177.6473790923247122
 31
0.0
  0
POLYLINE
  5
2806
  8
0
 66
     1
 10
0.0
 20
0.0
 30
0.0
  0
VERTEX
  5
2FA1
  8
0
 10
57.3599999999999284
 20
176.6473790923247975
 30
0.0
  0
VERTEX
  5
2FA2
  8
0
 10
57.5279047128524894
 20
176.6616780099141977
 30
0.0
  0
VERTEX
  5
2FA3
  8
0
 10
57.6910861797386971
 20
176.7037785721965975
 30
0.0
  0
VERTEX
  5
2FA4
  8
0
 10
57.8448138406575083
 20
176.7728771024470973
 30
0.0
  0
VERTEX
  5
2FA5
  8
0
 10
57.9848760258798919
 20
176.8666550999429887
 30
0.0
  0
VERTEX
  5
2FA6
  8
0
 10
58.1070302588268817
 20
176.9827408752736062
 30
0.0
  0
VERTEX
  5
2FA7
  8
0
 10
58.2081232558316231
 20
177.1175801276999948
 30
0.0
  0
VERTEX
  5
2FA8
  8
0
 10
58.2849360072402973
 20
177.267521588803902
 30
0.0
  0
VERTEX
  5
2FA9
  8
0
 10
58.3356792617379867
 20
177.4281760398498875
 30
0.0
  0
VERTEX
  5
2FAA
  8
0
 10
58.3599999999999284
 20
177.6473790923247122
 30
0.0
  0
SEQEND
  5
2FAB
  8
0
  0
POLYLINE
  5
2808
  8
0
 66
     1
 10
0.0
 20
0.0
 30
0.0
  0
VERTEX
  5
2FAC
  8
0
 10
84.9999999999999432
 20
171.5473790923248032
 30
0.0
  0
VERTEX
  5
2FAD
  8
0
 10
85.7710322423178582
 20
171.5805212657859045
 30
0.0
  0
VERTEX
  5
2FAE
  8
0
 10
86.5353198764313163
 20
171.6793019119527912
 30
0.0
  0
VERTEX
  5
2FAF
  8
0
 10
87.3092842246430223
 20
171.8487491620116998
 30
0.0
  0
VERTEX
  5
2FB0
  8
0
 10
88.0650480129469599
 20
172.0853769250873881
 30
0.0
  0
VERTEX
  5
2FB1
  8
0
 10
88.7767497032514257
 20
172.3782150483995963
 30
0.0
  0
VERTEX
  5
2FB2
  8
0
 10
89.4613846431670368
 20
172.7309830515837064
 30
0.0
  0
VERTEX
  5
2FB3
  8
0
 10
89.9128574493335861
 20
173.0066238696196024
 30
0.0
  0
VERTEX
  5
2FB4
  8
0
 10
90.3482543470442039
 20
173.3089169291754956
 30
0.0
  0
VERTEX
  5
2FB5
  8
0
 10
90.7653949459974854
 20
173.6365020773095011
 30
0.0
  0
VERTEX
  5
2FB6
  8
0
 10
91.0648213475726038
 20
173.8977270234674108
 30
0.0
  0
VERTEX
  5
2FB7
  8
0
 10
91.3528308311240949
 20
174.1723072942099861
 30
0.0
  0
VERTEX
  5
2FB8
  8
0
 10
91.6309242809150248
 20
174.4620879643119906
 30
0.0
  0
VERTEX
  5
2FB9
  8
0
 10
91.896241488076754
 20
174.7644859290259092
 30
0.0
  0
SEQEND
  5
2FBA
  8
0
  0
LINE
  5
2884
  8
1
 10
49.9999999999999432
 20
194.5473790923248032
 30
0.0
 11
49.9999999999999432
 21
166.5473790923248032
 31
0.0
  0
LINE
  5
2885
  8
1
 10
35.9999999999999432
 20
180.5473790923248032
 30
0.0
 11
96.9999999999999716
 21
180.5473790923248032
 31
0.0
  0
POLYLINE
  5
2886
  8
0
 66
     1
 10
0.0
 20
0.0
 30
0.0
  0
VERTEX
  5
2FBB
  8
0
 10
50.0509991146895672
 20
191.5472608685213061
 30
0.0
  0
VERTEX
  5
2FBC
  8
0
 10
50.0514442532688903
 20
191.5472578137585913
 30
0.0
  0
VERTEX
  5
2FBD
  8
0
 10
50.0564578820840111
 20
191.5470864134601925
 30
0.0
  0
VERTEX
  5
2FBE
  8
0
 10
50.0646964139385204
 20
191.546254201412296
 30
0.0
  0
VERTEX
  5
2FBF
  8
0
 10
50.071071993080011
 20
191.5451304800239996
 30
0.0
  0
VERTEX
  5
2FC0
  8
0
 10
50.0821906771342569
 20
191.5421194506751021
 30
0.0
  0
VERTEX
  5
2FC1
  8
0
 10
50.0915127437816565
 20
191.5384806997481917
 30
0.0
  0
VERTEX
  5
2FC2
  8
0
 10
50.1342486264035188
 20
191.501962074296614
 30
0.0
  0
VERTEX
  5
2FC3
  8
0
 10
50.1504697826367973
 20
191.4508853978030061
 30
0.0
  0
SEQEND
  5
2FC4
  8
0
  0
ARC
  5
2887
  8
0
 10
49.9999999945811666
 20
180.5473814297326101
 30
0.0
 40
10.9999976626423805
 50
89.7343595063320549
 51
90.2656402528803739
  0
POLYLINE
  5
2888
  8
0
 66
     1
 10
0.0
 20
0.0
 30
0.0
  0
VERTEX
  5
2FC5
  8
0
 10
49.8495302173630819
 20
191.4508853978030061
 30
0.0
  0
VERTEX
  5
2FC6
  8
0
 10
49.8657513735963605
 20
191.501962074296614
 30
0.0
  0
VERTEX
  5
2FC7
  8
0
 10
49.9084872562182227
 20
191.5384806997481917
 30
0.0
  0
VERTEX
  5
2FC8
  8
0
 10
49.9178093228656223
 20
191.5421194506751021
 30
0.0
  0
VERTEX
  5
2FC9
  8
0
 10
49.9289280069198966
 20
191.5451304800239996
 30
0.0
  0
VERTEX
  5
2FCA
  8
0
 10
49.9353035860613588
 20
191.546254201412296
 30
0.0
  0
VERTEX
  5
2FCB
  8
0
 10
49.9435421179158467
 20
191.5470864134601925
 30
0.0
  0
VERTEX
  5
2FCC
  8
0
 10
49.9485557467309604
 20
191.5472578137585913
 30
0.0
  0
VERTEX
  5
2FCD
  8
0
 10
49.949000920699973
 20
191.5472608687356058
 30
0.0
  0
SEQEND
  5
2FCE
  8
0
  0
POLYLINE
  5
2889
  8
0
 66
     1
 10
0.0
 20
0.0
 30
0.0
  0
VERTEX
  5
2FCF
  8
0
 10
49.8495302173630819
 20
191.4508853978030061
 30
0.0
  0
VERTEX
  5
2FD0
  8
0
 10
49.8413692918518905
 20
191.3514779498244138
 30
0.0
  0
VERTEX
  5
2FD1
  8
0
 10
49.8157831222177876
 20
191.2252725856417044
 30
0.0
  0
VERTEX
  5
2FD2
  8
0
 10
49.7619075173770327
 20
191.0763091293891875
 30
0.0
  0
VERTEX
  5
2FD3
  8
0
 10
49.7050846878387276
 20
190.96830993127341
 30
0.0
  0
VERTEX
  5
2FD4
  8
0
 10
49.6261216664955214
 20
190.8563067801009083
 30
0.0
  0
VERTEX
  5
2FD5
  8
0
 10
49.5191153017684869
 20
190.7439568979058038
 30
0.0
  0
VERTEX
  5
2FD6
  8
0
 10
49.3833436187081531
 20
190.6411034417604071
 30
0.0
  0
VERTEX
  5
2FD7
  8
0
 10
49.2763515098116613
 20
190.5825546779695117
 30
0.0
  0
VERTEX
  5
2FD8
  8
0
 10
49.1585982358036233
 20
190.5358668465322012
 30
0.0
  0
VERTEX
  5
2FD9
  8
0
 10
49.032181881511967
 20
190.5039253599018991
 30
0.0
  0
VERTEX
  5
2FDA
  8
0
 10
48.9015060856154378
 20
190.4884376387369116
 30
0.0
  0
VERTEX
  5
2FDB
  8
0
 10
48.7794842989367723
 20
190.4896953254726952
 30
0.0
  0
VERTEX
  5
2FDC
  8
0
 10
48.6607754065731513
 20
190.5052221439337927
 30
0.0
  0
VERTEX
  5
2FDD
  8
0
 10
48.5468788640856417
 20
190.5342784101956113
 30
0.0
  0
VERTEX
  5
2FDE
  8
0
 10
48.4417127902723266
 20
190.5743500369810022
 30
0.0
  0
VERTEX
  5
2FDF
  8
0
 10
48.3371163823404686
 20
190.6288052915726041
 30
0.0
  0
VERTEX
  5
2FE0
  8
0
 10
48.2458240808123335
 20
190.6904107234792889
 30
0.0
  0
VERTEX
  5
2FE1
  8
0
 10
48.1262489223563179
 20
190.7972418526389902
 30
0.0
  0
VERTEX
  5
2FE2
  8
0
 10
48.0367534261435196
 20
190.9054619860347088
 30
0.0
  0
VERTEX
  5
2FE3
  8
0
 10
47.9447216978985793
 20
191.0621640756995134
 30
0.0
  0
VERTEX
  5
2FE4
  8
0
 10
47.8944229930507603
 20
191.1929850294382902
 30
0.0
  0
VERTEX
  5
2FE5
  8
0
 10
47.8802152250550535
 20
191.2439020515392087
 30
0.0
  0
SEQEND
  5
2FE6
  8
0
  0
POLYLINE
  5
288A
  8
0
 66
     1
 10
0.0
 20
0.0
 30
0.0
  0
VERTEX
  5
2FE7
  8
0
 10
47.7628806462620332
 20
191.3174903729536993
 30
0.0
  0
VERTEX
  5
2FE8
  8
0
 10
47.7679467885971292
 20
191.3184073254313091
 30
0.0
  0
VERTEX
  5
2FE9
  8
0
 10
47.7740275482510626
 20
191.3191570397023042
 30
0.0
  0
VERTEX
  5
2FEA
  8
0
 10
47.782977090490327
 20
191.3195799722305139
 30
0.0
  0
VERTEX
  5
2FEB
  8
0
 10
47.8077812842006082
 20
191.3165165709116877
 30
0.0
  0
VERTEX
  5
2FEC
  8
0
 10
47.839345525497059
 20
191.3028406894077875
 30
0.0
  0
VERTEX
  5
2FED
  8
0
 10
47.8608267695805409
 20
191.28264283271929
 30
0.0
  0
VERTEX
  5
2FEE
  8
0
 10
47.8802152250550535
 20
191.2439020515392087
 30
0.0
  0
SEQEND
  5
2FEF
  8
0
  0
ARC
  5
288B
  8
0
 10
50.0000014566829805
 20
180.5473722391691922
 30
0.0
 40
11.0000070061838198
 50
101.734359741719004
 51
102.2656400554645018
  0
POLYLINE
  5
288C
  8
0
 66
     1
 10
0.0
 20
0.0
 30
0.0
  0
VERTEX
  5
2FF0
  8
0
 10
47.5858519113166665
 20
191.181333197689213
 30
0.0
  0
VERTEX
  5
2FF1
  8
0
 10
47.591098177678191
 20
191.2346637612029099
 30
0.0
  0
VERTEX
  5
2FF2
  8
0
 10
47.6017283748245177
 20
191.2548932476559003
 30
0.0
  0
VERTEX
  5
2FF3
  8
0
 10
47.6123974507305192
 20
191.2680070372782097
 30
0.0
  0
VERTEX
  5
2FF4
  8
0
 10
47.6220089618909128
 20
191.2767512997307904
 30
0.0
  0
VERTEX
  5
2FF5
  8
0
 10
47.6303910952730689
 20
191.2827555788362019
 30
0.0
  0
VERTEX
  5
2FF6
  8
0
 10
47.6376718096577818
 20
191.2870006271002978
 30
0.0
  0
VERTEX
  5
2FF7
  8
0
 10
47.6476425963292627
 20
191.2915833256002998
 30
0.0
  0
VERTEX
  5
2FF8
  8
0
 10
47.6531028551578331
 20
191.2935572486584874
 30
0.0
  0
VERTEX
  5
2FF9
  8
0
 10
47.658797203727012
 20
191.2952450746919055
 30
0.0
  0
VERTEX
  5
2FFA
  8
0
 10
47.6631113540246574
 20
191.2962837554200064
 30
0.0
  0
SEQEND
  5
2FFB
  8
0
  0
POLYLINE
  5
288D
  8
0
 66
     1
 10
0.0
 20
0.0
 30
0.0
  0
VERTEX
  5
2FFC
  8
0
 10
47.5858519113166665
 20
191.181333197689213
 30
0.0
  0
VERTEX
  5
2FFD
  8
0
 10
47.5985372224731975
 20
191.082402078297406
 30
0.0
  0
VERTEX
  5
2FFE
  8
0
 10
47.5997499087609128
 20
190.9536361374609044
 30
0.0
  0
VERTEX
  5
2FFF
  8
0
 10
47.5780235284885293
 20
190.7967280603201914
 30
0.0
  0
VERTEX
  5
3000
  8
0
 10
47.5448971379171894
 20
190.6792746637568996
 30
0.0
  0
VERTEX
  5
3001
  8
0
 10
47.4909468339673992
 20
190.5533014542781984
 30
0.0
  0
VERTEX
  5
3002
  8
0
 10
47.4096380253782215
 20
190.4211583691958936
 30
0.0
  0
VERTEX
  5
3003
  8
0
 10
47.2982179150009188
 20
190.2923233888967047
 30
0.0
  0
VERTEX
  5
3004
  8
0
 10
47.2057370412207575
 20
190.2128088559942114
 30
0.0
  0
VERTEX
  5
3005
  8
0
 10
47.1002640623537729
 20
190.1426586346987051
 30
0.0
  0
VERTEX
  5
3006
  8
0
 10
46.9832512760280778
 20
190.085131317361089
 30
0.0
  0
VERTEX
  5
3007
  8
0
 10
46.8586510975797523
 20
190.0428126183921052
 30
0.0
  0
VERTEX
  5
3008
  8
0
 10
46.7390342762395719
 20
190.0186727359910037
 30
0.0
  0
VERTEX
  5
3009
  8
0
 10
46.6196911640043581
 20
190.0091789788203869
 30
0.0
  0
VERTEX
  5
300A
  8
0
 10
46.5022423659312878
 20
190.0139195848798863
 30
0.0
  0
VERTEX
  5
300B
  8
0
 10
46.3910429749227831
 20
190.0312500310348867
 30
0.0
  0
VERTEX
  5
300C
  8
0
 10
46.2774103146336984
 20
190.0627682098200921
 30
0.0
  0
VERTEX
  5
300D
  8
0
 10
46.1753043734826676
 20
190.1040464323353945
 30
0.0
  0
VERTEX
  5
300E
  8
0
 10
46.0361307602859426
 20
190.183681515213209
 30
0.0
  0
VERTEX
  5
300F
  8
0
 10
45.9260905647935473
 20
190.2709292628871935
 30
0.0
  0
VERTEX
  5
3010
  8
0
 10
45.8034894376734982
 20
190.405072166961105
 30
0.0
  0
VERTEX
  5
3011
  8
0
 10
45.7270902370960926
 20
190.5225766506034972
 30
0.0
  0
VERTEX
  5
3012
  8
0
 10
45.7026054339942718
 20
190.5694293243460038
 30
0.0
  0
SEQEND
  5
3013
  8
0
  0
POLYLINE
  5
288E
  8
0
 66
     1
 10
0.0
 20
0.0
 30
0.0
  0
VERTEX
  5
3014
  8
0
 10
45.5725350249350285
 20
190.6170143337112961
 30
0.0
  0
VERTEX
  5
3015
  8
0
 10
45.5772834465034506
 20
190.6189583446137874
 30
0.0
  0
VERTEX
  5
3016
  8
0
 10
45.583069620246647
 20
190.6209552448615909
 30
0.0
  0
VERTEX
  5
3017
  8
0
 10
45.5917206782741502
 20
190.6232285512917031
 30
0.0
  0
VERTEX
  5
3018
  8
0
 10
45.616538792536943
 20
190.62540168764599
 30
0.0
  0
VERTEX
  5
3019
  8
0
 10
45.6501526813164773
 20
190.6186695777489035
 30
0.0
  0
VERTEX
  5
301A
  8
0
 10
45.6753009089288682
 20
190.6035216512487125
 30
0.0
  0
VERTEX
  5
301B
  8
0
 10
45.7026054339942718
 20
190.5694293243460038
 30
0.0
  0
SEQEND
  5
301C
  8
0
  0
ARC
  5
288F
  8
0
 10
49.9999978861263514
 20
180.5473838401628086
 30
0.0
 40
10.9999948029001597
 50
113.7343594470197985
 51
114.2656403501667057
  0
POLYLINE
  5
2890
  8
0
 66
     1
 10
0.0
 20
0.0
 30
0.0
  0
VERTEX
  5
301D
  8
0
 10
45.4276834611135314
 20
190.447026175797788
 30
0.0
  0
VERTEX
  5
301E
  8
0
 10
45.4217251883820197
 20
190.5002706340908958
 30
0.0
  0
VERTEX
  5
301F
  8
0
 10
45.4279147066840423
 20
190.5222692062648946
 30
0.0
  0
VERTEX
  5
3020
  8
0
 10
45.4356222071334273
 20
190.5373151726861067
 30
0.0
  0
VERTEX
  5
3021
  8
0
 10
45.4432040490870506
 20
190.5478671434862008
 30
0.0
  0
VERTEX
  5
3022
  8
0
 10
45.4501532808481485
 20
190.5554833814126994
 30
0.0
  0
VERTEX
  5
3023
  8
0
 10
45.4563910643939835
 20
190.5611497958103087
 30
0.0
  0
VERTEX
  5
3024
  8
0
 10
45.465186045336587
 20
190.5677037796882871
 30
0.0
  0
VERTEX
  5
3025
  8
0
 10
45.4701155655843934
 20
190.5707704788750902
 30
0.0
  0
VERTEX
  5
3026
  8
0
 10
45.4753394710812984
 20
190.573609100278702
 30
0.0
  0
VERTEX
  5
3027
  8
0
 10
45.4793550348141125
 20
190.5755279294102991
 30
0.0
  0
SEQEND
  5
3028
  8
0
  0
POLYLINE
  5
2891
  8
0
 66
     1
 10
0.0
 20
0.0
 30
0.0
  0
VERTEX
  5
3029
  8
0
 10
45.4276834611135314
 20
190.447026175797788
 30
0.0
  0
VERTEX
  5
302A
  8
0
 10
45.4606595017860116
 20
190.3528976315865009
 30
0.0
  0
VERTEX
  5
302B
  8
0
 10
45.4886172593454319
 20
190.227202868986609
 30
0.0
  0
VERTEX
  5
302C
  8
0
 10
45.499990120941419
 20
190.0692135345800864
 30
0.0
  0
VERTEX
  5
302D
  8
0
 10
45.4920094601415315
 20
189.9474393344736995
 30
0.0
  0
VERTEX
  5
302E
  8
0
 10
45.4654314151420067
 20
189.8130013210152072
 30
0.0
  0
VERTEX
  5
302F
  8
0
 10
45.4133753930441912
 20
189.6668392767340094
 30
0.0
  0
VERTEX
  5
3030
  8
0
 10
45.3501459508066986
 20
189.5471114208372114
 30
0.0
  0
SEQEND
  5
3031
  8
0
  0
POLYLINE
  5
2892
  8
0
 66
     1
 10
0.0
 20
0.0
 30
0.0
  0
VERTEX
  5
3032
  8
0
 10
41.8596198480783528
 20
187.9456363859177088
 30
0.0
  0
VERTEX
  5
3033
  8
0
 10
41.8631224445043131
 20
187.9492993746586933
 30
0.0
  0
VERTEX
  5
3034
  8
0
 10
41.8675781489364525
 20
187.9534663620156039
 30
0.0
  0
VERTEX
  5
3035
  8
0
 10
41.8745094130103084
 20
187.9590364686029886
 30
0.0
  0
VERTEX
  5
3036
  8
0
 10
41.8960169557838924
 20
187.9710388735109916
 30
0.0
  0
VERTEX
  5
3037
  8
0
 10
41.9290068939982916
 20
187.9786748322723042
 30
0.0
  0
VERTEX
  5
3038
  8
0
 10
41.9577316277754377
 20
187.9754299106594999
 30
0.0
  0
VERTEX
  5
3039
  8
0
 10
41.9977996464181231
 20
187.9550697183042871
 30
0.0
  0
SEQEND
  5
303A
  8
0
  0
ARC
  5
2893
  8
0
 10
49.9999847423031625
 20
180.5473928304164986
 30
0.0
 40
10.99997946896457
 50
137.7343590767139858
 51
138.2656407204696052
  0
POLYLINE
  5
2894
  8
0
 66
     1
 10
0.0
 20
0.0
 30
0.0
  0
VERTEX
  5
303B
  8
0
 10
41.7964317726291483
 20
187.7314280375898079
 30
0.0
  0
VERTEX
  5
303C
  8
0
 10
41.7693468687180882
 20
187.7775903523499039
 30
0.0
  0
VERTEX
  5
303D
  8
0
 10
41.7660404773169986
 20
187.8002090009730125
 30
0.0
  0
VERTEX
  5
303E
  8
0
 10
41.7669535395821114
 20
187.8170915196390922
 30
0.0
  0
VERTEX
  5
303F
  8
0
 10
41.769581867980861
 20
187.8298166498024955
 30
0.0
  0
VERTEX
  5
3040
  8
0
 10
41.7728275549123609
 20
187.8396020584031874
 30
0.0
  0
VERTEX
  5
3041
  8
0
 10
41.7762170322203019
 20
187.8473164022998958
 30
0.0
  0
VERTEX
  5
3042
  8
0
 10
41.7815719458167365
 20
187.8568693124838092
 30
0.0
  0
VERTEX
  5
3043
  8
0
 10
41.7848239876551588
 20
187.8616770901583948
 30
0.0
  0
VERTEX
  5
3044
  8
0
 10
41.7892034379606727
 20
187.8673258818120928
 30
0.0
  0
VERTEX
  5
3045
  8
0
 10
41.7913697321788788
 20
187.8698369533310029
 30
0.0
  0
SEQEND
  5
3046
  8
0
  0
POLYLINE
  5
2895
  8
0
 66
     1
 10
0.0
 20
0.0
 30
0.0
  0
VERTEX
  5
3047
  8
0
 10
42.0014969476131625
 20
186.5785418533322115
 30
0.0
  0
VERTEX
  5
3048
  8
0
 10
41.9532918816470612
 20
186.4904524266241026
 30
0.0
  0
VERTEX
  5
3049
  8
0
 10
41.8773683353886099
 20
186.3829677367760098
 30
0.0
  0
VERTEX
  5
304A
  8
0
 10
41.794790620344088
 20
186.2931211442557924
 30
0.0
  0
VERTEX
  5
304B
  8
0
 10
41.7038235697652269
 20
186.2152836242991896
 30
0.0
  0
VERTEX
  5
304C
  8
0
 10
41.6060232350024819
 20
186.1500768822415068
 30
0.0
  0
VERTEX
  5
304D
  8
0
 10
41.5058768700743883
 20
186.09872844954279
 30
0.0
  0
VERTEX
  5
304E
  8
0
 10
41.3954238140028394
 20
186.0574281020726062
 30
0.0
  0
VERTEX
  5
304F
  8
0
 10
41.2885573545692566
 20
186.0307989281004097
 30
0.0
  0
VERTEX
  5
3050
  8
0
 10
41.1291625740334723
 20
186.013409833204804
 30
0.0
  0
VERTEX
  5
3051
  8
0
 10
40.9888575761024683
 20
186.0193036447230099
 30
0.0
  0
VERTEX
  5
3052
  8
0
 10
40.810823297981301
 20
186.0557496743120964
 30
0.0
  0
VERTEX
  5
3053
  8
0
 10
40.6799378747166429
 20
186.105898310332293
 30
0.0
  0
VERTEX
  5
3054
  8
0
 10
40.6325214404503683
 20
186.1294428993292911
 30
0.0
  0
SEQEND
  5
3055
  8
0
  0
POLYLINE
  5
2896
  8
0
 66
     1
 10
0.0
 20
0.0
 30
0.0
  0
VERTEX
  5
3056
  8
0
 10
41.7964317726291483
 20
187.7314280375898079
 30
0.0
  0
VERTEX
  5
3057
  8
0
 10
41.8648295461304727
 20
187.6588646733341079
 30
0.0
  0
VERTEX
  5
3058
  8
0
 10
41.9414808143667912
 20
187.5554346026738131
 30
0.0
  0
VERTEX
  5
3059
  8
0
 10
42.0006247118998601
 20
187.449295441942013
 30
0.0
  0
SEQEND
  5
305A
  8
0
  0
POLYLINE
  5
2897
  8
0
 66
     1
 10
0.0
 20
0.0
 30
0.0
  0
VERTEX
  5
305B
  8
0
 10
40.4993225047426222
 20
186.091486516528505
 30
0.0
  0
VERTEX
  5
305C
  8
0
 10
40.5020127909748098
 20
186.0958371545349905
 30
0.0
  0
VERTEX
  5
305D
  8
0
 10
40.5055162950268013
 20
186.1008501384200997
 30
0.0
  0
VERTEX
  5
305E
  8
0
 10
40.5111686621062574
 20
186.1077655642075115
 30
0.0
  0
VERTEX
  5
305F
  8
0
 10
40.5299045042887087
 20
186.1240778170352996
 30
0.0
  0
VERTEX
  5
3060
  8
0
 10
40.5609374440399222
 20
186.1383937968165867
 30
0.0
  0
VERTEX
  5
3061
  8
0
 10
40.5900663238200465
 20
186.1409897953381005
 30
0.0
  0
VERTEX
  5
3062
  8
0
 10
40.6325214404503683
 20
186.1294428993292911
 30
0.0
  0
SEQEND
  5
3063
  8
0
  0
ARC
  5
2898
  8
0
 10
50.0000117653227107
 20
180.5473722996129879
 30
0.0
 40
11.0000135852782908
 50
149.7343598755749952
 51
150.2656398965872029
  0
POLYLINE
  5
2899
  8
0
 66
     1
 10
0.0
 20
0.0
 30
0.0
  0
VERTEX
  5
3064
  8
0
 10
40.482051657813507
 20
185.8688215907984898
 30
0.0
  0
VERTEX
  5
3065
  8
0
 10
40.4459433971749078
 20
185.9083785043812895
 30
0.0
  0
VERTEX
  5
3066
  8
0
 10
40.4380157066146566
 20
185.9298152146054122
 30
0.0
  0
VERTEX
  5
3067
  8
0
 10
40.4354046977708421
 20
185.9465190061432907
 30
0.0
  0
VERTEX
  5
3068
  8
0
 10
40.4353344379241832
 20
185.9595129352836977
 30
0.0
  0
VERTEX
  5
3069
  8
0
 10
40.4364784426787978
 20
185.9697597446721034
 30
0.0
  0
VERTEX
  5
306A
  8
0
 10
40.4381932102967525
 20
185.9780107379332037
 30
0.0
  0
VERTEX
  5
306B
  8
0
 10
40.4414534352281407
 20
185.9884793699663135
 30
0.0
  0
VERTEX
  5
306C
  8
0
 10
40.4436379687498402
 20
185.9938581210734867
 30
0.0
  0
VERTEX
  5
306D
  8
0
 10
40.4467503632648331
 20
186.0002919983569996
 30
0.0
  0
VERTEX
  5
306E
  8
0
 10
40.4483234033962731
 20
186.0031534822618937
 30
0.0
  0
SEQEND
  5
306F
  8
0
  0
POLYLINE
  5
289A
  8
0
 66
     1
 10
0.0
 20
0.0
 30
0.0
  0
VERTEX
  5
3070
  8
0
 10
40.482051657813507
 20
185.8688215907984898
 30
0.0
  0
VERTEX
  5
3071
  8
0
 10
40.5640221338679225
 20
185.8120792094088927
 30
0.0
  0
VERTEX
  5
3072
  8
0
 10
40.6604788357732616
 20
185.7268743701860103
 30
0.0
  0
VERTEX
  5
3073
  8
0
 10
40.7625049472401884
 20
185.6058276678191135
 30
0.0
  0
VERTEX
  5
3074
  8
0
 10
40.8276459034303372
 20
185.5026329110098118
 30
0.0
  0
VERTEX
  5
3075
  8
0
 10
40.8851908420288623
 20
185.3782557736691956
 30
0.0
  0
VERTEX
  5
3076
  8
0
 10
40.929019980955978
 20
185.2294086715656078
 30
0.0
  0
VERTEX
  5
3077
  8
0
 10
40.9502429682933879
 20
185.0603848939659031
 30
0.0
  0
VERTEX
  5
3078
  8
0
 10
40.9474739769086611
 20
184.9384511597986034
 30
0.0
  0
VERTEX
  5
3079
  8
0
 10
40.9290523174302905
 20
184.813122866564413
 30
0.0
  0
VERTEX
  5
307A
  8
0
 10
40.8935262992460409
 20
184.68765912949479
 30
0.0
  0
VERTEX
  5
307B
  8
0
 10
40.8416173789404127
 20
184.5667288004260911
 30
0.0
  0
VERTEX
  5
307C
  8
0
 10
40.7795315303905284
 20
184.4616695799660135
 30
0.0
  0
VERTEX
  5
307D
  8
0
 10
40.7067409576285115
 20
184.3666115274301092
 30
0.0
  0
VERTEX
  5
307E
  8
0
 10
40.6246409740153283
 20
184.2824892596794086
 30
0.0
  0
VERTEX
  5
307F
  8
0
 10
40.5373631666740835
 20
184.2114338979579884
 30
0.0
  0
VERTEX
  5
3080
  8
0
 10
40.4379159778779922
 20
184.1480646447973868
 30
0.0
  0
VERTEX
  5
3081
  8
0
 10
40.3389247574282592
 20
184.0997911354209862
 30
0.0
  0
VERTEX
  5
3082
  8
0
 10
40.1866385555046577
 20
184.0496322234725142
 30
0.0
  0
VERTEX
  5
3083
  8
0
 10
40.0481790067177883
 20
184.026215250184805
 30
0.0
  0
VERTEX
  5
3084
  8
0
 10
39.866460202100491
 20
184.0248340928164055
 30
0.0
  0
VERTEX
  5
3085
  8
0
 10
39.7280001651434418
 20
184.0466636759520043
 30
0.0
  0
VERTEX
  5
3086
  8
0
 10
39.6766469976842302
 20
184.059853106274204
 30
0.0
  0
SEQEND
  5
3087
  8
0
  0
POLYLINE
  5
289B
  8
0
 66
     1
 10
0.0
 20
0.0
 30
0.0
  0
VERTEX
  5
3088
  8
0
 10
39.5542503540268271
 20
183.9950325455669997
 30
0.0
  0
VERTEX
  5
3089
  8
0
 10
39.555986556992373
 20
183.9998713079380934
 30
0.0
  0
VERTEX
  5
308A
  8
0
 10
39.5583761866451198
 20
184.0055101639183022
 30
0.0
  0
VERTEX
  5
308B
  8
0
 10
39.562480668243289
 20
184.0134669818343127
 30
0.0
  0
VERTEX
  5
308C
  8
0
 10
39.5775080298485875
 20
184.033393740828302
 30
0.0
  0
VERTEX
  5
308D
  8
0
 10
39.605076690483429
 20
184.0538815948673914
 30
0.0
  0
VERTEX
  5
308E
  8
0
 10
39.6332445467699301
 20
184.0624072200457135
 30
0.0
  0
VERTEX
  5
308F
  8
0
 10
39.6766469976842302
 20
184.059853106274204
 30
0.0
  0
SEQEND
  5
3090
  8
0
  0
ARC
  5
289C
  8
0
 10
49.999992484221913
 20
180.5473815343493129
 30
0.0
 40
10.99999209752818
 50
161.7343593566608888
 51
162.2656404154996892
  0
POLYLINE
  5
289D
  8
0
 66
     1
 10
0.0
 20
0.0
 30
0.0
  0
VERTEX
  5
3091
  8
0
 10
39.5836515577348393
 20
183.7736425717095869
 30
0.0
  0
VERTEX
  5
3092
  8
0
 10
39.5400947181010523
 20
183.8048442369349971
 30
0.0
  0
VERTEX
  5
3093
  8
0
 10
39.5278882121120034
 20
183.8241651778747894
 30
0.0
  0
VERTEX
  5
3094
  8
0
 10
39.521864488799082
 20
183.8399619576802024
 30
0.0
  0
VERTEX
  5
3095
  8
0
 10
39.5190965612125709
 20
183.8526580551053939
 30
0.0
  0
VERTEX
  5
3096
  8
0
 10
39.5180870883981186
 20
183.8629194319954934
 30
0.0
  0
VERTEX
  5
3097
  8
0
 10
39.5180505876369921
 20
183.8713472698902081
 30
0.0
  0
VERTEX
  5
3098
  8
0
 10
39.5190662758030271
 20
183.8822717827985969
 30
0.0
  0
VERTEX
  5
3099
  8
0
 10
39.5200864520919311
 20
183.8879874826712921
 30
0.0
  0
VERTEX
  5
309A
  8
0
 10
39.5214721263831166
 20
183.8937654681535037
 30
0.0
  0
VERTEX
  5
309B
  8
0
 10
39.522731175914771
 20
183.898026490642394
 30
0.0
  0
SEQEND
  5
309C
  8
0
  0
POLYLINE
  5
289E
  8
0
 66
     1
 10
0.0
 20
0.0
 30
0.0
  0
VERTEX
  5
309D
  8
0
 10
39.5836515577348393
 20
183.7736425717095869
 30
0.0
  0
VERTEX
  5
309E
  8
0
 10
39.6755771599916898
 20
183.7352065055175103
 30
0.0
  0
VERTEX
  5
309F
  8
0
 10
39.7875733844820232
 20
183.6719707831157962
 30
0.0
  0
VERTEX
  5
30A0
  8
0
 10
39.9124661159922596
 20
183.5748774090043014
 30
0.0
  0
VERTEX
  5
30A1
  8
0
 10
39.9976609164965282
 20
183.4875036989463979
 30
0.0
  0
VERTEX
  5
30A2
  8
0
 10
40.0798388234724428
 20
183.3778254183272907
 30
0.0
  0
VERTEX
  5
30A3
  8
0
 10
40.153697167779697
 20
183.2413497324644993
 30
0.0
  0
VERTEX
  5
30A4
  8
0
 10
40.2096423295106717
 20
183.0804230206038028
 30
0.0
  0
VERTEX
  5
30A5
  8
0
 10
40.2323112153119098
 20
182.9605818844312068
 30
0.0
  0
VERTEX
  5
30A6
  8
0
 10
40.2403763611426015
 20
182.8341595563344981
 30
0.0
  0
VERTEX
  5
30A7
  8
0
 10
40.231738168702968
 20
182.7040409772473879
 30
0.0
  0
VERTEX
  5
30A8
  8
0
 10
40.206129322830428
 20
182.5749442517885939
 30
0.0
  0
VERTEX
  5
30A9
  8
0
 10
40.1672629502132779
 20
182.4592597887587999
 30
0.0
  0
VERTEX
  5
30AA
  8
0
 10
40.1158427336855468
 20
182.3511285955071912
 30
0.0
  0
VERTEX
  5
30AB
  8
0
 10
40.0530434638445669
 20
182.2517629263180936
 30
0.0
  0
VERTEX
  5
30AC
  8
0
 10
39.9824591644560101
 20
182.1640994348312006
 30
0.0
  0
VERTEX
  5
30AD
  8
0
 10
39.8983758638779875
 20
182.0814255996959901
 30
0.0
  0
VERTEX
  5
30AE
  8
0
 10
39.8115958359733781
 20
182.013610306611497
 30
0.0
  0
VERTEX
  5
30AF
  8
0
 10
39.6730934856079784
 20
181.9328681029062125
 30
0.0
  0
VERTEX
  5
30B0
  8
0
 10
39.5425445078121029
 20
181.881153040272892
 30
0.0
  0
VERTEX
  5
30B1
  8
0
 10
39.3650970449178885
 20
181.8419870769218107
 30
0.0
  0
VERTEX
  5
30B2
  8
0
 10
39.2251104173947169
 20
181.8345242230990948
 30
0.0
  0
VERTEX
  5
30B3
  8
0
 10
39.1719526180630169
 20
181.8367513440892083
 30
0.0
  0
SEQEND
  5
30B4
  8
0
  0
POLYLINE
  5
289F
  8
0
 66
     1
 10
0.0
 20
0.0
 30
0.0
  0
VERTEX
  5
30B5
  8
0
 10
39.0657075871080792
 20
181.7478995750219894
 30
0.0
  0
VERTEX
  5
30B6
  8
0
 10
39.0664016538629184
 20
181.7530049131310932
 30
0.0
  0
VERTEX
  5
30B7
  8
0
 10
39.0675682016634198
 20
181.759020922684897
 30
0.0
  0
VERTEX
  5
30B8
  8
0
 10
39.0699329710453185
 20
181.7676661159075877
 30
0.0
  0
VERTEX
  5
30B9
  8
0
 10
39.0805226828301002
 20
181.7903237357469095
 30
0.0
  0
VERTEX
  5
30BA
  8
0
 10
39.1033103381108802
 20
181.816127777026793
 30
0.0
  0
VERTEX
  5
30BB
  8
0
 10
39.129191906348332
 20
181.8303124111137947
 30
0.0
  0
VERTEX
  5
30BC
  8
0
 10
39.1719526180630169
 20
181.8367513440892083
 30
0.0
  0
SEQEND
  5
30BD
  8
0
  0
ARC
  5
28A0
  8
0
 10
49.9999950033378866
 20
180.5473796174954089
 30
0.0
 40
10.9999949758688906
 50
173.7343594261714088
 51
174.2656403459903913
  0
POLYLINE
  5
28A1
  8
0
 66
     1
 10
0.0
 20
0.0
 30
0.0
  0
VERTEX
  5
30BE
  8
0
 10
39.1404958677685215
 20
181.5374603572419119
 30
0.0
  0
VERTEX
  5
30BF
  8
0
 10
39.0913958885100499
 20
181.5589305426366877
 30
0.0
  0
VERTEX
  5
30C0
  8
0
 10
39.0754413129853404
 20
181.575292223729889
 30
0.0
  0
VERTEX
  5
30C1
  8
0
 10
39.0662662876352229
 20
181.5894920142021078
 30
0.0
  0
VERTEX
  5
30C2
  8
0
 10
39.0609202157707784
 20
181.601335669095505
 30
0.0
  0
VERTEX
  5
30C3
  8
0
 10
39.057800171972481
 20
181.6111633399899858
 30
0.0
  0
VERTEX
  5
30C4
  8
0
 10
39.0560129193087633
 20
181.6193998136085099
 30
0.0
  0
VERTEX
  5
30C5
  8
0
 10
39.0547358861450107
 20
181.630300011011002
 30
0.0
  0
VERTEX
  5
30C6
  8
0
 10
39.054546121768567
 20
181.6361031835999995
 30
0.0
  0
VERTEX
  5
30C7
  8
0
 10
39.0547007296629474
 20
181.6420390234875128
 30
0.0
  0
VERTEX
  5
30C8
  8
0
 10
39.055045871559571
 20
181.646460129526389
 30
0.0
  0
SEQEND
  5
30C9
  8
0
  0
POLYLINE
  5
28A2
  8
0
 66
     1
 10
0.0
 20
0.0
 30
0.0
  0
VERTEX
  5
30CA
  8
0
 10
39.1404958677685215
 20
181.5374603572419119
 30
0.0
  0
VERTEX
  5
30CB
  8
0
 10
39.2385052062858506
 20
181.5189533444365964
 30
0.0
  0
VERTEX
  5
30CC
  8
0
 10
39.3613440227589706
 20
181.4803156248972869
 30
0.0
  0
VERTEX
  5
30CD
  8
0
 10
39.5038591003494375
 20
181.4111649494647054
 30
0.0
  0
VERTEX
  5
30CE
  8
0
 10
39.6053272163634418
 20
181.3433646508617869
 30
0.0
  0
VERTEX
  5
30CF
  8
0
 10
39.7084631621820279
 20
181.253126885683713
 30
0.0
  0
VERTEX
  5
30D0
  8
0
 10
39.8090127106394505
 20
181.134963082254103
 30
0.0
  0
VERTEX
  5
30D1
  8
0
 10
39.8971111249140407
 20
180.9891840601054867
 30
0.0
  0
VERTEX
  5
30D2
  8
0
 10
39.9441556541514231
 20
180.8766581348698139
 30
0.0
  0
VERTEX
  5
30D3
  8
0
 10
39.9782794003450022
 20
180.7546697454195908
 30
0.0
  0
VERTEX
  5
30D4
  8
0
 10
39.9968320514347226
 20
180.6256070769757116
 30
0.0
  0
VERTEX
  5
30D5
  8
0
 10
39.99857582303963
 20
180.4940281256926937
 30
0.0
  0
VERTEX
  5
30D6
  8
0
 10
39.9845704745308126
 20
180.3728061761501067
 30
0.0
  0
VERTEX
  5
30D7
  8
0
 10
39.9567204282115824
 20
180.2563704631699864
 30
0.0
  0
VERTEX
  5
30D8
  8
0
 10
39.9159180747229811
 20
180.1461349886155006
 30
0.0
  0
VERTEX
  5
30D9
  8
0
 10
39.8650732596762793
 20
180.0457335447586047
 30
0.0
  0
VERTEX
  5
30DA
  8
0
 10
39.7999831770041226
 20
179.9474021639989871
 30
0.0
  0
VERTEX
  5
30DB
  8
0
 10
39.7291727114747815
 20
179.8630493787798912
 30
0.0
  0
VERTEX
  5
30DC
  8
0
 10
39.6104280821492125
 20
179.7552960576051078
 30
0.0
  0
VERTEX
  5
30DD
  8
0
 10
39.4934461492422315
 20
179.6776027430269096
 30
0.0
  0
VERTEX
  5
30DE
  8
0
 10
39.3279827344727479
 20
179.6024547306608099
 30
0.0
  0
VERTEX
  5
30DF
  8
0
 10
39.1926207165314509
 20
179.566105807473491
 30
0.0
  0
VERTEX
  5
30E0
  8
0
 10
39.1404958677685215
 20
179.5572978274076092
 30
0.0
  0
SEQEND
  5
30E1
  8
0
  0
POLYLINE
  5
28A3
  8
0
 66
     1
 10
0.0
 20
0.0
 30
0.0
  0
VERTEX
  5
30E2
  8
0
 10
39.0550458671890013
 20
179.4482980986466885
 30
0.0
  0
VERTEX
  5
30E3
  8
0
 10
39.0546632982961128
 20
179.4534363656713083
 30
0.0
  0
VERTEX
  5
30E4
  8
0
 10
39.0545535678440672
 20
179.4595635120259942
 30
0.0
  0
VERTEX
  5
30E5
  8
0
 10
39.0550692632991172
 20
179.4685116075451106
 30
0.0
  0
VERTEX
  5
30E6
  8
0
 10
39.0607171796606565
 20
179.4928766179911008
 30
0.0
  0
VERTEX
  5
30E7
  8
0
 10
39.0776431032274516
 20
179.5228553904005935
 30
0.0
  0
VERTEX
  5
30E8
  8
0
 10
39.1000116223360976
 20
179.5421113040058003
 30
0.0
  0
VERTEX
  5
30E9
  8
0
 10
39.1404958677685215
 20
179.5572978274076092
 30
0.0
  0
SEQEND
  5
30EA
  8
0
  0
ARC
  5
28A4
  8
0
 10
50.0000117263546073
 20
180.5473803248139859
 30
0.0
 40
11.0000117908199702
 50
185.7343598322372884
 51
186.2656399399172074
  0
POLYLINE
  5
28A5
  8
0
 66
     1
 10
0.0
 20
0.0
 30
0.0
  0
VERTEX
  5
30EB
  8
0
 10
39.1719526180630169
 20
179.2580068405603129
 30
0.0
  0
VERTEX
  5
30EC
  8
0
 10
39.1194604669261707
 20
179.2688000179915946
 30
0.0
  0
VERTEX
  5
30ED
  8
0
 10
39.1004532401117402
 20
179.2814870095774893
 30
0.0
  0
VERTEX
  5
30EE
  8
0
 10
39.0885266967744727
 20
179.2934688143969026
 30
0.0
  0
VERTEX
  5
30EF
  8
0
 10
39.0808351868843431
 20
179.3039420442212872
 30
0.0
  0
VERTEX
  5
30F0
  8
0
 10
39.0757401400111277
 20
179.3129061727049134
 30
0.0
  0
VERTEX
  5
30F1
  8
0
 10
39.0722795481049232
 20
179.320590994453795
 30
0.0
  0
VERTEX
  5
30F2
  8
0
 10
39.0687641869888296
 20
179.330987443291491
 30
0.0
  0
VERTEX
  5
30F3
  8
0
 10
39.067372044180587
 20
179.3366243087972975
 30
0.0
  0
VERTEX
  5
30F4
  8
0
 10
39.0662891603286369
 20
179.3424625412901889
 30
0.0
  0
VERTEX
  5
30F5
  8
0
 10
39.0657075823341202
 20
179.3468586531087112
 30
0.0
  0
SEQEND
  5
30F6
  8
0
  0
POLYLINE
  5
28A6
  8
0
 66
     1
 10
0.0
 20
0.0
 30
0.0
  0
VERTEX
  5
30F7
  8
0
 10
39.1719526180630169
 20
179.2580068405603129
 30
0.0
  0
VERTEX
  5
30F8
  8
0
 10
39.2716684579716926
 20
179.2602815307656954
 30
0.0
  0
VERTEX
  5
30F9
  8
0
 10
39.3998568017030379
 20
179.2480276115817901
 30
0.0
  0
VERTEX
  5
30FA
  8
0
 10
39.5536355839439295
 20
179.2100181607887066
 30
0.0
  0
VERTEX
  5
30FB
  8
0
 10
39.6669827721730996
 20
179.1647956513187978
 30
0.0
  0
VERTEX
  5
30FC
  8
0
 10
39.7866262771145216
 20
179.0979727607827954
 30
0.0
  0
VERTEX
  5
30FD
  8
0
 10
39.9095459616824328
 20
179.0032963846954033
 30
0.0
  0
VERTEX
  5
30FE
  8
0
 10
40.0260280533249997
 20
178.8790196027445916
 30
0.0
  0
VERTEX
  5
30FF
  8
0
 10
40.0954398380983079
 20
178.7787336431462109
 30
0.0
  0
VERTEX
  5
3100
  8
0
 10
40.1541805199844006
 20
178.6665056552407123
 30
0.0
  0
VERTEX
  5
3101
  8
0
 10
40.199161181250382
 20
178.544120619541502
 30
0.0
  0
VERTEX
  5
3102
  8
0
 10
40.2282234447682114
 20
178.4157795774644057
 30
0.0
  0
VERTEX
  5
3103
  8
0
 10
40.2397274357847721
 20
178.294294768982013
 30
0.0
  0
VERTEX
  5
3104
  8
0
 10
40.23669416806149
 20
178.1746131679653899
 30
0.0
  0
VERTEX
  5
3105
  8
0
 10
40.2197025387954383
 20
178.058303348677498
 30
0.0
  0
VERTEX
  5
3106
  8
0
 10
40.1908433062005486
 20
177.9495247465299883
 30
0.0
  0
VERTEX
  5
3107
  8
0
 10
40.1476196971439379
 20
177.8398091952323909
 30
0.0
  0
VERTEX
  5
3108
  8
0
 10
40.0958944175672798
 20
177.7425774660227091
 30
0.0
  0
VERTEX
  5
3109
  8
0
 10
40.0021475809516502
 20
177.6124904513426088
 30
0.0
  0
VERTEX
  5
310A
  8
0
 10
39.9038751549517769
 20
177.5121731136486005
 30
0.0
  0
VERTEX
  5
310B
  8
0
 10
39.7576514731441719
 20
177.4042656745372142
 30
0.0
  0
VERTEX
  5
310C
  8
0
 10
39.6328048146958167
 20
177.340567946743505
 30
0.0
  0
VERTEX
  5
310D
  8
0
 10
39.5836515577348393
 20
177.3211156129399058
 30
0.0
  0
SEQEND
  5
310E
  8
0
  0
POLYLINE
  5
28A7
  8
0
 66
     1
 10
0.0
 20
0.0
 30
0.0
  0
VERTEX
  5
310F
  8
0
 10
39.5227311625906168
 20
177.1967317356707952
 30
0.0
  0
VERTEX
  5
3110
  8
0
 10
39.5212914736991081
 20
177.2016674723658127
 30
0.0
  0
VERTEX
  5
3111
  8
0
 10
39.5199102856147135
 20
177.2076341934260881
 30
0.0
  0
VERTEX
  5
3112
  8
0
 10
39.5185539970341893
 20
177.2164844637370038
 30
0.0
  0
VERTEX
  5
3113
  8
0
 10
39.5189994512388125
 20
177.241441132452195
 30
0.0
  0
VERTEX
  5
3114
  8
0
 10
39.5292636947888525
 20
177.2742238622388129
 30
0.0
  0
VERTEX
  5
3115
  8
0
 10
39.5470458230380828
 20
177.297679527060609
 30
0.0
  0
VERTEX
  5
3116
  8
0
 10
39.5836515577348393
 20
177.3211156129399058
 30
0.0
  0
SEQEND
  5
3117
  8
0
  0
ARC
  5
28A8
  8
0
 10
50.0000142029004166
 20
180.5473837071266132
 30
0.0
 40
11.0000149336527393
 50
197.7343599081339107
 51
198.2656398640216082
  0
POLYLINE
  5
28A9
  8
0
 66
     1
 10
0.0
 20
0.0
 30
0.0
  0
VERTEX
  5
3118
  8
0
 10
39.6766469976842302
 20
177.0349050783752887
 30
0.0
  0
VERTEX
  5
3119
  8
0
 10
39.623064616459402
 20
177.0345468468995875
 30
0.0
  0
VERTEX
  5
311A
  8
0
 10
39.6018343236862904
 20
177.0430033255487956
 30
0.0
  0
VERTEX
  5
311B
  8
0
 10
39.5876768853077294
 20
177.052242439804786
 30
0.0
  0
VERTEX
  5
311C
  8
0
 10
39.5779756166173016
 20
177.0608866456630039
 30
0.0
  0
VERTEX
  5
311D
  8
0
 10
39.571127839594908
 20
177.068594705195693
 30
0.0
  0
VERTEX
  5
311E
  8
0
 10
39.5661448036096317
 20
177.0753913233531875
 30
0.0
  0
VERTEX
  5
311F
  8
0
 10
39.5605454127737133
 20
177.0848263434209002
 30
0.0
  0
VERTEX
  5
3120
  8
0
 10
39.5580112456153188
 20
177.0900499765714073
 30
0.0
  0
VERTEX
  5
3121
  8
0
 10
39.5557361479462202
 20
177.0955388272170126
 30
0.0
  0
VERTEX
  5
3122
  8
0
 10
39.5542503403169405
 20
177.0997256806209919
 30
0.0
  0
SEQEND
  5
3123
  8
0
  0
POLYLINE
  5
28AA
  8
0
 66
     1
 10
0.0
 20
0.0
 30
0.0
  0
VERTEX
  5
3124
  8
0
 10
39.6766469976842302
 20
177.0349050783752887
 30
0.0
  0
VERTEX
  5
3125
  8
0
 10
39.7737088648172801
 20
177.0578617579676859
 30
0.0
  0
VERTEX
  5
3126
  8
0
 10
39.9016405997143693
 20
177.0725275749514935
 30
0.0
  0
VERTEX
  5
3127
  8
0
 10
40.0599574248620769
 20
177.067322431966403
 30
0.0
  0
VERTEX
  5
3128
  8
0
 10
40.1802301591281434
 20
177.0466554768233038
 30
0.0
  0
VERTEX
  5
3129
  8
0
 10
40.3111529820850407
 20
177.0061692626273953
 30
0.0
  0
VERTEX
  5
312A
  8
0
 10
40.4510719438885005
 20
176.9391192666977872
 30
0.0
  0
VERTEX
  5
312B
  8
0
 10
40.5908487019205992
 20
176.8417768936064931
 30
0.0
  0
VERTEX
  5
312C
  8
0
 10
40.6795949786683408
 20
176.7581146090136031
 30
0.0
  0
VERTEX
  5
312D
  8
0
 10
40.7603863993348767
 20
176.6605524452461111
 30
0.0
  0
VERTEX
  5
312E
  8
0
 10
40.8298303927676329
 20
176.5501940781076087
 30
0.0
  0
VERTEX
  5
312F
  8
0
 10
40.8849422069999093
 20
176.4306999829194069
 30
0.0
  0
VERTEX
  5
3130
  8
0
 10
40.9214537709903823
 20
176.3142617718974066
 30
0.0
  0
VERTEX
  5
3131
  8
0
 10
40.9433708132278582
 20
176.1965647099266903
 30
0.0
  0
VERTEX
  5
3132
  8
0
 10
40.9509334118004631
 20
176.0792637794571931
 30
0.0
  0
VERTEX
  5
3133
  8
0
 10
40.9453218656133728
 20
175.966861922560696
 30
0.0
  0
VERTEX
  5
3134
  8
0
 10
40.9258546792887614
 20
175.850557171343695
 30
0.0
  0
VERTEX
  5
3135
  8
0
 10
40.8954759950312621
 20
175.7446956927628037
 30
0.0
  0
VERTEX
  5
3136
  8
0
 10
40.8308255398571305
 20
175.5979604047402063
 30
0.0
  0
VERTEX
  5
3137
  8
0
 10
40.7555587073020433
 20
175.4794029414080114
 30
0.0
  0
VERTEX
  5
3138
  8
0
 10
40.634966686125118
 20
175.3434512200743995
 30
0.0
  0
VERTEX
  5
3139
  8
0
 10
40.5260919231133627
 20
175.2551872453223041
 30
0.0
  0
VERTEX
  5
313A
  8
0
 10
40.482051657813507
 20
175.2259365938510882
 30
0.0
  0
SEQEND
  5
313B
  8
0
  0
POLYLINE
  5
28AB
  8
0
 66
     1
 10
0.0
 20
0.0
 30
0.0
  0
VERTEX
  5
313C
  8
0
 10
40.4483233817009022
 20
175.0916047403707125
 30
0.0
  0
VERTEX
  5
313D
  8
0
 10
40.4459002486676411
 20
175.0961109312592043
 30
0.0
  0
VERTEX
  5
313E
  8
0
 10
40.44331054528962
 20
175.1016519176841086
 30
0.0
  0
VERTEX
  5
313F
  8
0
 10
40.4401476218406799
 20
175.1100056814273955
 30
0.0
  0
VERTEX
  5
3140
  8
0
 10
40.4353889659606978
 20
175.1343928126308924
 30
0.0
  0
VERTEX
  5
3141
  8
0
 10
40.4385119886693403
 20
175.1684333566230123
 30
0.0
  0
VERTEX
  5
3142
  8
0
 10
40.4508368817580219
 20
175.1949627372696057
 30
0.0
  0
VERTEX
  5
3143
  8
0
 10
40.482051657813507
 20
175.2259365938510882
 30
0.0
  0
SEQEND
  5
3144
  8
0
  0
ARC
  5
28AC
  8
0
 10
49.9999927775747608
 20
180.5473749224557025
 30
0.0
 40
10.9999916603514194
 50
209.734359346102508
 51
210.2656404260565921
  0
POLYLINE
  5
28AD
  8
0
 66
     1
 10
0.0
 20
0.0
 30
0.0
  0
VERTEX
  5
3145
  8
0
 10
40.6325214404503683
 20
174.9653152853202016
 30
0.0
  0
VERTEX
  5
3146
  8
0
 10
40.5802014042069388
 20
174.9538235444306054
 30
0.0
  0
VERTEX
  5
3147
  8
0
 10
40.5576756253939266
 20
174.957677540808703
 30
0.0
  0
VERTEX
  5
3148
  8
0
 10
40.5419060935498408
 20
174.9637684551867096
 30
0.0
  0
VERTEX
  5
3149
  8
0
 10
40.5306191338318271
 20
174.9702044321446976
 30
0.0
  0
VERTEX
  5
314A
  8
0
 10
40.5223179664997417
 20
174.9763183247796974
 30
0.0
  0
VERTEX
  5
314B
  8
0
 10
40.5160303380400819
 20
174.981928594732608
 30
0.0
  0
VERTEX
  5
314C
  8
0
 10
40.50859470348842
 20
174.989986231800998
 30
0.0
  0
VERTEX
  5
314D
  8
0
 10
40.5050290651380678
 20
174.9945673013278906
 30
0.0
  0
VERTEX
  5
314E
  8
0
 10
40.5010136840512516
 20
175.0004793021518026
 30
0.0
  0
VERTEX
  5
314F
  8
0
 10
40.4993224826960088
 20
175.0032717059011986
 30
0.0
  0
SEQEND
  5
3150
  8
0
  0
POLYLINE
  5
28AE
  8
0
 66
     1
 10
0.0
 20
0.0
 30
0.0
  0
VERTEX
  5
3151
  8
0
 10
42.0005385649097889
 20
173.6452851117562091
 30
0.0
  0
VERTEX
  5
3152
  8
0
 10
41.9215827212204317
 20
173.5100842187218007
 30
0.0
  0
VERTEX
  5
3153
  8
0
 10
41.8334392769681003
 20
173.4011101181758931
 30
0.0
  0
VERTEX
  5
3154
  8
0
 10
41.7964317726291199
 20
173.3633301470597985
 30
0.0
  0
SEQEND
  5
3155
  8
0
  0
POLYLINE
  5
28AF
  8
0
 66
     1
 10
0.0
 20
0.0
 30
0.0
  0
VERTEX
  5
3156
  8
0
 10
40.6325214404503683
 20
174.9653152853202016
 30
0.0
  0
VERTEX
  5
3157
  8
0
 10
40.7226847067305826
 20
175.0079486442947996
 30
0.0
  0
VERTEX
  5
3158
  8
0
 10
40.8447641167879212
 20
175.0488911423373963
 30
0.0
  0
VERTEX
  5
3159
  8
0
 10
41.0006930036286121
 20
175.0767166805898114
 30
0.0
  0
VERTEX
  5
315A
  8
0
 10
41.1226342141453287
 20
175.0815102395239933
 30
0.0
  0
VERTEX
  5
315B
  8
0
 10
41.2591143595611811
 20
175.0691321714054141
 30
0.0
  0
VERTEX
  5
315C
  8
0
 10
41.4099182008079083
 20
175.032641172022096
 30
0.0
  0
VERTEX
  5
315D
  8
0
 10
41.5668823255761026
 20
174.9664895532933997
 30
0.0
  0
VERTEX
  5
315E
  8
0
 10
41.671084945303221
 20
174.9031088160076877
 30
0.0
  0
VERTEX
  5
315F
  8
0
 10
41.7703969807838291
 20
174.824477727645899
 30
0.0
  0
VERTEX
  5
3160
  8
0
 10
41.8612704838748684
 20
174.7309702898492958
 30
0.0
  0
VERTEX
  5
3161
  8
0
 10
41.9400246496766727
 20
174.6255463473345912
 30
0.0
  0
VERTEX
  5
3162
  8
0
 10
41.9999492245062811
 20
174.5192443207702127
 30
0.0
  0
VERTEX
  5
3163
  8
0
 10
42.0000767216059216
 20
174.519148301834889
 30
0.0
  0
SEQEND
  5
3164
  8
0
  0
POLYLINE
  5
28B0
  8
0
 66
     1
 10
0.0
 20
0.0
 30
0.0
  0
VERTEX
  5
3165
  8
0
 10
41.7913697002042497
 20
173.2249212671628129
 30
0.0
  0
VERTEX
  5
3166
  8
0
 10
41.7880916748688591
 20
173.2287890838705096
 30
0.0
  0
VERTEX
  5
3167
  8
0
 10
41.7844129900849168
 20
173.2336565395696084
 30
0.0
  0
VERTEX
  5
3168
  8
0
 10
41.7795972806277405
 20
173.2411336088262885
 30
0.0
  0
VERTEX
  5
3169
  8
0
 10
41.7699072861261911
 20
173.2637868299997024
 30
0.0
  0
VERTEX
  5
316A
  8
0
 10
41.7657664609102426
 20
173.2974078872269956
 30
0.0
  0
VERTEX
  5
316B
  8
0
 10
41.772008565204878
 20
173.325647557825107
 30
0.0
  0
VERTEX
  5
316C
  8
0
 10
41.7964317726291199
 20
173.3633301470597985
 30
0.0
  0
SEQEND
  5
316D
  8
0
  0
ARC
  5
28B1
  8
0
 10
49.9999926797626131
 20
180.5473725011534896
 30
0.0
 40
10.9999901497549502
 50
221.7343592872734916
 51
222.265640462535913
  0
POLYLINE
  5
28B2
  8
0
 66
     1
 10
0.0
 20
0.0
 30
0.0
  0
VERTEX
  5
316E
  8
0
 10
41.9977996464180805
 20
173.1396884663450919
 30
0.0
  0
VERTEX
  5
316F
  8
0
 10
41.949043658771437
 20
173.117574805682807
 30
0.0
  0
VERTEX
  5
3170
  8
0
 10
41.9262077789802277
 20
173.1166540388746
 30
0.0
  0
VERTEX
  5
3171
  8
0
 10
41.909516412325182
 20
173.1193279053630079
 30
0.0
  0
VERTEX
  5
3172
  8
0
 10
41.8971379673155226
 20
173.1232722023314068
 30
0.0
  0
VERTEX
  5
3173
  8
0
 10
41.8877469814384469
 20
173.1275228430365871
 30
0.0
  0
VERTEX
  5
3174
  8
0
 10
41.8804302734744169
 20
173.131699881692299
 30
0.0
  0
VERTEX
  5
3175
  8
0
 10
41.8714900759286195
 20
173.1380239723268915
 30
0.0
  0
VERTEX
  5
3176
  8
0
 10
41.867049038188128
 20
173.1417605465161955
 30
0.0
  0
VERTEX
  5
3177
  8
0
 10
41.8618896757098398
 20
173.146705974675001
 30
0.0
  0
VERTEX
  5
3178
  8
0
 10
41.8596198218900497
 20
173.1491218275471056
 30
0.0
  0
SEQEND
  5
3179
  8
0
  0
POLYLINE
  5
28B3
  8
0
 66
     1
 10
0.0
 20
0.0
 30
0.0
  0
VERTEX
  5
317A
  8
0
 10
45.3501956653606726
 20
171.5475664878298119
 30
0.0
  0
VERTEX
  5
317B
  8
0
 10
45.3669239757349985
 20
171.51954003860169
 30
0.0
  0
VERTEX
  5
317C
  8
0
 10
45.4195466431194674
 20
171.414011026251103
 30
0.0
  0
VERTEX
  5
317D
  8
0
 10
45.457203737319702
 20
171.3105145868360921
 30
0.0
  0
VERTEX
  5
317E
  8
0
 10
45.4911633087306981
 20
171.1538143363621032
 30
0.0
  0
VERTEX
  5
317F
  8
0
 10
45.4999723506143923
 20
171.0136633877513077
 30
0.0
  0
VERTEX
  5
3180
  8
0
 10
45.4823420356265729
 20
170.8327951378217051
 30
0.0
  0
VERTEX
  5
3181
  8
0
 10
45.4461533545739087
 20
170.6973808998822051
 30
0.0
  0
VERTEX
  5
3182
  8
0
 10
45.427683461113503
 20
170.6477320088517047
 30
0.0
  0
SEQEND
  5
3183
  8
0
  0
POLYLINE
  5
28B4
  8
0
 66
     1
 10
0.0
 20
0.0
 30
0.0
  0
VERTEX
  5
3184
  8
0
 10
45.4793549885901314
 20
170.5192302760767973
 30
0.0
  0
VERTEX
  5
3185
  8
0
 10
45.4747337437412114
 20
170.521457858426686
 30
0.0
  0
VERTEX
  5
3186
  8
0
 10
45.4693782613960806
 20
170.5244214526298947
 30
0.0
  0
VERTEX
  5
3187
  8
0
 10
45.4619006925592828
 20
170.5293288091257011
 30
0.0
  0
VERTEX
  5
3188
  8
0
 10
45.4436813087723976
 20
170.5463149000368048
 30
0.0
  0
VERTEX
  5
3189
  8
0
 10
45.4261925652264367
 20
170.5757932747320069
 30
0.0
  0
VERTEX
  5
318A
  8
0
 10
45.4206192198031928
 20
170.6046112591299106
 30
0.0
  0
VERTEX
  5
318B
  8
0
 10
45.427683461113503
 20
170.6477320088517047
 30
0.0
  0
SEQEND
  5
318C
  8
0
  0
ARC
  5
28B5
  8
0
 10
50.0000057298149088
 20
180.5473919616993896
 30
0.0
 40
11.0000140871330796
 50
245.7343598514324015
 51
246.265639884463809
  0
POLYLINE
  5
28B6
  8
0
 66
     1
 10
0.0
 20
0.0
 30
0.0
  0
VERTEX
  5
318D
  8
0
 10
45.7026054339942505
 20
170.5253288603036026
 30
0.0
  0
VERTEX
  5
318E
  8
0
 10
45.6670292598184631
 20
170.4852769304789035
 30
0.0
  0
VERTEX
  5
318F
  8
0
 10
45.6465384020652891
 20
170.4751547899427067
 30
0.0
  0
VERTEX
  5
3190
  8
0
 10
45.6301987232749298
 20
170.4708139237515923
 30
0.0
  0
VERTEX
  5
3191
  8
0
 10
45.6172830395841729
 20
170.4693872328518012
 30
0.0
  0
VERTEX
  5
3192
  8
0
 10
45.6069725293350814
 20
170.4694550528776062
 30
0.0
  0
VERTEX
  5
3193
  8
0
 10
45.5985872282131197
 20
170.4702989724790996
 30
0.0
  0
VERTEX
  5
3194
  8
0
 10
45.5878314127872315
 20
170.4724493647794077
 30
0.0
  0
VERTEX
  5
3195
  8
0
 10
45.5822537097363281
 20
170.4740606912081944
 30
0.0
  0
VERTEX
  5
3196
  8
0
 10
45.576648521344417
 20
170.4760434253043968
 30
0.0
  0
VERTEX
  5
3197
  8
0
 10
45.5725349892905669
 20
170.4777438666106093
 30
0.0
  0
SEQEND
  5
3198
  8
0
  0
POLYLINE
  5
28B7
  8
0
 66
     1
 10
0.0
 20
0.0
 30
0.0
  0
VERTEX
  5
3199
  8
0
 10
45.7026054339942505
 20
170.5253288603036026
 30
0.0
  0
VERTEX
  5
319A
  8
0
 10
45.7504577255523373
 20
170.6127631410942058
 30
0.0
  0
VERTEX
  5
319B
  8
0
 10
45.8250907126035472
 20
170.7175742573838022
 30
0.0
  0
VERTEX
  5
319C
  8
0
 10
45.9347706588810922
 20
170.8316712937730131
 30
0.0
  0
VERTEX
  5
319D
  8
0
 10
46.0305834124004889
 20
170.9072513732853054
 30
0.0
  0
VERTEX
  5
319E
  8
0
 10
46.1482590501490506
 20
170.9774944070792912
 30
0.0
  0
VERTEX
  5
319F
  8
0
 10
46.2917086154221522
 20
171.0366575414743124
 30
0.0
  0
VERTEX
  5
31A0
  8
0
 10
46.4575932077466902
 20
171.0754483109768103
 30
0.0
  0
VERTEX
  5
31A1
  8
0
 10
46.5791480239229472
 20
171.0854499836451907
 30
0.0
  0
VERTEX
  5
31A2
  8
0
 10
46.7057174315970585
 20
171.0802397272562985
 30
0.0
  0
VERTEX
  5
31A3
  8
0
 10
46.8342122595515207
 20
171.0580323237662128
 30
0.0
  0
VERTEX
  5
31A4
  8
0
 10
46.9599132446721228
 20
171.0190564319971998
 30
0.0
  0
VERTEX
  5
31A5
  8
0
 10
47.0708922499213074
 20
170.9682993243287967
 30
0.0
  0
VERTEX
  5
31A6
  8
0
 10
47.1730450798166316
 20
170.9058491869930947
 30
0.0
  0
VERTEX
  5
31A7
  8
0
 10
47.2652935488614503
 20
170.8329979325802128
 30
0.0
  0
VERTEX
  5
31A8
  8
0
 10
47.3450887848139814
 20
170.7536298921071136
 30
0.0
  0
VERTEX
  5
31A9
  8
0
 10
47.4185115337645584
 20
170.6613567229152864
 30
0.0
  0
VERTEX
  5
31AA
  8
0
 10
47.4768742117093723
 20
170.5679574356327919
 30
0.0
  0
VERTEX
  5
31AB
  8
0
 10
47.5426842228961206
 20
170.4217581831935888
 30
0.0
  0
VERTEX
  5
31AC
  8
0
 10
47.5804550128438777
 20
170.2865101164294117
 30
0.0
  0
VERTEX
  5
31AD
  8
0
 10
47.6008365918237004
 20
170.1059348086502894
 30
0.0
  0
VERTEX
  5
31AE
  8
0
 10
47.5936096317491533
 20
169.9659451814522981
 30
0.0
  0
VERTEX
  5
31AF
  8
0
 10
47.5858519113166665
 20
169.9134249869603082
 30
0.0
  0
SEQEND
  5
31B0
  8
0
  0
POLYLINE
  5
28B8
  8
0
 66
     1
 10
0.0
 20
0.0
 30
0.0
  0
VERTEX
  5
31B1
  8
0
 10
47.6631113008189899
 20
169.7984744407968094
 30
0.0
  0
VERTEX
  5
31B2
  8
0
 10
47.6581105601852002
 20
169.7996972492551038
 30
0.0
  0
VERTEX
  5
31B3
  8
0
 10
47.65225068099911
 20
169.8014855588332068
 30
0.0
  0
VERTEX
  5
31B4
  8
0
 10
47.6439031127942201
 20
169.8047391314806873
 30
0.0
  0
VERTEX
  5
31B5
  8
0
 10
47.6224905709124471
 20
169.8176252508974073
 30
0.0
  0
VERTEX
  5
31B6
  8
0
 10
47.5992184301854024
 20
169.8429544412404937
 30
0.0
  0
VERTEX
  5
31B7
  8
0
 10
47.5878088515114186
 20
169.870140113697687
 30
0.0
  0
VERTEX
  5
31B8
  8
0
 10
47.5858519113166665
 20
169.9134249869603082
 30
0.0
  0
SEQEND
  5
31B9
  8
0
  0
ARC
  5
28B9
  8
0
 10
50.0000034514432912
 20
180.547395330088591
 30
0.0
 40
11.0000166003467399
 50
257.7343598926195227
 51
258.265639823772517
  0
POLYLINE
  5
28BA
  8
0
 66
     1
 10
0.0
 20
0.0
 30
0.0
  0
VERTEX
  5
31BA
  8
0
 10
47.8802152250550179
 20
169.8508561331103124
 30
0.0
  0
VERTEX
  5
31BB
  8
0
 10
47.8537330289147107
 20
169.8042720777810928
 30
0.0
  0
VERTEX
  5
31BC
  8
0
 10
47.8357934684772701
 20
169.7901142628481068
 30
0.0
  0
VERTEX
  5
31BD
  8
0
 10
47.8207125630527372
 20
169.7824732187208951
 30
0.0
  0
VERTEX
  5
31BE
  8
0
 10
47.8083750905811868
 20
169.7783940201825033
 30
0.0
  0
VERTEX
  5
31BF
  8
0
 10
47.798275227234079
 20
169.7763180129840919
 30
0.0
  0
VERTEX
  5
31C0
  8
0
 10
47.7898971608959968
 20
169.7754012235454866
 30
0.0
  0
VERTEX
  5
31C1
  8
0
 10
47.7789243311966914
 20
169.7752701450322945
 30
0.0
  0
VERTEX
  5
31C2
  8
0
 10
47.7731331782488269
 20
169.7756877456068025
 30
0.0
  0
VERTEX
  5
31C3
  8
0
 10
47.7672445417293829
 20
169.7764619314694983
 30
0.0
  0
VERTEX
  5
31C4
  8
0
 10
47.7628806081380333
 20
169.7772678196147069
 30
0.0
  0
SEQEND
  5
31C5
  8
0
  0
POLYLINE
  5
28BB
  8
0
 66
     1
 10
0.0
 20
0.0
 30
0.0
  0
VERTEX
  5
31C6
  8
0
 10
47.8802152250550179
 20
169.8508561331103124
 30
0.0
  0
VERTEX
  5
31C7
  8
0
 10
47.9088105591298188
 20
169.9462336719473967
 30
0.0
  0
VERTEX
  5
31C8
  8
0
 10
47.9599401631508613
 20
170.0641412028313084
 30
0.0
  0
VERTEX
  5
31C9
  8
0
 10
48.0433443422373898
 20
170.1984047626690142
 30
0.0
  0
VERTEX
  5
31CA
  8
0
 10
48.1213054185648232
 20
170.2922886297988043
 30
0.0
  0
VERTEX
  5
31CB
  8
0
 10
48.2217698335379126
 20
170.3855148308387015
 30
0.0
  0
VERTEX
  5
31CC
  8
0
 10
48.3497655889382827
 20
170.4732797791731116
 30
0.0
  0
VERTEX
  5
31CD
  8
0
 10
48.5039680060714602
 20
170.5457920018224058
 30
0.0
  0
VERTEX
  5
31CE
  8
0
 10
48.6207755663114085
 20
170.5808931329721077
 30
0.0
  0
VERTEX
  5
31CF
  8
0
 10
48.7456621096410103
 20
170.6021605242472106
 30
0.0
  0
VERTEX
  5
31D0
  8
0
 10
48.8759795279798865
 20
170.6072023120277095
 30
0.0
  0
VERTEX
  5
31D1
  8
0
 10
49.0070623017349192
 20
170.5952566461010065
 30
0.0
  0
VERTEX
  5
31D2
  8
0
 10
49.126187967862279
 20
170.5687199265163088
 30
0.0
  0
VERTEX
  5
31D3
  8
0
 10
49.2391187328946387
 20
170.5289047804475047
 30
0.0
  0
VERTEX
  5
31D4
  8
0
 10
49.3445164218635668
 20
170.4768568480398017
 30
0.0
  0
VERTEX
  5
31D5
  8
0
 10
49.439093315240541
 20
170.4158394798884046
 30
0.0
  0
VERTEX
  5
31D6
  8
0
 10
49.5301166803512771
 20
170.3408781734021886
 30
0.0
  0
VERTEX
  5
31D7
  8
0
 10
49.6066477564856427
 20
170.2616772166850865
 30
0.0
  0
VERTEX
  5
31D8
  8
0
 10
49.701441808927278
 20
170.1324073662686089
 30
0.0
  0
VERTEX
  5
31D9
  8
0
 10
49.7665437132856709
 20
170.0080008266627942
 30
0.0
  0
VERTEX
  5
31DA
  8
0
 10
49.8240807083384993
 20
169.8356388268101966
 30
0.0
  0
VERTEX
  5
31DB
  8
0
 10
49.846169365028878
 20
169.6971867632719864
 30
0.0
  0
VERTEX
  5
31DC
  8
0
 10
49.8495302173630819
 20
169.6438727868464866
 30
0.0
  0
SEQEND
  5
31DD
  8
0
  0
POLYLINE
  5
28BC
  8
0
 66
     1
 10
0.0
 20
0.0
 30
0.0
  0
VERTEX
  5
31DE
  8
0
 10
49.94900086625222
 20
169.5474973162166066
 30
0.0
  0
VERTEX
  5
31DF
  8
0
 10
49.9485557467309604
 20
169.5475003708909014
 30
0.0
  0
VERTEX
  5
31E0
  8
0
 10
49.9435421179158183
 20
169.5476717711891865
 30
0.0
  0
VERTEX
  5
31E1
  8
0
 10
49.9353035860613303
 20
169.5485039832371967
 30
0.0
  0
VERTEX
  5
31E2
  8
0
 10
49.9289280069198682
 20
169.5496277046254932
 30
0.0
  0
VERTEX
  5
31E3
  8
0
 10
49.9178093228656223
 20
169.5526387339743906
 30
0.0
  0
VERTEX
  5
31E4
  8
0
 10
49.9084872562182227
 20
169.556277484901301
 30
0.0
  0
VERTEX
  5
31E5
  8
0
 10
49.8657513735963391
 20
169.5927961103529071
 30
0.0
  0
VERTEX
  5
31E6
  8
0
 10
49.8495302173630819
 20
169.6438727868464866
 30
0.0
  0
SEQEND
  5
31E7
  8
0
  0
ARC
  5
28BD
  8
0
 10
50.0000000000000284
 20
180.5473754938975048
 30
0.0
 40
10.9999964016114298
 50
269.7343594048348905
 51
270.2656403115570924
  0
POLYLINE
  5
28BE
  8
0
 66
     1
 10
0.0
 20
0.0
 30
0.0
  0
VERTEX
  5
31E8
  8
0
 10
50.1504697826367973
 20
169.6438727868464866
 30
0.0
  0
VERTEX
  5
31E9
  8
0
 10
50.1342486264035188
 20
169.5927961103529071
 30
0.0
  0
VERTEX
  5
31EA
  8
0
 10
50.0915127437816565
 20
169.556277484901301
 30
0.0
  0
VERTEX
  5
31EB
  8
0
 10
50.0821906771342285
 20
169.5526387339743906
 30
0.0
  0
VERTEX
  5
31EC
  8
0
 10
50.0710719930799826
 20
169.5496277046254932
 30
0.0
  0
VERTEX
  5
31ED
  8
0
 10
50.0646964139385204
 20
169.5485039832371967
 30
0.0
  0
VERTEX
  5
31EE
  8
0
 10
50.0564578820840325
 20
169.5476717711891865
 30
0.0
  0
VERTEX
  5
31EF
  8
0
 10
50.0514442532688903
 20
169.5475003708909014
 30
0.0
  0
VERTEX
  5
31F0
  8
0
 10
50.0509990792996788
 20
169.5474973159641081
 30
0.0
  0
SEQEND
  5
31F1
  8
0
  0
POLYLINE
  5
28BF
  8
0
 66
     1
 10
0.0
 20
0.0
 30
0.0
  0
VERTEX
  5
31F2
  8
0
 10
50.1504697826367973
 20
169.6438727868464866
 30
0.0
  0
VERTEX
  5
31F3
  8
0
 10
50.1586307081479887
 20
169.7432802348251073
 30
0.0
  0
VERTEX
  5
31F4
  8
0
 10
50.1842168777820916
 20
169.8694855990077883
 30
0.0
  0
VERTEX
  5
31F5
  8
0
 10
50.2380924826228465
 20
170.0184490552603052
 30
0.0
  0
VERTEX
  5
31F6
  8
0
 10
50.2949153121611516
 20
170.1264482533761111
 30
0.0
  0
VERTEX
  5
31F7
  8
0
 10
50.3738783335043578
 20
170.2384514045486128
 30
0.0
  0
VERTEX
  5
31F8
  8
0
 10
50.4808846982314208
 20
170.3508012867436889
 30
0.0
  0
VERTEX
  5
31F9
  8
0
 10
50.6166563812917403
 20
170.453654742889114
 30
0.0
  0
VERTEX
  5
31FA
  8
0
 10
50.7236484901882179
 20
170.5122035066800095
 30
0.0
  0
VERTEX
  5
31FB
  8
0
 10
50.8414017641962701
 20
170.5588913381172915
 30
0.0
  0
VERTEX
  5
31FC
  8
0
 10
50.9678181184879122
 20
170.5908328247477073
 30
0.0
  0
VERTEX
  5
31FD
  8
0
 10
51.0984939143844414
 20
170.6063205459126095
 30
0.0
  0
VERTEX
  5
31FE
  8
0
 10
51.2205157010631069
 20
170.6050628591767975
 30
0.0
  0
VERTEX
  5
31FF
  8
0
 10
51.3392245934267422
 20
170.5895360407157
 30
0.0
  0
VERTEX
  5
3200
  8
0
 10
51.4531211359142375
 20
170.5604797744539098
 30
0.0
  0
VERTEX
  5
3201
  8
0
 10
51.5582872097275526
 20
170.5204081476684905
 30
0.0
  0
VERTEX
  5
3202
  8
0
 10
51.6628836176594177
 20
170.4659528930768886
 30
0.0
  0
VERTEX
  5
3203
  8
0
 10
51.7541759191875599
 20
170.4043474611702038
 30
0.0
  0
VERTEX
  5
3204
  8
0
 10
51.8737510776435613
 20
170.2975163320105025
 30
0.0
  0
VERTEX
  5
3205
  8
0
 10
51.9632465738563667
 20
170.1892961986148123
 30
0.0
  0
VERTEX
  5
3206
  8
0
 10
52.0552783021012928
 20
170.0325941089500077
 30
0.0
  0
VERTEX
  5
3207
  8
0
 10
52.1055770069491189
 20
169.9017731552112025
 30
0.0
  0
VERTEX
  5
3208
  8
0
 10
52.1197847749448329
 20
169.8508561331103124
 30
0.0
  0
SEQEND
  5
3209
  8
0
  0
POLYLINE
  5
28C0
  8
0
 66
     1
 10
0.0
 20
0.0
 30
0.0
  0
VERTEX
  5
320A
  8
0
 10
52.2371194000177397
 20
169.7772678213088113
 30
0.0
  0
VERTEX
  5
320B
  8
0
 10
52.2320532687586976
 20
169.7763508680812095
 30
0.0
  0
VERTEX
  5
320C
  8
0
 10
52.2259725285178078
 20
169.7756011520326922
 30
0.0
  0
VERTEX
  5
320D
  8
0
 10
52.2170230356804765
 20
169.7751782127230911
 30
0.0
  0
VERTEX
  5
320E
  8
0
 10
52.1922190963208195
 20
169.7782415173161041
 30
0.0
  0
VERTEX
  5
320F
  8
0
 10
52.1606551357530819
 20
169.7919170588384077
 30
0.0
  0
VERTEX
  5
3210
  8
0
 10
52.1391739971331631
 20
169.8121144083764023
 30
0.0
  0
VERTEX
  5
3211
  8
0
 10
52.1197847749448329
 20
169.8508561331103124
 30
0.0
  0
SEQEND
  5
3212
  8
0
  0
ARC
  5
28C1
  8
0
 10
49.9999982051992333
 20
180.5473875361984142
 30
0.0
 40
11.0000086324220092
 50
281.7343600271962032
 51
282.2656400161920942
  0
POLYLINE
  5
28C2
  8
0
 66
     1
 10
0.0
 20
0.0
 30
0.0
  0
VERTEX
  5
3213
  8
0
 10
52.4141480886831914
 20
169.9134249869603082
 30
0.0
  0
VERTEX
  5
3214
  8
0
 10
52.4089018223217025
 20
169.8600944234466112
 30
0.0
  0
VERTEX
  5
3215
  8
0
 10
52.3982716251753686
 20
169.8398649369937061
 30
0.0
  0
VERTEX
  5
3216
  8
0
 10
52.38760254926936
 20
169.8267511473713967
 30
0.0
  0
VERTEX
  5
3217
  8
0
 10
52.3779910381090019
 20
169.8180068849187023
 30
0.0
  0
VERTEX
  5
3218
  8
0
 10
52.3696089047268387
 20
169.8120026058132908
 30
0.0
  0
VERTEX
  5
3219
  8
0
 10
52.36232819034214
 20
169.8077575575493086
 30
0.0
  0
VERTEX
  5
321A
  8
0
 10
52.352357403670652
 20
169.8031748590491929
 30
0.0
  0
VERTEX
  5
321B
  8
0
 10
52.346897144842039
 20
169.8012009359910053
 30
0.0
  0
VERTEX
  5
321C
  8
0
 10
52.3412027962729027
 20
169.7995131099575872
 30
0.0
  0
VERTEX
  5
321D
  8
0
 10
52.3368886459752218
 20
169.7984744292294863
 30
0.0
  0
SEQEND
  5
321E
  8
0
  0
POLYLINE
  5
28C3
  8
0
 66
     1
 10
0.0
 20
0.0
 30
0.0
  0
VERTEX
  5
321F
  8
0
 10
52.4141480886831914
 20
169.9134249869603082
 30
0.0
  0
VERTEX
  5
3220
  8
0
 10
52.4014627775266888
 20
170.0123561063520867
 30
0.0
  0
VERTEX
  5
3221
  8
0
 10
52.4002500912389735
 20
170.1411220471885883
 30
0.0
  0
VERTEX
  5
3222
  8
0
 10
52.421976471511357
 20
170.2980301243293866
 30
0.0
  0
VERTEX
  5
3223
  8
0
 10
52.4551028620826898
 20
170.4154835208925931
 30
0.0
  0
VERTEX
  5
3224
  8
0
 10
52.50905316603248
 20
170.5414567303712943
 30
0.0
  0
VERTEX
  5
3225
  8
0
 10
52.5903619746216506
 20
170.6735998154535991
 30
0.0
  0
VERTEX
  5
3226
  8
0
 10
52.7017820849989604
 20
170.802434795752788
 30
0.0
  0
VERTEX
  5
3227
  8
0
 10
52.7942629587791075
 20
170.8819493286553097
 30
0.0
  0
VERTEX
  5
3228
  8
0
 10
52.8997359376461134
 20
170.9520995499507876
 30
0.0
  0
VERTEX
  5
3229
  8
0
 10
53.0167487239718298
 20
171.0096268672884037
 30
0.0
  0
VERTEX
  5
322A
  8
0
 10
53.1413489024201269
 20
171.0519455662573876
 30
0.0
  0
VERTEX
  5
322B
  8
0
 10
53.2609657237603002
 20
171.076085448658489
 30
0.0
  0
VERTEX
  5
322C
  8
0
 10
53.3803088359955211
 20
171.0855792058291911
 30
0.0
  0
VERTEX
  5
322D
  8
0
 10
53.4977576340685914
 20
171.0808385997696064
 30
0.0
  0
VERTEX
  5
322E
  8
0
 10
53.6089570250771033
 20
171.063508153614606
 30
0.0
  0
VERTEX
  5
322F
  8
0
 10
53.722589685366188
 20
171.0319899748294006
 30
0.0
  0
VERTEX
  5
3230
  8
0
 10
53.8246956265172116
 20
170.9907117523140982
 30
0.0
  0
VERTEX
  5
3231
  8
0
 10
53.9638692397139508
 20
170.9110766694363122
 30
0.0
  0
VERTEX
  5
3232
  8
0
 10
54.0739094352063319
 20
170.8238289217622992
 30
0.0
  0
VERTEX
  5
3233
  8
0
 10
54.196510562326381
 20
170.6896860176883877
 30
0.0
  0
VERTEX
  5
3234
  8
0
 10
54.2729097629037867
 20
170.5721815340459955
 30
0.0
  0
VERTEX
  5
3235
  8
0
 10
54.2973945660056074
 20
170.5253288603036026
 30
0.0
  0
SEQEND
  5
3236
  8
0
  0
POLYLINE
  5
28C4
  8
0
 66
     1
 10
0.0
 20
0.0
 30
0.0
  0
VERTEX
  5
3237
  8
0
 10
54.4274650304473013
 20
170.4777438752890077
 30
0.0
  0
VERTEX
  5
3238
  8
0
 10
54.4227166229217119
 20
170.4757998663999103
 30
0.0
  0
VERTEX
  5
3239
  8
0
 10
54.4169304738847472
 20
170.4738029690824135
 30
0.0
  0
VERTEX
  5
323A
  8
0
 10
54.4082794793207185
 20
170.4715296673155933
 30
0.0
  0
VERTEX
  5
323B
  8
0
 10
54.3834617078149378
 20
170.4693564782076862
 30
0.0
  0
VERTEX
  5
323C
  8
0
 10
54.3498482592457606
 20
170.4760882403967059
 30
0.0
  0
VERTEX
  5
323D
  8
0
 10
54.324700298896488
 20
170.4912355659693901
 30
0.0
  0
VERTEX
  5
323E
  8
0
 10
54.2973945660056074
 20
170.5253288603036026
 30
0.0
  0
SEQEND
  5
323F
  8
0
  0
ARC
  5
28C5
  8
0
 10
50.0000094415048935
 20
180.5473578863575881
 30
0.0
 40
10.9999767874285208
 50
293.7343593270809947
 51
294.2656407852264806
  0
POLYLINE
  5
28C6
  8
0
 66
     1
 10
0.0
 20
0.0
 30
0.0
  0
VERTEX
  5
3240
  8
0
 10
54.5723165360189384
 20
170.647732015976203
 30
0.0
  0
VERTEX
  5
3241
  8
0
 10
54.5782748127438211
 20
170.5944875575463868
 30
0.0
  0
VERTEX
  5
3242
  8
0
 10
54.572085295255512
 20
170.5724889831197117
 30
0.0
  0
VERTEX
  5
3243
  8
0
 10
54.5643777949131277
 20
170.5574430152421996
 30
0.0
  0
VERTEX
  5
3244
  8
0
 10
54.5567959528315498
 20
170.5468910434971974
 30
0.0
  0
VERTEX
  5
3245
  8
0
 10
54.5498467208829823
 20
170.5392748049480929
 30
0.0
  0
VERTEX
  5
3246
  8
0
 10
54.5436089371572734
 20
170.5336083901335087
 30
0.0
  0
VERTEX
  5
3247
  8
0
 10
54.5348139563427594
 20
170.5270544060749103
 30
0.0
  0
VERTEX
  5
3248
  8
0
 10
54.5298844359994916
 20
170.5239877066971985
 30
0.0
  0
VERTEX
  5
3249
  8
0
 10
54.5246605301026293
 20
170.521149084969295
 30
0.0
  0
VERTEX
  5
324A
  8
0
 10
54.5206449651857668
 20
170.5192302552391936
 30
0.0
  0
SEQEND
  5
324B
  8
0
  0
POLYLINE
  5
28C7
  8
0
 66
     1
 10
0.0
 20
0.0
 30
0.0
  0
VERTEX
  5
324C
  8
0
 10
54.5723165360189384
 20
170.647732015976203
 30
0.0
  0
VERTEX
  5
324D
  8
0
 10
54.5393404957466714
 20
170.7418605616097977
 30
0.0
  0
VERTEX
  5
324E
  8
0
 10
54.5113827392124506
 20
170.8675553250558039
 30
0.0
  0
VERTEX
  5
324F
  8
0
 10
54.5000098791007588
 20
171.0255446595878084
 30
0.0
  0
VERTEX
  5
3250
  8
0
 10
54.5079905410653609
 20
171.1473188596463899
 30
0.0
  0
VERTEX
  5
3251
  8
0
 10
54.5345685872956309
 20
171.2817568726632942
 30
0.0
  0
VERTEX
  5
3252
  8
0
 10
54.5866246105565196
 20
171.4279189159960879
 30
0.0
  0
VERTEX
  5
3253
  8
0
 10
54.6498540492250413
 20
171.5476467638636962
 30
0.0
  0
SEQEND
  5
3254
  8
0
  0
POLYLINE
  5
28C8
  8
0
 66
     1
 10
0.0
 20
0.0
 30
0.0
  0
VERTEX
  5
3255
  8
0
 10
54.6498043346391782
 20
189.5471916968197093
 30
0.0
  0
VERTEX
  5
3256
  8
0
 10
54.6330760242648523
 20
189.5752181460478027
 30
0.0
  0
VERTEX
  5
3257
  8
0
 10
54.5804533568804118
 20
189.6807471583983897
 30
0.0
  0
VERTEX
  5
3258
  8
0
 10
54.5427962626801488
 20
189.7842435978134006
 30
0.0
  0
VERTEX
  5
3259
  8
0
 10
54.5088366912691811
 20
189.9409438482875032
 30
0.0
  0
VERTEX
  5
325A
  8
0
 10
54.5000276493854869
 20
190.0810947968982134
 30
0.0
  0
VERTEX
  5
325B
  8
0
 10
54.5176579643733206
 20
190.2619630468277876
 30
0.0
  0
VERTEX
  5
325C
  8
0
 10
54.5538466454259492
 20
190.3973772847674013
 30
0.0
  0
VERTEX
  5
325D
  8
0
 10
54.5723165388863478
 20
190.447026175797788
 30
0.0
  0
SEQEND
  5
325E
  8
0
  0
POLYLINE
  5
28C9
  8
0
 66
     1
 10
0.0
 20
0.0
 30
0.0
  0
VERTEX
  5
325F
  8
0
 10
54.5206449919002125
 20
190.5755279173675092
 30
0.0
  0
VERTEX
  5
3260
  8
0
 10
54.5252662329423572
 20
190.5733003382084974
 30
0.0
  0
VERTEX
  5
3261
  8
0
 10
54.5306217086834408
 20
190.5703367497939951
 30
0.0
  0
VERTEX
  5
3262
  8
0
 10
54.5380992613072806
 20
190.5654294088440963
 30
0.0
  0
VERTEX
  5
3263
  8
0
 10
54.556318577974757
 20
190.5484434202932107
 30
0.0
  0
VERTEX
  5
3264
  8
0
 10
54.5738073087347573
 20
190.5189652431685943
 30
0.0
  0
VERTEX
  5
3265
  8
0
 10
54.5793807486045566
 20
190.490147470778993
 30
0.0
  0
VERTEX
  5
3266
  8
0
 10
54.5723165388863478
 20
190.447026175797788
 30
0.0
  0
SEQEND
  5
3267
  8
0
  0
ARC
  5
28CA
  8
0
 10
49.9999957002156918
 20
180.5473694348509923
 30
0.0
 40
11.0000105713074507
 50
65.7343598779976332
 51
66.2656399693707101
  0
POLYLINE
  5
28CB
  8
0
 66
     1
 10
0.0
 20
0.0
 30
0.0
  0
VERTEX
  5
3268
  8
0
 10
54.297394566005643
 20
190.5694293243458901
 30
0.0
  0
VERTEX
  5
3269
  8
0
 10
54.3329707401813877
 20
190.6094812541705892
 30
0.0
  0
VERTEX
  5
326A
  8
0
 10
54.3534615979345688
 20
190.619603394706786
 30
0.0
  0
VERTEX
  5
326B
  8
0
 10
54.3698012767249281
 20
190.6239442608979004
 30
0.0
  0
VERTEX
  5
326C
  8
0
 10
54.3827169604156708
 20
190.6253709517976915
 30
0.0
  0
VERTEX
  5
326D
  8
0
 10
54.393027470664812
 20
190.6253031317718865
 30
0.0
  0
VERTEX
  5
326E
  8
0
 10
54.4014127717867666
 20
190.6244592121703931
 30
0.0
  0
VERTEX
  5
326F
  8
0
 10
54.4121685872126477
 20
190.6223088198701134
 30
0.0
  0
VERTEX
  5
3270
  8
0
 10
54.4177462902635511
 20
190.6206974934412983
 30
0.0
  0
VERTEX
  5
3271
  8
0
 10
54.4233514786554622
 20
190.6187147593452096
 30
0.0
  0
VERTEX
  5
3272
  8
0
 10
54.4274650107092768
 20
190.6170143180389971
 30
0.0
  0
SEQEND
  5
3273
  8
0
  0
POLYLINE
  5
28CC
  8
0
 66
     1
 10
0.0
 20
0.0
 30
0.0
  0
VERTEX
  5
3274
  8
0
 10
54.297394566005643
 20
190.5694293243458901
 30
0.0
  0
VERTEX
  5
3275
  8
0
 10
54.2495422744475491
 20
190.4819950435552869
 30
0.0
  0
VERTEX
  5
3276
  8
0
 10
54.1749092873962965
 20
190.3771839272656905
 30
0.0
  0
VERTEX
  5
3277
  8
0
 10
54.0652293411188012
 20
190.2630868908765081
 30
0.0
  0
VERTEX
  5
3278
  8
0
 10
53.969416587599369
 20
190.1875068113641873
 30
0.0
  0
VERTEX
  5
3279
  8
0
 10
53.8517409498508286
 20
190.1172637775702015
 30
0.0
  0
VERTEX
  5
327A
  8
0
 10
53.7082913845777128
 20
190.0581006431752087
 30
0.0
  0
VERTEX
  5
327B
  8
0
 10
53.5424067922531606
 20
190.0193098736727109
 30
0.0
  0
VERTEX
  5
327C
  8
0
 10
53.420851976076932
 20
190.009308201004302
 30
0.0
  0
VERTEX
  5
327D
  8
0
 10
53.2942825684027923
 20
190.0145184573931942
 30
0.0
  0
VERTEX
  5
327E
  8
0
 10
53.1657877404483372
 20
190.0367258608833083
 30
0.0
  0
VERTEX
  5
327F
  8
0
 10
53.0400867553277422
 20
190.075701752652293
 30
0.0
  0
VERTEX
  5
3280
  8
0
 10
52.9291077500785434
 20
190.126458860320696
 30
0.0
  0
VERTEX
  5
3281
  8
0
 10
52.8269549201832618
 20
190.1889089976565117
 30
0.0
  0
VERTEX
  5
3282
  8
0
 10
52.7347064511384289
 20
190.2617602520693083
 30
0.0
  0
VERTEX
  5
3283
  8
0
 10
52.6549112151858978
 20
190.3411282925424075
 30
0.0
  0
VERTEX
  5
3284
  8
0
 10
52.5814884662352995
 20
190.4334014617342064
 30
0.0
  0
VERTEX
  5
3285
  8
0
 10
52.5231257882905211
 20
190.5268007490167008
 30
0.0
  0
VERTEX
  5
3286
  8
0
 10
52.4573157771037586
 20
190.6730000014559891
 30
0.0
  0
VERTEX
  5
3287
  8
0
 10
52.4195449871559731
 20
190.8082480682201094
 30
0.0
  0
VERTEX
  5
3288
  8
0
 10
52.3991634081761788
 20
190.9888233759992033
 30
0.0
  0
VERTEX
  5
3289
  8
0
 10
52.4063903682507188
 20
191.1288130031973083
 30
0.0
  0
VERTEX
  5
328A
  8
0
 10
52.4141480886832198
 20
191.181333197689213
 30
0.0
  0
SEQEND
  5
328B
  8
0
  0
POLYLINE
  5
28CD
  8
0
 66
     1
 10
0.0
 20
0.0
 30
0.0
  0
VERTEX
  5
328C
  8
0
 10
52.3368886805576423
 20
191.2962837479016116
 30
0.0
  0
VERTEX
  5
328D
  8
0
 10
52.34188941725467
 20
191.2950609415304939
 30
0.0
  0
VERTEX
  5
328E
  8
0
 10
52.34774928958808
 20
191.2932726357871047
 30
0.0
  0
VERTEX
  5
328F
  8
0
 10
52.3560968407243692
 20
191.2900190737290984
 30
0.0
  0
VERTEX
  5
3290
  8
0
 10
52.3775093048544989
 20
191.2771330315761134
 30
0.0
  0
VERTEX
  5
3291
  8
0
 10
52.4007813979721391
 20
191.2518040123264882
 30
0.0
  0
VERTEX
  5
3292
  8
0
 10
52.4121910209076418
 20
191.2246185437597887
 30
0.0
  0
VERTEX
  5
3293
  8
0
 10
52.4141480886832198
 20
191.181333197689213
 30
0.0
  0
SEQEND
  5
3294
  8
0
  0
ARC
  5
28CE
  8
0
 10
49.9999956736077067
 20
180.5473587382496987
 30
0.0
 40
11.0000208085735203
 50
77.7343600935142547
 51
78.2656397221474265
  0
POLYLINE
  5
28CF
  8
0
 66
     1
 10
0.0
 20
0.0
 30
0.0
  0
VERTEX
  5
3295
  8
0
 10
52.1197847749448613
 20
191.2439020515392087
 30
0.0
  0
VERTEX
  5
3296
  8
0
 10
52.1462669710851401
 20
191.2904861068683999
 30
0.0
  0
VERTEX
  5
3297
  8
0
 10
52.1642065315226091
 20
191.3046439218013859
 30
0.0
  0
VERTEX
  5
3298
  8
0
 10
52.1792874369470994
 20
191.3122849659285976
 30
0.0
  0
VERTEX
  5
3299
  8
0
 10
52.1916249094186284
 20
191.3163641644669895
 30
0.0
  0
VERTEX
  5
329A
  8
0
 10
52.2017247727657718
 20
191.3184401716654008
 30
0.0
  0
VERTEX
  5
329B
  8
0
 10
52.2101028391038469
 20
191.3193569611040061
 30
0.0
  0
VERTEX
  5
329C
  8
0
 10
52.2210756688031381
 20
191.3194880396171982
 30
0.0
  0
VERTEX
  5
329D
  8
0
 10
52.226866821751031
 20
191.3190704390426902
 30
0.0
  0
VERTEX
  5
329E
  8
0
 10
52.2327554582704678
 20
191.3182962531799092
 30
0.0
  0
VERTEX
  5
329F
  8
0
 10
52.237119391861853
 20
191.3174903650348142
 30
0.0
  0
SEQEND
  5
32A0
  8
0
  0
POLYLINE
  5
28D0
  8
0
 66
     1
 10
0.0
 20
0.0
 30
0.0
  0
VERTEX
  5
32A1
  8
0
 10
52.1197847749448613
 20
191.2439020515392087
 30
0.0
  0
VERTEX
  5
32A2
  8
0
 10
52.0911894408700604
 20
191.148524512702096
 30
0.0
  0
VERTEX
  5
32A3
  8
0
 10
52.0400598368489966
 20
191.0306169818182127
 30
0.0
  0
VERTEX
  5
32A4
  8
0
 10
51.9566556577624894
 20
190.8963534219805069
 30
0.0
  0
VERTEX
  5
32A5
  8
0
 10
51.8786945814350418
 20
190.8024695548506884
 30
0.0
  0
VERTEX
  5
32A6
  8
0
 10
51.7782301664619808
 20
190.7092433538107059
 30
0.0
  0
VERTEX
  5
32A7
  8
0
 10
51.6502344110616107
 20
190.6214784054764095
 30
0.0
  0
VERTEX
  5
32A8
  8
0
 10
51.496031993928419
 20
190.5489661828270869
 30
0.0
  0
VERTEX
  5
32A9
  8
0
 10
51.3792244336884494
 20
190.5138650516774135
 30
0.0
  0
VERTEX
  5
32AA
  8
0
 10
51.2543378903588405
 20
190.4925976604023106
 30
0.0
  0
VERTEX
  5
32AB
  8
0
 10
51.1240204720199571
 20
190.4875558726218117
 30
0.0
  0
VERTEX
  5
32AC
  8
0
 10
50.9929376982649387
 20
190.4995015385485999
 30
0.0
  0
VERTEX
  5
32AD
  8
0
 10
50.8738120321376073
 20
190.5260382581332124
 30
0.0
  0
VERTEX
  5
32AE
  8
0
 10
50.7608812671052476
 20
190.565853404201988
 30
0.0
  0
VERTEX
  5
32AF
  8
0
 10
50.6554835781363124
 20
190.617901336609691
 30
0.0
  0
VERTEX
  5
32B0
  8
0
 10
50.5609066847593525
 20
190.6789187047610881
 30
0.0
  0
VERTEX
  5
32B1
  8
0
 10
50.4698833196486021
 20
190.7538800112473041
 30
0.0
  0
VERTEX
  5
32B2
  8
0
 10
50.3933522435142223
 20
190.8330809679644062
 30
0.0
  0
VERTEX
  5
32B3
  8
0
 10
50.2985581910725728
 20
190.9623508183809122
 30
0.0
  0
VERTEX
  5
32B4
  8
0
 10
50.2334562867142083
 20
191.0867573579866985
 30
0.0
  0
VERTEX
  5
32B5
  8
0
 10
50.175919291661387
 20
191.2591193578392961
 30
0.0
  0
VERTEX
  5
32B6
  8
0
 10
50.1538306349709728
 20
191.3975714213775063
 30
0.0
  0
VERTEX
  5
32B7
  8
0
 10
50.1504697826367973
 20
191.4508853978030061
 30
0.0
  0
SEQEND
  5
32B8
  8
0
  0
ARC
  5
28D1
  8
0
 10
49.9999999999999432
 20
180.5473790923246895
 30
0.0
 40
9.2800000000000509
 50
75.8895545221810437
 51
104.1104454778188995
  0
ARC
  5
28D2
  8
0
 10
49.9999999999999432
 20
180.5473790923248032
 30
0.0
 40
9.2800000000000047
 50
149.5496859786443054
 51
210.4503140213556094
  0
ARC
  5
28D3
  8
0
 10
49.9999999999999432
 20
180.5473790923248032
 30
0.0
 40
9.2800000000000438
 50
255.8895545221809869
 51
284.1104454778189279
  0
ARC
  5
28D4
  8
0
 10
49.9999999999999432
 20
180.5473790923248032
 30
0.0
 40
8.0000000000000036
 50
331.0449756281404916
 51
28.9550243718595191
  0
ARC
  5
28D5
  8
0
 10
49.9999999999999218
 20
180.5473790923248032
 30
0.0
 40
7.9999999999999893
 50
151.0449756281404916
 51
208.9550243718593094
  0
LINE
  5
28DC
  8
0
 10
42.9999999999999432
 20
184.4473790923246952
 30
0.0
 11
42.9999999999999432
 21
176.6473790923247975
 31
0.0
  0
LINE
  5
28DD
  8
0
 10
56.9999999999999432
 20
176.6473790923247975
 30
0.0
 11
56.9999999999999432
 21
184.4473790923246952
 31
0.0
  0
CIRCLE
  5
28E0
  8
3
 10
49.9999999999999716
 20
180.5473790923248032
 30
0.0
 40
2.5
  0
CIRCLE
  5
28E1
  8
0
 10
49.9999999999999432
 20
180.5473790923248032
 30
0.0
 40
2.0095000000000018
  0
LINE
  5
2D68
  8
1
 10
42.5000000000000213
 20
115.5
 30
0.0
 11
57.5000000000000284
 21
115.5
 31
0.0
  0
ARC
  5
2D69
  8
0
 10
71.8048695624940763
 20
95.7570167163328563
 30
0.0
 40
22.0000000000000107
 50
53.1459532882685508
 51
111.6479274262791961
  0
ARC
  5
2D6A
  8
0
 10
50.0000000000000284
 20
115.5
 30
0.0
 40
8.0000000000000018
 50
96.4753826053447767
 51
324.1992133584329281
  0
ARC
  5
2D6B
  8
0
 10
60.8265258198959984
 20
20.1124413842592595
 30
0.0
 40
104.0000000000012932
 50
76.5593944675817255
 51
96.4753826053447767
  0
ARC
  5
2D6C
  8
0
 10
68.654282917651642
 20
102.045717082348304
 30
0.0
 40
15.0000000000000195
 50
110.2533127853150035
 51
144.1992120493137008
  0
CIRCLE
  5
2D6D
  8
0
 10
50.0000000000000284
 20
115.5
 30
0.0
 40
4.5
  0
ARC
  5
2D6E
  8
0
 10
60.0000000000082068
 20
125.4999999999779021
 30
0.0
 40
9.9999999999764526
 50
290.2533150620437823
 51
291.6479274262825925
  0
POLYLINE
  5
2D6F
  8
0
 66
     1
 10
0.0
 20
0.0
 30
0.0
  0
VERTEX
  5
32B9
  8
0
 10
85.0000000000000284
 20
113.360667835836594
 30
0.0
  0
VERTEX
  5
32BA
  8
0
 10
85.6731763261889796
 20
112.8353287772976046
 30
0.0
  0
VERTEX
  5
32BB
  8
0
 10
86.3235170007494332
 20
112.2860480419624025
 30
0.0
  0
VERTEX
  5
32BC
  8
0
 10
86.9591095481133038
 20
111.7053120802638944
 30
0.0
  0
VERTEX
  5
32BD
  8
0
 10
87.5670724635411943
 20
111.1047513930276978
 30
0.0
  0
SEQEND
  5
32BE
  8
0
  0
POLYLINE
  5
2D70
  8
0
 66
     1
 10
0.0
 20
0.0
 30
0.0
  0
VERTEX
  5
32BF
  8
0
 10
85.0000000000000284
 20
121.2640263746295943
 30
0.0
  0
VERTEX
  5
32C0
  8
0
 10
85.7710322423179434
 20
121.0766402181751005
 30
0.0
  0
VERTEX
  5
32C1
  8
0
 10
86.53531987643143
 20
120.8847486326243938
 30
0.0
  0
VERTEX
  5
32C2
  8
0
 10
87.3092842246431076
 20
120.6841139243169039
 30
0.0
  0
VERTEX
  5
32C3
  8
0
 10
88.0650480129470452
 20
120.4820727910693989
 30
0.0
  0
VERTEX
  5
32C4
  8
0
 10
88.7767497032514967
 20
120.2862071050741974
 30
0.0
  0
VERTEX
  5
32C5
  8
0
 10
89.461384643167122
 20
120.0926637293390939
 30
0.0
  0
VERTEX
  5
32C6
  8
0
 10
90.1327016611398335
 20
119.8979446098035027
 30
0.0
  0
VERTEX
  5
32C7
  8
0
 10
90.7653949459975564
 20
119.7099519728800061
 30
0.0
  0
VERTEX
  5
32C8
  8
0
 10
91.3528308311241659
 20
119.5314772997302981
 30
0.0
  0
VERTEX
  5
32C9
  8
0
 10
91.8962414880768392
 20
119.3629968905064942
 30
0.0
  0
SEQEND
  5
32CA
  8
0
  0
POLYLINE
  5
2D72
  8
0
 66
     1
 10
0.0
 20
0.0
 30
0.0
  0
VERTEX
  5
32CB
  8
0
 10
90.4839013070263292
 20
111.1590910131534997
 30
0.0
  0
VERTEX
  5
32CC
  8
0
 10
90.1469440953729304
 20
110.8617625603753964
 30
0.0
  0
VERTEX
  5
32CD
  8
0
 10
89.7574662461197761
 20
110.6489881453676958
 30
0.0
  0
VERTEX
  5
32CE
  8
0
 10
89.3923461160823649
 20
110.5390445363045018
 30
0.0
  0
VERTEX
  5
32CF
  8
0
 10
89.006817495550365
 20
110.5000116195950994
 30
0.0
  0
VERTEX
  5
32D0
  8
0
 10
88.6174522932035984
 20
110.5372828269428993
 30
0.0
  0
VERTEX
  5
32D1
  8
0
 10
88.2334883666453464
 20
110.6527155292342997
 30
0.0
  0
VERTEX
  5
32D2
  8
0
 10
87.9429898713327418
 20
110.802391896059703
 30
0.0
  0
VERTEX
  5
32D3
  8
0
 10
87.6764866457358352
 20
111.0005626384924966
 30
0.0
  0
VERTEX
  5
32D4
  8
0
 10
87.5670724635411943
 20
111.1047513930276978
 30
0.0
  0
SEQEND
  5
32D5
  8
0
  0
POLYLINE
  5
2D73
  8
0
 66
     1
 10
0.0
 20
0.0
 30
0.0
  0
VERTEX
  5
32D6
  8
0
 10
93.4008700873594364
 20
114.701160701001001
 30
0.0
  0
VERTEX
  5
32D7
  8
0
 10
93.0865131520991724
 20
114.286152836040003
 30
0.0
  0
VERTEX
  5
32D8
  8
0
 10
92.7251131712416452
 20
113.8198135129294002
 30
0.0
  0
VERTEX
  5
32D9
  8
0
 10
92.3089872213078309
 20
113.2966678025900933
 30
0.0
  0
VERTEX
  5
32DA
  8
0
 10
91.8553926812782038
 20
112.7422761032961063
 30
0.0
  0
VERTEX
  5
32DB
  8
0
 10
91.1984764934285579
 20
111.9672241535020021
 30
0.0
  0
VERTEX
  5
32DC
  8
0
 10
90.4839013070263292
 20
111.1590910131534997
 30
0.0
  0
SEQEND
  5
32DD
  8
0
  0
POLYLINE
  5
2D74
  8
0
 66
     1
 10
0.0
 20
0.0
 30
0.0
  0
VERTEX
  5
32DE
  8
0
 10
94.0000000000000284
 20
116.5
 30
0.0
  0
VERTEX
  5
32DF
  8
0
 10
93.9999849999812795
 20
116.4905131729415046
 30
0.0
  0
VERTEX
  5
32E0
  8
0
 10
93.9632013684336158
 20
116.0315582745812009
 30
0.0
  0
VERTEX
  5
32E1
  8
0
 10
93.8544598599871165
 20
115.5769296301349982
 30
0.0
  0
VERTEX
  5
32E2
  8
0
 10
93.6680554346354057
 20
115.1283294135569975
 30
0.0
  0
VERTEX
  5
32E3
  8
0
 10
93.4008700873594364
 20
114.701160701001001
 30
0.0
  0
SEQEND
  5
32E4
  8
0
  0
POLYLINE
  5
2D75
  8
0
 66
     1
 10
0.0
 20
0.0
 30
0.0
  0
VERTEX
  5
32E5
  8
0
 10
91.8962414880768392
 20
119.3629968905064942
 30
0.0
  0
VERTEX
  5
32E6
  8
0
 10
92.2470199551729166
 20
119.2285506358970935
 30
0.0
  0
VERTEX
  5
32E7
  8
0
 10
92.5641357546829937
 20
119.0599764336653976
 30
0.0
  0
VERTEX
  5
32E8
  8
0
 10
92.8546049576663677
 20
118.8580705416411973
 30
0.0
  0
VERTEX
  5
32E9
  8
0
 10
93.1103555765597832
 20
118.6322287261181003
 30
0.0
  0
VERTEX
  5
32EA
  8
0
 10
93.4166025800671633
 20
118.2776823518014027
 30
0.0
  0
VERTEX
  5
32EB
  8
0
 10
93.6564105634911641
 20
117.8940885618149963
 30
0.0
  0
VERTEX
  5
32EC
  8
0
 10
93.8358927868933961
 20
117.4786459690421054
 30
0.0
  0
VERTEX
  5
32ED
  8
0
 10
93.9493321755085162
 20
117.0490352616274947
 30
0.0
  0
VERTEX
  5
32EE
  8
0
 10
93.9999849999812795
 20
116.5094868270568043
 30
0.0
  0
VERTEX
  5
32EF
  8
0
 10
94.0000000000000284
 20
116.5
 30
0.0
  0
SEQEND
  5
32F0
  8
0
  0
LINE
  5
2D7C
  8
1
 10
42.5
 20
114.9999999999999005
 30
0.0
 11
57.5000000000000284
 21
114.9999999999999005
 31
0.0
  0
LINE
  5
2DE4
  8
1
 10
50.0000000000000284
 20
126.5473790923247037
 30
0.0
 11
50.0
 21
50.0
 31
0.0
  0
LINE
  5
2DE5
  8
0
 10
39.0545454545454618
 20
101.9561715783575977
 30
0.0
 11
39.0545454545454618
 21
93.0
 31
0.0
  0
LINE
  5
2DE6
  8
0
 10
60.9454545454545666
 20
93.0
 30
0.0
 11
60.9454545454545666
 21
101.9560330715041943
 31
0.0
  0
LINE
  5
2DE7
  8
0
 10
39.0550458671890794
 20
101.9525562890667061
 30
0.0
 11
39.0550458671890794
 21
93.0
 31
0.0
  0
LINE
  5
2DE8
  8
0
 10
60.9449541284404006
 20
101.952556288254101
 30
0.0
 11
60.9449541284404006
 21
93.0
 31
0.0
  0
LINE
  5
2DE9
  8
0
 10
39.0657075823341984
 20
101.9525562899412989
 30
0.0
 11
39.0657075823341984
 21
93.0
 31
0.0
  0
LINE
  5
2DEA
  8
0
 10
60.9342924153126475
 20
101.9525562890667061
 30
0.0
 11
60.9342924153126475
 21
93.0
 31
0.0
  0
LINE
  5
2DEB
  8
0
 10
52.0095000000000312
 20
53.0
 30
0.0
 11
47.9905000000000186
 21
53.0
 31
0.0
  0
LINE
  5
2DEC
  8
0
 10
52.0095000000000312
 20
53.0
 30
0.0
 11
52.5000000000000284
 21
53.4904999999999902
 31
0.0
  0
LINE
  5
2DED
  8
0
 10
47.5000000000000213
 20
53.4904999999999902
 30
0.0
 11
47.9905000000000186
 21
53.0
 31
0.0
  0
LINE
  5
2DEE
  8
0
 10
52.5000000000000284
 20
53.4904999999999902
 30
0.0
 11
47.5000000000000213
 21
53.4904999999999902
 31
0.0
  0
LINE
  5
2DEF
  8
0
 10
47.5000000000000213
 20
93.0
 30
0.0
 11
47.5000000000000213
 21
53.4904999999999902
 31
0.0
  0
LINE
  5
2DF0
  8
0
 10
52.5000000000000284
 20
53.4904999999999902
 30
0.0
 11
52.5000000000000284
 21
93.0
 31
0.0
  0
LINE
  5
2DF1
  8
0
 10
39.1719526180631021
 20
102.3842024012019039
 30
0.0
 11
39.1719526180631021
 21
93.0
 31
0.0
  0
POLYLINE
  5
2DF2
  8
0
 66
     1
 10
0.0
 20
0.0
 30
0.0
  0
VERTEX
  5
32F1
  8
0
 10
40.2403752167951367
 20
103.7643553184464054
 30
0.0
  0
VERTEX
  5
32F2
  8
0
 10
40.2366941680615682
 20
103.7435700154006071
 30
0.0
  0
VERTEX
  5
32F3
  8
0
 10
40.1908433062006267
 20
103.648660677698004
 30
0.0
  0
VERTEX
  5
32F4
  8
0
 10
40.0958944175673722
 20
103.4923004367678061
 30
0.0
  0
VERTEX
  5
32F5
  8
0
 10
40.0021475809517426
 20
103.3371327393517021
 30
0.0
  0
VERTEX
  5
32F6
  8
0
 10
39.9038751549518622
 20
103.1632194141589025
 30
0.0
  0
VERTEX
  5
32F7
  8
0
 10
39.7576514731442501
 20
102.8645790040702934
 30
0.0
  0
VERTEX
  5
32F8
  8
0
 10
39.632804814695902
 20
102.5435882123584008
 30
0.0
  0
VERTEX
  5
32F9
  8
0
 10
39.5836515577349175
 20
102.3842024012019039
 30
0.0
  0
SEQEND
  5
32FA
  8
0
  0
LINE
  5
2DF3
  8
0
 10
60.8280473819369334
 20
102.3842024012253944
 30
0.0
 11
60.8280473819369334
 21
93.0
 31
0.0
  0
POLYLINE
  5
2DF4
  8
0
 66
     1
 10
0.0
 20
0.0
 30
0.0
  0
VERTEX
  5
32FB
  8
0
 10
59.7596236080747474
 20
103.7646668779698018
 30
0.0
  0
VERTEX
  5
32FC
  8
0
 10
59.7596236388573629
 20
103.7647176582618016
 30
0.0
  0
VERTEX
  5
32FD
  8
0
 10
59.7938706771695294
 20
103.7844330799434971
 30
0.0
  0
VERTEX
  5
32FE
  8
0
 10
59.8841572663144106
 20
103.7436640597044999
 30
0.0
  0
VERTEX
  5
32FF
  8
0
 10
60.0175408355439686
 20
103.648831981703907
 30
0.0
  0
VERTEX
  5
3300
  8
0
 10
60.1884041640265934
 20
103.4925685442044028
 30
0.0
  0
VERTEX
  5
3301
  8
0
 10
60.3269065143920002
 20
103.3375147470688944
 30
0.0
  0
VERTEX
  5
3302
  8
0
 10
60.4574554921878686
 20
103.1637190279796954
 30
0.0
  0
VERTEX
  5
3303
  8
0
 10
60.6349029550820831
 20
102.8652967864543939
 30
0.0
  0
VERTEX
  5
3304
  8
0
 10
60.7748895826052475
 20
102.5445276983125069
 30
0.0
  0
VERTEX
  5
3305
  8
0
 10
60.8280473819304675
 20
102.3842024012235044
 30
0.0
  0
SEQEND
  5
3306
  8
0
  0
LINE
  5
2DF5
  8
0
 10
39.5179790743156119
 20
101.9878125337697981
 30
0.0
 11
39.5179790743156119
 21
93.0
 31
0.0
  0
POLYLINE
  5
2DF6
  8
0
 66
     1
 10
0.0
 20
0.0
 30
0.0
  0
VERTEX
  5
3307
  8
0
 10
39.5179915965457269
 20
101.9870288124536017
 30
0.0
  0
VERTEX
  5
3308
  8
0
 10
39.5189994512388978
 20
102.0165409370847982
 30
0.0
  0
VERTEX
  5
3309
  8
0
 10
39.547045823038161
 20
102.2295893644312059
 30
0.0
  0
VERTEX
  5
330A
  8
0
 10
39.5836515577349175
 20
102.3842024012019039
 30
0.0
  0
SEQEND
  5
330B
  8
0
  0
LINE
  5
2DF7
  8
0
 10
60.4820209256844166
 20
93.0
 30
0.0
 11
60.4820209256844166
 21
101.9843521703777043
 31
0.0
  0
POLYLINE
  5
2DF8
  8
0
 66
     1
 10
0.0
 20
0.0
 30
0.0
  0
VERTEX
  5
330C
  8
0
 10
60.4820207523854592
 20
101.9842565451855023
 30
0.0
  0
VERTEX
  5
330D
  8
0
 10
60.4819494123629795
 20
101.9769416003429967
 30
0.0
  0
VERTEX
  5
330E
  8
0
 10
60.4809337241969374
 20
101.9614103132360015
 30
0.0
  0
VERTEX
  5
330F
  8
0
 10
60.4799135479080405
 20
101.956225685299799
 30
0.0
  0
VERTEX
  5
3310
  8
0
 10
60.4785278736168479
 20
101.9532307911882043
 30
0.0
  0
VERTEX
  5
3311
  8
0
 10
60.4772688240852005
 20
101.9525562890667061
 30
0.0
  0
SEQEND
  5
3312
  8
0
  0
LINE
  5
2DF9
  8
0
 10
39.5227311625907021
 20
101.9525562890667061
 30
0.0
 11
39.5227311625907021
 21
93.0
 31
0.0
  0
LINE
  5
2DFA
  8
0
 10
60.4772688240852005
 20
101.952556287964498
 30
0.0
 11
60.4772688240852005
 21
93.0
 31
0.0
  0
LINE
  5
2DFB
  8
0
 10
39.5542503403170329
 20
101.9525562901743996
 30
0.0
 11
39.5542503403170329
 21
93.0
 31
0.0
  0
LINE
  5
2DFC
  8
0
 10
60.4457496529250804
 20
101.9525562890667061
 30
0.0
 11
60.4457496529250804
 21
93.0
 31
0.0
  0
LINE
  5
2DFD
  8
0
 10
46.1000000000000227
 20
108.515016105959802
 30
0.0
 11
46.1000000000000227
 21
106.5
 31
0.0
  0
LINE
  5
2DFE
  8
0
 10
53.9000000000000412
 20
106.5
 30
0.0
 11
53.9000000000000412
 21
108.515016105959802
 31
0.0
  0
LINE
  5
2DFF
  8
0
 10
39.6766469976843226
 20
102.3842024012019039
 30
0.0
 11
39.6766469976843226
 21
93.0
 31
0.0
  0
POLYLINE
  5
2E00
  8
0
 66
     1
 10
0.0
 20
0.0
 30
0.0
  0
VERTEX
  5
3313
  8
0
 10
40.9509964447696007
 20
103.698709508347406
 30
0.0
  0
VERTEX
  5
3314
  8
0
 10
40.9453218656134581
 20
103.6486640413386056
 30
0.0
  0
VERTEX
  5
3315
  8
0
 10
40.8954759950313402
 20
103.4923057009635983
 30
0.0
  0
VERTEX
  5
3316
  8
0
 10
40.8308255398572086
 20
103.3371402400518946
 30
0.0
  0
VERTEX
  5
3317
  8
0
 10
40.7555587073021215
 20
103.1632292241240947
 30
0.0
  0
VERTEX
  5
3318
  8
0
 10
40.6349666861252103
 20
102.8645930974043949
 30
0.0
  0
VERTEX
  5
3319
  8
0
 10
40.526091923113448
 20
102.5436066583674943
 30
0.0
  0
VERTEX
  5
331A
  8
0
 10
40.4820516578135994
 20
102.3842024012019039
 30
0.0
  0
SEQEND
  5
331B
  8
0
  0
LINE
  5
2E01
  8
0
 10
60.323353002315713
 20
102.3842024012269007
 30
0.0
 11
60.323353002315713
 21
93.0
 31
0.0
  0
POLYLINE
  5
2E02
  8
0
 66
     1
 10
0.0
 20
0.0
 30
0.0
  0
VERTEX
  5
331C
  8
0
 10
59.0490017846749069
 20
103.6990401739210057
 30
0.0
  0
VERTEX
  5
331D
  8
0
 10
59.0709476825696811
 20
103.7647600683842057
 30
0.0
  0
VERTEX
  5
331E
  8
0
 10
59.1583826210595589
 20
103.7844234558018996
 30
0.0
  0
VERTEX
  5
331F
  8
0
 10
59.2932590423714601
 20
103.7436133339561053
 30
0.0
  0
VERTEX
  5
3320
  8
0
 10
59.462636833325881
 20
103.6487395748287952
 30
0.0
  0
VERTEX
  5
3321
  8
0
 10
59.6610752425717124
 20
103.4924239154969996
 30
0.0
  0
VERTEX
  5
3322
  8
0
 10
59.813361444495321
 20
103.3373086770886999
 30
0.0
  0
VERTEX
  5
3323
  8
0
 10
59.9518209932821833
 20
103.1634495176213022
 30
0.0
  0
VERTEX
  5
3324
  8
0
 10
60.133539797899509
 20
102.8649095827720004
 30
0.0
  0
VERTEX
  5
3325
  8
0
 10
60.2719998348565298
 20
102.5440208930477013
 30
0.0
  0
VERTEX
  5
3326
  8
0
 10
60.323353002309112
 20
102.3842024012247975
 30
0.0
  0
SEQEND
  5
3327
  8
0
  0
LINE
  5
2E03
  8
0
 10
40.4351568270018333
 20
102.0382445380369063
 30
0.0
 11
40.4351568270018333
 21
93.0
 31
0.0
  0
POLYLINE
  5
2E04
  8
0
 66
     1
 10
0.0
 20
0.0
 30
0.0
  0
VERTEX
  5
3328
  8
0
 10
40.4351626572651526
 20
102.037711926637499
 30
0.0
  0
VERTEX
  5
3329
  8
0
 10
40.4508368817581001
 20
102.2276888960464021
 30
0.0
  0
VERTEX
  5
332A
  8
0
 10
40.4820516578135994
 20
102.3842024012019039
 30
0.0
  0
SEQEND
  5
332B
  8
0
  0
LINE
  5
2E05
  8
0
 10
59.5648431729982235
 20
93.0
 30
0.0
 11
59.5648431729982235
 21
102.0353252427249942
 31
0.0
  0
POLYLINE
  5
2E06
  8
0
 66
     1
 10
0.0
 20
0.0
 30
0.0
  0
VERTEX
  5
332C
  8
0
 10
59.5648429338918106
 20
102.0352481850596007
 30
0.0
  0
VERTEX
  5
332D
  8
0
 10
59.5646655620757883
 20
102.0183296616335014
 30
0.0
  0
VERTEX
  5
332E
  8
0
 10
59.5635215573211596
 20
101.9935032474800067
 30
0.0
  0
VERTEX
  5
332F
  8
0
 10
59.561806789703212
 20
101.9769768289561966
 30
0.0
  0
VERTEX
  5
3330
  8
0
 10
59.5585465647718522
 20
101.9614399112843017
 30
0.0
  0
VERTEX
  5
3331
  8
0
 10
59.5563620312501314
 20
101.9562453738382999
 30
0.0
  0
VERTEX
  5
3332
  8
0
 10
59.5532496367351314
 20
101.9529207260795971
 30
0.0
  0
VERTEX
  5
3333
  8
0
 10
59.551676596627658
 20
101.9525562889264023
 30
0.0
  0
SEQEND
  5
3334
  8
0
  0
LINE
  5
2E07
  8
0
 10
40.4483233817009804
 20
101.9525562890667061
 30
0.0
 11
40.4483233817009804
 21
93.0
 31
0.0
  0
LINE
  5
2E08
  8
0
 10
59.5516765966036985
 20
101.9525562882244998
 30
0.0
 11
59.5516765966036985
 21
93.0
 31
0.0
  0
LINE
  5
2E09
  8
0
 10
40.4993224826961011
 20
101.9525562884480934
 30
0.0
 11
40.4993224826961011
 21
93.0
 31
0.0
  0
LINE
  5
2E0A
  8
0
 10
59.5006775064366593
 20
101.9525562890667061
 30
0.0
 11
59.5006775064366593
 21
93.0
 31
0.0
  0
LINE
  5
2E0B
  8
0
 10
59.3674785595495678
 20
102.3842024012314056
 30
0.0
 11
59.3674785595495678
 21
93.0
 31
0.0
  0
POLYLINE
  5
2E0C
  8
0
 66
     1
 10
0.0
 20
0.0
 30
0.0
  0
VERTEX
  5
3335
  8
0
 10
57.8991869424936496
 20
103.5865281497376031
 30
0.0
  0
VERTEX
  5
3336
  8
0
 10
57.8993086746498591
 20
103.5864141211455944
 30
0.0
  0
VERTEX
  5
3337
  8
0
 10
57.9137072241761004
 20
103.6826890480482035
 30
0.0
  0
VERTEX
  5
3338
  8
0
 10
57.9858645535821324
 20
103.764778371162393
 30
0.0
  0
VERTEX
  5
3339
  8
0
 10
58.1226316707888984
 20
103.7844192886057044
 30
0.0
  0
VERTEX
  5
333A
  8
0
 10
58.2961764374920222
 20
103.7435914154606991
 30
0.0
  0
VERTEX
  5
333B
  8
0
 10
58.4941231380201714
 20
103.6486996522928052
 30
0.0
  0
VERTEX
  5
333C
  8
0
 10
58.7114426542004821
 20
103.4923614337095046
 30
0.0
  0
VERTEX
  5
333D
  8
0
 10
58.8708374356691593
 20
103.3372196506936973
 30
0.0
  0
VERTEX
  5
333E
  8
0
 10
59.0111424338953228
 20
103.163333082992807
 30
0.0
  0
VERTEX
  5
333F
  8
0
 10
59.1891767119329586
 20
102.8647423055989947
 30
0.0
  0
VERTEX
  5
3340
  8
0
 10
59.3200621339605618
 20
102.5438019498923978
 30
0.0
  0
VERTEX
  5
3341
  8
0
 10
59.3674785595424126
 20
102.384202401229004
 30
0.0
  0
SEQEND
  5
3342
  8
0
  0
LINE
  5
2E0D
  8
0
 10
40.6325214404504607
 20
102.3842024012019039
 30
0.0
 11
40.6325214404504607
 21
93.0
 31
0.0
  0
POLYLINE
  5
2E0E
  8
0
 66
     1
 10
0.0
 20
0.0
 30
0.0
  0
VERTEX
  5
3343
  8
0
 10
42.1008056604495735
 20
103.5840110636692941
 30
0.0
  0
VERTEX
  5
3344
  8
0
 10
42.0929676312881824
 20
103.4923185760167001
 30
0.0
  0
VERTEX
  5
3345
  8
0
 10
42.0602407022764382
 20
103.3371585850788961
 30
0.0
  0
VERTEX
  5
3346
  8
0
 10
42.0112705644374032
 20
103.163253217081504
 30
0.0
  0
VERTEX
  5
3347
  8
0
 10
41.921582721220517
 20
102.864627566580296
 30
0.0
  0
VERTEX
  5
3348
  8
0
 10
41.8334392769681926
 20
102.5436517732862995
 30
0.0
  0
VERTEX
  5
3349
  8
0
 10
41.7964317726291981
 20
102.3842024012019039
 30
0.0
  0
SEQEND
  5
334A
  8
0
  0
LINE
  5
2E0F
  8
0
 10
41.7659936437045687
 20
102.1082980853597064
 30
0.0
 11
41.7659936437045687
 21
93.0
 31
0.0
  0
POLYLINE
  5
2E10
  8
0
 66
     1
 10
0.0
 20
0.0
 30
0.0
  0
VERTEX
  5
334B
  8
0
 10
41.76601763961812
 20
102.1076375834739025
 30
0.0
  0
VERTEX
  5
334C
  8
0
 10
41.7720085652049704
 20
102.2242107874800041
 30
0.0
  0
VERTEX
  5
334D
  8
0
 10
41.7964317726291981
 20
102.3842024012019039
 30
0.0
  0
SEQEND
  5
334E
  8
0
  0
LINE
  5
2E11
  8
0
 10
58.2340063562954526
 20
93.0
 30
0.0
 11
58.2340063562954526
 21
102.1006567733064969
 31
0.0
  0
POLYLINE
  5
2E12
  8
0
 66
     1
 10
0.0
 20
0.0
 30
0.0
  0
VERTEX
  5
334F
  8
0
 10
58.2340062834993475
 20
102.1006244442737056
 30
0.0
  0
VERTEX
  5
3350
  8
0
 10
58.2330464611591196
 20
102.0555129514849
 30
0.0
  0
VERTEX
  5
3351
  8
0
 10
58.2304181331318986
 20
102.0184221190702942
 30
0.0
  0
VERTEX
  5
3352
  8
0
 10
58.2271724463145688
 20
101.9935816952889951
 30
0.0
  0
VERTEX
  5
3353
  8
0
 10
58.2237829690140813
 20
101.9770415218903992
 30
0.0
  0
VERTEX
  5
3354
  8
0
 10
58.2184280556883209
 20
101.9614945115482953
 30
0.0
  0
VERTEX
  5
3355
  8
0
 10
58.2151760138365475
 20
101.9562817507886052
 30
0.0
  0
VERTEX
  5
3356
  8
0
 10
58.2107965633578033
 20
101.9529321976446994
 30
0.0
  0
VERTEX
  5
3357
  8
0
 10
58.2086302678491379
 20
101.9525562889035939
 30
0.0
  0
SEQEND
  5
3358
  8
0
  0
LINE
  5
2E13
  8
0
 10
58.2086302678210927
 20
101.9525562892581974
 30
0.0
 11
58.2086302678210927
 21
93.0
 31
0.0
  0
LINE
  5
2E14
  8
0
 10
41.7913697002043421
 20
101.9525562890667061
 30
0.0
 11
41.7913697002043421
 21
93.0
 31
0.0
  0
LINE
  5
2E15
  8
0
 10
41.8596198218901279
 20
101.9525562883359981
 30
0.0
 11
41.8596198218901279
 21
93.0
 31
0.0
  0
LINE
  5
2E16
  8
0
 10
58.1403801926116515
 20
101.9525562890667061
 30
0.0
 11
58.1403801926116515
 21
93.0
 31
0.0
  0
LINE
  5
2E18
  8
0
 10
58.0000000000000284
 20
106.5
 30
0.0
 11
42.0000000000000213
 21
106.5
 31
0.0
  0
LINE
  5
2E19
  8
0
 10
42.0000000000000213
 20
106.5
 30
0.0
 11
42.0000000000000213
 21
104.25
 31
0.0
  0
LINE
  5
2E1A
  8
0
 10
58.0000000000000284
 20
104.25
 30
0.0
 11
58.0000000000000284
 21
106.5
 31
0.0
  0
LINE
  5
2E1B
  8
0
 10
41.9977996464181729
 20
102.3842024012019039
 30
0.0
 11
41.9977996464181729
 21
93.0
 31
0.0
  0
POLYLINE
  5
2E1C
  8
0
 66
     1
 10
0.0
 20
0.0
 30
0.0
  0
VERTEX
  5
3359
  8
0
 10
43.6395597784684526
 20
103.4137422596541001
 30
0.0
  0
VERTEX
  5
335A
  8
0
 10
43.6366559024392799
 20
103.337192971264102
 30
0.0
  0
VERTEX
  5
335B
  8
0
 10
43.6161249436682965
 20
103.1632981897807042
 30
0.0
  0
VERTEX
  5
335C
  8
0
 10
43.5612643078607391
 20
102.8646921762875053
 30
0.0
  0
VERTEX
  5
335D
  8
0
 10
43.4977068925031176
 20
102.5437363378276956
 30
0.0
  0
VERTEX
  5
335E
  8
0
 10
43.4693471840662085
 20
102.3842024011865988
 30
0.0
  0
SEQEND
  5
335F
  8
0
  0
LINE
  5
2E1D
  8
0
 10
58.0022003535818627
 20
102.3842024012323009
 30
0.0
 11
58.0022003535818627
 21
93.0
 31
0.0
  0
POLYLINE
  5
2E1E
  8
0
 66
     1
 10
0.0
 20
0.0
 30
0.0
  0
VERTEX
  5
3360
  8
0
 10
56.3604473155183712
 20
103.4118410891232998
 30
0.0
  0
VERTEX
  5
3361
  8
0
 10
56.3619068855302601
 20
103.4665767633804023
 30
0.0
  0
VERTEX
  5
3362
  8
0
 10
56.3824321382142202
 20
103.5864499294778938
 30
0.0
  0
VERTEX
  5
3363
  8
0
 10
56.4318120041499185
 20
103.6827114662122966
 30
0.0
  0
VERTEX
  5
3364
  8
0
 10
56.5517697114585474
 20
103.7647879087877953
 30
0.0
  0
VERTEX
  5
3365
  8
0
 10
56.7318787065042613
 20
103.7844171137796963
 30
0.0
  0
VERTEX
  5
3366
  8
0
 10
56.9364972563739116
 20
103.7435799872188937
 30
0.0
  0
VERTEX
  5
3367
  8
0
 10
57.1543533715127978
 20
103.6486788382992046
 30
0.0
  0
VERTEX
  5
3368
  8
0
 10
57.3810484200608002
 20
103.4923288587480954
 30
0.0
  0
VERTEX
  5
3369
  8
0
 10
57.5405781407555992
 20
103.3371732364153956
 30
0.0
  0
VERTEX
  5
336A
  8
0
 10
57.676591730269763
 20
103.1632723791495039
 30
0.0
  0
VERTEX
  5
336B
  8
0
 10
57.8431559358810716
 20
102.8646550955880059
 30
0.0
  0
VERTEX
  5
336C
  8
0
 10
57.9607485182231983
 20
102.5436878046431985
 30
0.0
  0
VERTEX
  5
336D
  8
0
 10
58.0022003535754322
 20
102.3842024012297998
 30
0.0
  0
SEQEND
  5
336E
  8
0
  0
LINE
  5
2E1F
  8
0
 10
43.452325569470382
 20
102.178791697173196
 30
0.0
 11
43.452325569470382
 21
93.0
 31
0.0
  0
POLYLINE
  5
2E20
  8
0
 66
     1
 10
0.0
 20
0.0
 30
0.0
  0
VERTEX
  5
336F
  8
0
 10
43.4523348459548373
 20
102.1785928756349051
 30
0.0
  0
VERTEX
  5
3370
  8
0
 10
43.4533651253515174
 20
102.2260881550157023
 30
0.0
  0
VERTEX
  5
3371
  8
0
 10
43.4693471840662085
 20
102.3842024011865988
 30
0.0
  0
SEQEND
  5
3372
  8
0
  0
LINE
  5
2E21
  8
0
 10
56.5476744305296393
 20
93.0
 30
0.0
 11
56.5476744305296393
 21
102.1740675626953987
 31
0.0
  0
POLYLINE
  5
2E22
  8
0
 66
     1
 10
0.0
 20
0.0
 30
0.0
  0
VERTEX
  5
3373
  8
0
 10
56.547674377716497
 20
102.1740471813264008
 30
0.0
  0
VERTEX
  5
3374
  8
0
 10
56.5460745574946984
 20
102.110508337728902
 30
0.0
  0
VERTEX
  5
3375
  8
0
 10
56.5416676153990068
 20
102.0554339147356018
 30
0.0
  0
VERTEX
  5
3376
  8
0
 10
56.5364485524408096
 20
102.0183577297233057
 30
0.0
  0
VERTEX
  5
3377
  8
0
 10
56.5312374475182082
 20
101.9935296646905982
 30
0.0
  0
VERTEX
  5
3378
  8
0
 10
56.5263165747060086
 20
101.9770001661446059
 30
0.0
  0
VERTEX
  5
3379
  8
0
 10
56.5190855628376312
 20
101.9614609807285035
 30
0.0
  0
VERTEX
  5
337A
  8
0
 10
56.5149035572823593
 20
101.956259694073907
 30
0.0
  0
VERTEX
  5
337B
  8
0
 10
56.5094446244867399
 20
101.9529253653133054
 30
0.0
  0
VERTEX
  5
337C
  8
0
 10
56.5068274069803422
 20
101.9525562889175063
 30
0.0
  0
SEQEND
  5
337D
  8
0
  0
LINE
  5
2E23
  8
0
 10
56.5068274069565177
 20
101.9525562890763979
 30
0.0
 11
56.5068274069565177
 21
93.0
 31
0.0
  0
LINE
  5
2E24
  8
0
 10
43.4931725543152368
 20
101.9525562890667061
 30
0.0
 11
43.4931725543152368
 21
93.0
 31
0.0
  0
LINE
  5
2E25
  8
0
 10
43.5756908367454727
 20
101.9525562909951049
 30
0.0
 11
43.5756908367454727
 21
93.0
 31
0.0
  0
LINE
  5
2E26
  8
0
 10
56.4243091700163006
 20
101.9525562890667061
 30
0.0
 11
56.4243091700163006
 21
93.0
 31
0.0
  0
LINE
  5
2E28
  8
0
 10
56.2871875933450099
 20
102.3842024012020033
 30
0.0
 11
56.2871875933450099
 21
93.0
 31
0.0
  0
POLYLINE
  5
2E29
  8
0
 66
     1
 10
0.0
 20
0.0
 30
0.0
  0
VERTEX
  5
337E
  8
0
 10
54.5000002020217593
 20
103.1727718144936006
 30
0.0
  0
VERTEX
  5
337F
  8
0
 10
54.5000098791008369
 20
103.1797175487538993
 30
0.0
  0
VERTEX
  5
3380
  8
0
 10
54.5345685872957233
 20
103.4666041762290973
 30
0.0
  0
VERTEX
  5
3381
  8
0
 10
54.586624610556612
 20
103.5864695256822046
 30
0.0
  0
VERTEX
  5
3382
  8
0
 10
54.6688222464896114
 20
103.6827237348930026
 30
0.0
  0
VERTEX
  5
3383
  8
0
 10
54.8313310798476223
 20
103.7647931279454951
 30
0.0
  0
VERTEX
  5
3384
  8
0
 10
55.0469042848173373
 20
103.7844159227214931
 30
0.0
  0
VERTEX
  5
3385
  8
0
 10
55.2736494020775808
 20
103.7435737316079951
 30
0.0
  0
VERTEX
  5
3386
  8
0
 10
55.5018899185808223
 20
103.6486674455355939
 30
0.0
  0
VERTEX
  5
3387
  8
0
 10
55.7280495244879717
 20
103.4923110286406995
 30
0.0
  0
VERTEX
  5
3388
  8
0
 10
55.8807385923778384
 20
103.3371478311990046
 30
0.0
  0
VERTEX
  5
3389
  8
0
 10
56.0065143264739618
 20
103.1632391523793046
 30
0.0
  0
VERTEX
  5
338A
  8
0
 10
56.1543271822082204
 20
102.864607360694194
 30
0.0
  0
VERTEX
  5
338B
  8
0
 10
56.2534892513411293
 20
102.5436253268376987
 30
0.0
  0
VERTEX
  5
338C
  8
0
 10
56.2871875933450099
 20
102.3842024012020033
 30
0.0
  0
SEQEND
  5
338D
  8
0
  0
LINE
  5
2E2A
  8
0
 10
43.7128124066550185
 20
102.3842024012019039
 30
0.0
 11
43.7128124066550185
 21
93.0
 31
0.0
  0
POLYLINE
  5
2E2B
  8
0
 66
     1
 10
0.0
 20
0.0
 30
0.0
  0
VERTEX
  5
338E
  8
0
 10
45.4999998632677318
 20
103.172926538255993
 30
0.0
  0
VERTEX
  5
338F
  8
0
 10
45.4999723506144775
 20
103.163381155343103
 30
0.0
  0
VERTEX
  5
3390
  8
0
 10
45.4823420356266581
 20
102.8648113690362038
 30
0.0
  0
VERTEX
  5
3391
  8
0
 10
45.4461533545739869
 20
102.5438923443180954
 30
0.0
  0
VERTEX
  5
3392
  8
0
 10
45.4276834611163522
 20
102.3842024012264034
 30
0.0
  0
SEQEND
  5
3393
  8
0
  0
LINE
  5
2E2C
  8
0
 10
45.420451807224957
 20
102.2489426612316947
 30
0.0
 11
45.420451807224957
 21
93.0
 31
0.0
  0
LINE
  5
2E2D
  8
0
 10
45.4204520712647195
 20
102.2489562592106012
 30
0.0
 11
45.4276834611163522
 21
102.3842024012264034
 31
0.0
  0
LINE
  5
2E2E
  8
0
 10
54.5795481927750927
 20
93.0
 30
0.0
 11
54.5795481927750927
 21
102.247959376956203
 31
0.0
  0
POLYLINE
  5
2E2F
  8
0
 66
     1
 10
0.0
 20
0.0
 30
0.0
  0
VERTEX
  5
3394
  8
0
 10
54.579546975633292
 20
102.2479981792396018
 30
0.0
  0
VERTEX
  5
3395
  8
0
 10
54.5782748127438992
 20
102.1916521283512935
 30
0.0
  0
VERTEX
  5
3396
  8
0
 10
54.5720852952555902
 20
102.1104311188723983
 30
0.0
  0
VERTEX
  5
3397
  8
0
 10
54.5643777949132129
 20
102.0553630047345024
 30
0.0
  0
VERTEX
  5
3398
  8
0
 10
54.5567959528316422
 20
102.0182942347562971
 30
0.0
  0
VERTEX
  5
3399
  8
0
 10
54.5498467208830675
 20
101.9934746193792989
 30
0.0
  0
VERTEX
  5
339A
  8
0
 10
54.5436089371573587
 20
101.9769540812610984
 30
0.0
  0
VERTEX
  5
339B
  8
0
 10
54.5348139563428376
 20
101.9614215446630965
 30
0.0
  0
VERTEX
  5
339C
  8
0
 10
54.5298844359995485
 20
101.9562333100763993
 30
0.0
  0
VERTEX
  5
339D
  8
0
 10
54.5246605301027216
 20
101.9532330153984958
 30
0.0
  0
VERTEX
  5
339E
  8
0
 10
54.5206449651858804
 20
101.9525562890667061
 30
0.0
  0
SEQEND
  5
339F
  8
0
  0
LINE
  5
2E30
  8
0
 10
54.5206449651858804
 20
101.9525562873449047
 30
0.0
 11
54.5206449651858804
 21
93.0
 31
0.0
  0
LINE
  5
2E31
  8
0
 10
45.4793549885901811
 20
101.9525562890667061
 30
0.0
 11
45.4793549885901811
 21
93.0
 31
0.0
  0
LINE
  5
2E32
  8
0
 10
45.5725349892906593
 20
101.9525562901116018
 30
0.0
 11
45.5725349892906593
 21
93.0
 31
0.0
  0
LINE
  5
2E33
  8
0
 10
54.4274650304473866
 20
101.9525562890667061
 30
0.0
 11
54.4274650304473866
 21
93.0
 31
0.0
  0
LINE
  5
2E34
  8
0
 10
54.2973945660056927
 20
102.3842024012020033
 30
0.0
 11
54.2973945660056927
 21
93.0
 31
0.0
  0
POLYLINE
  5
2E35
  8
0
 66
     1
 10
0.0
 20
0.0
 30
0.0
  0
VERTEX
  5
33A0
  8
0
 10
52.3991893344196669
 20
102.8210496638867966
 30
0.0
  0
VERTEX
  5
33A1
  8
0
 10
52.4219764715114422
 20
103.1797387216370936
 30
0.0
  0
VERTEX
  5
33A2
  8
0
 10
52.5090531660325723
 20
103.4666176914611952
 30
0.0
  0
VERTEX
  5
33A3
  8
0
 10
52.590361974621743
 20
103.5864791871957067
 30
0.0
  0
VERTEX
  5
33A4
  8
0
 10
52.7017820849990528
 20
103.6827297837918991
 30
0.0
  0
VERTEX
  5
33A5
  8
0
 10
52.8997359376461986
 20
103.7647957010592989
 30
0.0
  0
VERTEX
  5
33A6
  8
0
 10
53.1413489024202192
 20
103.7844153352653933
 30
0.0
  0
VERTEX
  5
33A7
  8
0
 10
53.3803088359956135
 20
103.7435706470210022
 30
0.0
  0
VERTEX
  5
33A8
  8
0
 10
53.6089570250771814
 20
103.6486618279769942
 30
0.0
  0
VERTEX
  5
33A9
  8
0
 10
53.8246956265172969
 20
103.4923022369870012
 30
0.0
  0
VERTEX
  5
33AA
  8
0
 10
53.9638692397140289
 20
103.3371353043983021
 30
0.0
  0
VERTEX
  5
33AB
  8
0
 10
54.0739094352064171
 20
103.1632227689152046
 30
0.0
  0
VERTEX
  5
33AC
  8
0
 10
54.1965105623264591
 20
102.8645838236270009
 30
0.0
  0
VERTEX
  5
33AD
  8
0
 10
54.272909762903879
 20
102.5435945204158941
 30
0.0
  0
VERTEX
  5
33AE
  8
0
 10
54.2973945660056927
 20
102.3842024012020033
 30
0.0
  0
SEQEND
  5
33AF
  8
0
  0
LINE
  5
2E36
  8
0
 10
45.7026054339943428
 20
102.3842024012019039
 30
0.0
 11
45.7026054339943428
 21
93.0
 31
0.0
  0
POLYLINE
  5
2E37
  8
0
 66
     1
 10
0.0
 20
0.0
 30
0.0
  0
VERTEX
  5
33B0
  8
0
 10
47.6008097033561626
 20
102.8202318969830031
 30
0.0
  0
VERTEX
  5
33B1
  8
0
 10
47.5936096317492385
 20
102.5442135944742006
 30
0.0
  0
VERTEX
  5
33B2
  8
0
 10
47.5858519113178815
 20
102.3842024012238028
 30
0.0
  0
SEQEND
  5
33B3
  8
0
  0
LINE
  5
2E38
  8
0
 10
47.5843557962608728
 20
102.3232132813379991
 30
0.0
 11
47.5843557962608728
 21
93.0
 31
0.0
  0
LINE
  5
2E39
  8
0
 10
47.5843566945479211
 20
102.3233602687607942
 30
0.0
 11
47.5858519113178815
 21
102.3842024012238028
 31
0.0
  0
LINE
  5
2E3A
  8
0
 10
52.4156442037391628
 20
93.0
 30
0.0
 11
52.4156442037391628
 21
102.3230909507555992
 31
0.0
  0
POLYLINE
  5
2E3B
  8
0
 66
     1
 10
0.0
 20
0.0
 30
0.0
  0
VERTEX
  5
33B4
  8
0
 10
52.4156432322768424
 20
102.3233007458363062
 30
0.0
  0
VERTEX
  5
33B5
  8
0
 10
52.4089018223217806
 20
102.1916099663674942
 30
0.0
  0
VERTEX
  5
33B6
  8
0
 10
52.398271625175461
 20
102.1103924718867972
 30
0.0
  0
VERTEX
  5
33B7
  8
0
 10
52.3876025492694382
 20
102.0553272005130054
 30
0.0
  0
VERTEX
  5
33B8
  8
0
 10
52.3779910381090872
 20
102.0182619949068936
 30
0.0
  0
VERTEX
  5
33B9
  8
0
 10
52.3696089047269311
 20
101.9934465719579038
 30
0.0
  0
VERTEX
  5
33BA
  8
0
 10
52.3623281903422182
 20
101.9769305483748951
 30
0.0
  0
VERTEX
  5
33BB
  8
0
 10
52.3523574036707302
 20
101.9614014103059958
 30
0.0
  0
VERTEX
  5
33BC
  8
0
 10
52.3468971448421314
 20
101.9562198423365942
 30
0.0
  0
VERTEX
  5
33BD
  8
0
 10
52.341202796272988
 20
101.9532290579918055
 30
0.0
  0
VERTEX
  5
33BE
  8
0
 10
52.3368886459753071
 20
101.9525562890667061
 30
0.0
  0
SEQEND
  5
33BF
  8
0
  0
LINE
  5
2E3C
  8
0
 10
52.3368886459753071
 20
101.9525562897070046
 30
0.0
 11
52.3368886459753071
 21
93.0
 31
0.0
  0
LINE
  5
2E3D
  8
0
 10
47.6631113008190823
 20
101.9525562890667061
 30
0.0
 11
47.6631113008190823
 21
93.0
 31
0.0
  0
LINE
  5
2E3E
  8
0
 10
47.7628806081380901
 20
101.9525562902980056
 30
0.0
 11
47.7628806081380901
 21
93.0
 31
0.0
  0
LINE
  5
2E3F
  8
0
 10
52.237119400017832
 20
101.9525562890667061
 30
0.0
 11
52.237119400017832
 21
93.0
 31
0.0
  0
LINE
  5
2E40
  8
0
 10
52.1197847749449181
 20
102.3842024012020033
 30
0.0
 11
52.1197847749449181
 21
93.0
 31
0.0
  0
LINE
  5
2E41
  8
0
 10
47.8802152250551103
 20
102.3842024012019039
 30
0.0
 11
47.8802152250551103
 21
93.0
 31
0.0
  0
LINE
  5
2E42
  8
0
 10
49.84953021736316
 20
102.3842024012255933
 30
0.0
 11
49.84953021736316
 21
93.0
 31
0.0
  0
LINE
  5
2E43
  8
0
 10
39.0550458671890794
 20
93.0
 30
0.0
 11
60.9449541284404006
 21
93.0
 31
0.0
  0
LINE
  5
2E44
  8
0
 10
50.1504697826368897
 20
102.3842024012020033
 30
0.0
 11
50.1504697826368897
 21
93.0
 31
0.0
  0
LINE
  5
2E45
  8
0
 10
49.9490008662522982
 20
101.9525562890667061
 30
0.0
 11
49.9490008662522982
 21
93.0
 31
0.0
  0
LINE
  5
2E46
  8
0
 10
50.0509990792997712
 20
101.9525562887997978
 30
0.0
 11
50.0509990792997712
 21
93.0
 31
0.0
  0
LINE
  5
2E47
  8
0
 10
59.2800000000000296
 20
104.25
 30
0.0
 11
40.7200000000000202
 21
104.25
 31
0.0
  0
POLYLINE
  5
2E48
  8
0
 66
     1
 10
0.0
 20
0.0
 30
0.0
  0
VERTEX
  5
33C0
  8
0
 10
39.0550458671890794
 20
101.9525562890667061
 30
0.0
  0
VERTEX
  5
33C1
  8
0
 10
39.054663298296191
 20
101.9534631180438993
 30
0.0
  0
VERTEX
  5
33C2
  8
0
 10
39.0545535678441524
 20
101.9568820534641986
 30
0.0
  0
VERTEX
  5
33C3
  8
0
 10
39.0550692632992025
 20
101.9663043479418008
 30
0.0
  0
VERTEX
  5
33C4
  8
0
 10
39.0607171796607417
 20
102.0167354599689986
 30
0.0
  0
VERTEX
  5
33C5
  8
0
 10
39.1000116223361829
 20
102.2304339756926055
 30
0.0
  0
VERTEX
  5
33C6
  8
0
 10
39.1404958677686068
 20
102.3842024012251954
 30
0.0
  0
SEQEND
  5
33C7
  8
0
  0
LINE
  5
2E49
  8
0
 10
39.0657075823341984
 20
101.9525562899412989
 30
0.0
 11
39.0550458671890794
 21
101.9525562890667061
 31
0.0
  0
POLYLINE
  5
2E4A
  8
0
 66
     1
 10
0.0
 20
0.0
 30
0.0
  0
VERTEX
  5
33C8
  8
0
 10
39.1719526180631021
 20
102.3842024012019039
 30
0.0
  0
VERTEX
  5
33C9
  8
0
 10
39.1194604669262631
 20
102.191601311661401
 30
0.0
  0
VERTEX
  5
33CA
  8
0
 10
39.1004532401118183
 20
102.1103842283316965
 30
0.0
  0
VERTEX
  5
33CB
  8
0
 10
39.0885266967745508
 20
102.055319341604303
 30
0.0
  0
VERTEX
  5
33CC
  8
0
 10
39.0808351868844284
 20
102.0182547833957045
 30
0.0
  0
VERTEX
  5
33CD
  8
0
 10
39.0757401400112201
 20
101.993440219208594
 30
0.0
  0
VERTEX
  5
33CE
  8
0
 10
39.0722795481050014
 20
101.9769251727959016
 30
0.0
  0
VERTEX
  5
33CF
  8
0
 10
39.0687641869888935
 20
101.9613967756038022
 30
0.0
  0
VERTEX
  5
33D0
  8
0
 10
39.0673720441806722
 20
101.9562167352601989
 30
0.0
  0
VERTEX
  5
33D1
  8
0
 10
39.0662891603287008
 20
101.9532281458347995
 30
0.0
  0
VERTEX
  5
33D2
  8
0
 10
39.0657075823341984
 20
101.9525562899412989
 30
0.0
  0
SEQEND
  5
33D3
  8
0
  0
POLYLINE
  5
2E4B
  8
0
 66
     1
 10
0.0
 20
0.0
 30
0.0
  0
VERTEX
  5
33D4
  8
0
 10
39.1719526180631021
 20
102.3842024012019039
 30
0.0
  0
VERTEX
  5
33D5
  8
0
 10
39.3323836959416724
 20
102.7987451268398047
 30
0.0
  0
VERTEX
  5
33D6
  8
0
 10
39.5536355839440219
 20
103.1797430568854992
 30
0.0
  0
VERTEX
  5
33D7
  8
0
 10
39.7866262771146069
 20
103.4666204587822023
 30
0.0
  0
VERTEX
  5
33D8
  8
0
 10
39.909545961682511
 20
103.5864811654527955
 30
0.0
  0
VERTEX
  5
33D9
  8
0
 10
40.0260280533250921
 20
103.6827310223489036
 30
0.0
  0
VERTEX
  5
33DA
  8
0
 10
40.154180519984493
 20
103.7647962279139051
 30
0.0
  0
VERTEX
  5
33DB
  8
0
 10
40.2282234447682967
 20
103.7844152149612995
 30
0.0
  0
VERTEX
  5
33DC
  8
0
 10
40.2403752167951367
 20
103.7643553184464054
 30
0.0
  0
SEQEND
  5
33DD
  8
0
  0
POLYLINE
  5
2E4C
  8
0
 66
     1
 10
0.0
 20
0.0
 30
0.0
  0
VERTEX
  5
33DE
  8
0
 10
39.5227311625899702
 20
101.9525562890694061
 30
0.0
  0
VERTEX
  5
33DF
  8
0
 10
39.5212914736992005
 20
101.9534592300543068
 30
0.0
  0
VERTEX
  5
33E0
  8
0
 10
39.5199102856147988
 20
101.9568708506900947
 30
0.0
  0
VERTEX
  5
33E1
  8
0
 10
39.5185539970342816
 20
101.9662723042195012
 30
0.0
  0
VERTEX
  5
33E2
  8
0
 10
39.5179915965457269
 20
101.9870288124536017
 30
0.0
  0
SEQEND
  5
33E3
  8
0
  0
LINE
  5
2E4D
  8
0
 10
39.5542503403170329
 20
101.9525562901743996
 30
0.0
 11
39.5227311625907021
 21
101.9525562890667061
 31
0.0
  0
POLYLINE
  5
2E4E
  8
0
 66
     1
 10
0.0
 20
0.0
 30
0.0
  0
VERTEX
  5
33E4
  8
0
 10
39.6766469976843226
 20
102.3842024012019039
 30
0.0
  0
VERTEX
  5
33E5
  8
0
 10
39.6230646164594873
 20
102.1916265676300952
 30
0.0
  0
VERTEX
  5
33E6
  8
0
 10
39.6018343236863473
 20
102.1104077972136963
 30
0.0
  0
VERTEX
  5
33E7
  8
0
 10
39.5876768853078218
 20
102.055341473943102
 30
0.0
  0
VERTEX
  5
33E8
  8
0
 10
39.5779756166173797
 20
102.0182748925071934
 30
0.0
  0
VERTEX
  5
33E9
  8
0
 10
39.5711278395950004
 20
101.993457818335898
 30
0.0
  0
VERTEX
  5
33EA
  8
0
 10
39.566144803609717
 20
101.9769399991351975
 30
0.0
  0
VERTEX
  5
33EB
  8
0
 10
39.5605454127737914
 20
101.9614095051737053
 30
0.0
  0
VERTEX
  5
33EC
  8
0
 10
39.5580112456154112
 20
101.9562252585762963
 30
0.0
  0
VERTEX
  5
33ED
  8
0
 10
39.5557361479462983
 20
101.9532306494191971
 30
0.0
  0
VERTEX
  5
33EE
  8
0
 10
39.5542503403170329
 20
101.9525562901743996
 30
0.0
  0
SEQEND
  5
33EF
  8
0
  0
POLYLINE
  5
2E4F
  8
0
 66
     1
 10
0.0
 20
0.0
 30
0.0
  0
VERTEX
  5
33F0
  8
0
 10
39.6766469976843226
 20
102.3842024012019039
 30
0.0
  0
VERTEX
  5
33F1
  8
0
 10
39.8338462973900107
 20
102.7987380079232054
 30
0.0
  0
VERTEX
  5
33F2
  8
0
 10
40.0599574248621693
 20
103.1797303795660952
 30
0.0
  0
VERTEX
  5
33F3
  8
0
 10
40.3111529820851331
 20
103.4666123664758004
 30
0.0
  0
VERTEX
  5
33F4
  8
0
 10
40.4510719438885928
 20
103.5864753805640959
 30
0.0
  0
VERTEX
  5
33F5
  8
0
 10
40.5908487019206774
 20
103.6827274005228929
 30
0.0
  0
VERTEX
  5
33F6
  8
0
 10
40.7603863993349691
 20
103.7647946872606042
 30
0.0
  0
VERTEX
  5
33F7
  8
0
 10
40.8849422069999875
 20
103.7844155667408046
 30
0.0
  0
VERTEX
  5
33F8
  8
0
 10
40.9433708132279435
 20
103.7435718623770953
 30
0.0
  0
VERTEX
  5
33F9
  8
0
 10
40.9509964447696007
 20
103.698709508347406
 30
0.0
  0
SEQEND
  5
33FA
  8
0
  0
POLYLINE
  5
2E50
  8
0
 66
     1
 10
0.0
 20
0.0
 30
0.0
  0
VERTEX
  5
33FB
  8
0
 10
40.4483233816990833
 20
101.9525562890705999
 30
0.0
  0
VERTEX
  5
33FC
  8
0
 10
40.4459002486677193
 20
101.9534504651601026
 30
0.0
  0
VERTEX
  5
33FD
  8
0
 10
40.4433105452896982
 20
101.956845577048
 30
0.0
  0
VERTEX
  5
33FE
  8
0
 10
40.4401476218407581
 20
101.9662000515959051
 30
0.0
  0
VERTEX
  5
33FF
  8
0
 10
40.435388965960783
 20
102.0161031285504976
 30
0.0
  0
VERTEX
  5
3400
  8
0
 10
40.4351626572651526
 20
102.037711926637499
 30
0.0
  0
SEQEND
  5
3401
  8
0
  0
LINE
  5
2E51
  8
0
 10
40.4993224826961011
 20
101.9525562884480934
 30
0.0
 11
40.4483233817009804
 21
101.9525562890667061
 31
0.0
  0
POLYLINE
  5
2E52
  8
0
 66
     1
 10
0.0
 20
0.0
 30
0.0
  0
VERTEX
  5
3402
  8
0
 10
40.6325214404504607
 20
102.3842024012019039
 30
0.0
  0
VERTEX
  5
3403
  8
0
 10
40.5802014042070311
 20
102.1916882041735022
 30
0.0
  0
VERTEX
  5
3404
  8
0
 10
40.5576756253940118
 20
102.1104638530425035
 30
0.0
  0
VERTEX
  5
3405
  8
0
 10
40.5419060935499189
 20
102.0553931081709038
 30
0.0
  0
VERTEX
  5
3406
  8
0
 10
40.5306191338319124
 20
102.0183212123562981
 30
0.0
  0
VERTEX
  5
3407
  8
0
 10
40.522317966499827
 20
101.993498017173394
 30
0.0
  0
VERTEX
  5
3408
  8
0
 10
40.5160303380401601
 20
101.9769736743669029
 30
0.0
  0
VERTEX
  5
3409
  8
0
 10
40.5085947034885123
 20
101.9614382992160984
 30
0.0
  0
VERTEX
  5
340A
  8
0
 10
40.5050290651381317
 20
101.9562445163603996
 30
0.0
  0
VERTEX
  5
340B
  8
0
 10
40.5010136840513368
 20
101.9529205598806954
 30
0.0
  0
VERTEX
  5
340C
  8
0
 10
40.4993224826961011
 20
101.9525562884480934
 30
0.0
  0
SEQEND
  5
340D
  8
0
  0
POLYLINE
  5
2E53
  8
0
 66
     1
 10
0.0
 20
0.0
 30
0.0
  0
VERTEX
  5
340E
  8
0
 10
40.6325214404504607
 20
102.3842024012019039
 30
0.0
  0
VERTEX
  5
340F
  8
0
 10
40.7796140604743016
 20
102.7987205953345011
 30
0.0
  0
VERTEX
  5
3410
  8
0
 10
41.0006930036286974
 20
103.1796993711098054
 30
0.0
  0
VERTEX
  5
3411
  8
0
 10
41.2591143595612593
 20
103.4665925730247977
 30
0.0
  0
VERTEX
  5
3412
  8
0
 10
41.4099182008079865
 20
103.5864612310483039
 30
0.0
  0
VERTEX
  5
3413
  8
0
 10
41.5668823255761879
 20
103.6827185418111981
 30
0.0
  0
VERTEX
  5
3414
  8
0
 10
41.7703969807839073
 20
103.7647909188219018
 30
0.0
  0
VERTEX
  5
3415
  8
0
 10
41.9400246496767579
 20
103.7844164269455973
 30
0.0
  0
VERTEX
  5
3416
  8
0
 10
42.0458599587371609
 20
103.7435763795952965
 30
0.0
  0
VERTEX
  5
3417
  8
0
 10
42.0955298167484386
 20
103.6486722680314045
 30
0.0
  0
VERTEX
  5
3418
  8
0
 10
42.1008056604495735
 20
103.5840110636692941
 30
0.0
  0
SEQEND
  5
3419
  8
0
  0
POLYLINE
  5
2E54
  8
0
 66
     1
 10
0.0
 20
0.0
 30
0.0
  0
VERTEX
  5
341A
  8
0
 10
41.7913697001988922
 20
101.9525562890737973
 30
0.0
  0
VERTEX
  5
341B
  8
0
 10
41.7880916748689515
 20
101.9534343649874018
 30
0.0
  0
VERTEX
  5
341C
  8
0
 10
41.7844129900850021
 20
101.9567990830461071
 30
0.0
  0
VERTEX
  5
341D
  8
0
 10
41.7795972806278186
 20
101.9660672730682052
 30
0.0
  0
VERTEX
  5
341E
  8
0
 10
41.7699072861262835
 20
102.0153014807029024
 30
0.0
  0
VERTEX
  5
341F
  8
0
 10
41.76601763961812
 20
102.1076375834739025
 30
0.0
  0
SEQEND
  5
3420
  8
0
  0
LINE
  5
2E55
  8
0
 10
41.8596198218901279
 20
101.9525562883359981
 30
0.0
 11
41.7913697002043421
 21
101.9525562890667061
 31
0.0
  0
POLYLINE
  5
2E56
  8
0
 66
     1
 10
0.0
 20
0.0
 30
0.0
  0
VERTEX
  5
3421
  8
0
 10
41.9977996464181729
 20
102.3842024012019039
 30
0.0
  0
VERTEX
  5
3422
  8
0
 10
41.9490436587715223
 20
102.1918037508827979
 30
0.0
  0
VERTEX
  5
3423
  8
0
 10
41.9262077789803129
 20
102.1105680971098053
 30
0.0
  0
VERTEX
  5
3424
  8
0
 10
41.9095164123252388
 20
102.0554886531992054
 30
0.0
  0
VERTEX
  5
3425
  8
0
 10
41.8971379673156079
 20
102.0184066867162045
 30
0.0
  0
VERTEX
  5
3426
  8
0
 10
41.8877469814385393
 20
101.9935720886330017
 30
0.0
  0
VERTEX
  5
3427
  8
0
 10
41.8804302734745022
 20
101.9770356844681061
 30
0.0
  0
VERTEX
  5
3428
  8
0
 10
41.8714900759287119
 20
101.9614914609869061
 30
0.0
  0
VERTEX
  5
3429
  8
0
 10
41.8670490381882132
 20
101.9562801075686025
 30
0.0
  0
VERTEX
  5
342A
  8
0
 10
41.8618896757099321
 20
101.9529318647889937
 30
0.0
  0
VERTEX
  5
342B
  8
0
 10
41.8596198218901279
 20
101.9525562883359981
 30
0.0
  0
SEQEND
  5
342C
  8
0
  0
POLYLINE
  5
2E57
  8
0
 66
     1
 10
0.0
 20
0.0
 30
0.0
  0
VERTEX
  5
342D
  8
0
 10
41.9977996464181729
 20
102.3842024012019039
 30
0.0
  0
VERTEX
  5
342E
  8
0
 10
42.1283517798780522
 20
102.7986879518811065
 30
0.0
  0
VERTEX
  5
342F
  8
0
 10
42.3347234549026723
 20
103.1796412385312038
 30
0.0
  0
VERTEX
  5
3430
  8
0
 10
42.5890733597512323
 20
103.4665554662000062
 30
0.0
  0
VERTEX
  5
3431
  8
0
 10
42.7441711154633808
 20
103.5864347052493031
 30
0.0
  0
VERTEX
  5
3432
  8
0
 10
42.9114638504144921
 20
103.682701934850698
 30
0.0
  0
VERTEX
  5
3433
  8
0
 10
43.1400614021780981
 20
103.7647838538781997
 30
0.0
  0
VERTEX
  5
3434
  8
0
 10
43.3473504178850675
 20
103.784418038679803
 30
0.0
  0
VERTEX
  5
3435
  8
0
 10
43.4959700024604601
 20
103.7435848464625963
 30
0.0
  0
VERTEX
  5
3436
  8
0
 10
43.5911906734183603
 20
103.6486876882020027
 30
0.0
  0
VERTEX
  5
3437
  8
0
 10
43.6360270735745175
 20
103.4923427092543022
 30
0.0
  0
VERTEX
  5
3438
  8
0
 10
43.6395597784684526
 20
103.4137422596541001
 30
0.0
  0
SEQEND
  5
3439
  8
0
  0
POLYLINE
  5
2E58
  8
0
 66
     1
 10
0.0
 20
0.0
 30
0.0
  0
VERTEX
  5
343A
  8
0
 10
43.4931725543107675
 20
101.952556289071893
 30
0.0
  0
VERTEX
  5
343B
  8
0
 10
43.4891425485072602
 20
101.9534430648562022
 30
0.0
  0
VERTEX
  5
343C
  8
0
 10
43.4845272578686703
 20
101.9568242177412998
 30
0.0
  0
VERTEX
  5
343D
  8
0
 10
43.4782502022885922
 20
101.9661390308937996
 30
0.0
  0
VERTEX
  5
343E
  8
0
 10
43.464019727172591
 20
102.0157342482385019
 30
0.0
  0
VERTEX
  5
343F
  8
0
 10
43.4523348459548373
 20
102.1785928756349051
 30
0.0
  0
SEQEND
  5
3440
  8
0
  0
LINE
  5
2E59
  8
0
 10
43.5756908367454727
 20
101.9525562909951049
 30
0.0
 11
43.4931725543152368
 21
101.9525562890667061
 31
0.0
  0
POLYLINE
  5
2E5A
  8
0
 66
     1
 10
0.0
 20
0.0
 30
0.0
  0
VERTEX
  5
3441
  8
0
 10
43.7128124066550185
 20
102.3842024012019039
 30
0.0
  0
VERTEX
  5
3442
  8
0
 10
43.6697132992163688
 20
102.1917795040056944
 30
0.0
  0
VERTEX
  5
3443
  8
0
 10
43.6475648685704414
 20
102.1105361792709942
 30
0.0
  0
VERTEX
  5
3444
  8
0
 10
43.6306795553673723
 20
102.0554519121752008
 30
0.0
  0
VERTEX
  5
3445
  8
0
 10
43.6177494415520925
 20
102.018369132597698
 30
0.0
  0
VERTEX
  5
3446
  8
0
 10
43.6076783589836623
 20
101.9935367402222965
 30
0.0
  0
VERTEX
  5
3447
  8
0
 10
43.5996518806499012
 20
101.9770044472617059
 30
0.0
  0
VERTEX
  5
3448
  8
0
 10
43.5895857129166018
 20
101.9614631896347987
 30
0.0
  0
VERTEX
  5
3449
  8
0
 10
43.5844645899296879
 20
101.956260875456195
 30
0.0
  0
VERTEX
  5
344A
  8
0
 10
43.5783902956550335
 20
101.9529255987482941
 30
0.0
  0
VERTEX
  5
344B
  8
0
 10
43.5756908367454727
 20
101.9525562909951049
 30
0.0
  0
SEQEND
  5
344C
  8
0
  0
POLYLINE
  5
2E5B
  8
0
 66
     1
 10
0.0
 20
0.0
 30
0.0
  0
VERTEX
  5
344D
  8
0
 10
43.712812406654983
 20
102.3842024012019039
 30
0.0
  0
VERTEX
  5
344E
  8
0
 10
43.8211119884744207
 20
102.7986277138994069
 30
0.0
  0
VERTEX
  5
344F
  8
0
 10
44.0037373524266897
 20
103.1795339616078024
 30
0.0
  0
VERTEX
  5
3450
  8
0
 10
44.242892029653369
 20
103.4664869919622987
 30
0.0
  0
VERTEX
  5
3451
  8
0
 10
44.3955034846865431
 20
103.5863857575921969
 30
0.0
  0
VERTEX
  5
3452
  8
0
 10
44.5658141277171822
 20
103.6826712912343993
 30
0.0
  0
VERTEX
  5
3453
  8
0
 10
44.8095027111731383
 20
103.7647708159120015
 30
0.0
  0
VERTEX
  5
3454
  8
0
 10
45.0453972607900468
 20
103.7844210097986064
 30
0.0
  0
VERTEX
  5
3455
  8
0
 10
45.2303100413003918
 20
103.7436004652258958
 30
0.0
  0
VERTEX
  5
3456
  8
0
 10
45.3669239757350908
 20
103.6487161351530943
 30
0.0
  0
VERTEX
  5
3457
  8
0
 10
45.4572037373197801
 20
103.4923872304755008
 30
0.0
  0
VERTEX
  5
3458
  8
0
 10
45.4911633087307834
 20
103.3372564069704964
 30
0.0
  0
VERTEX
  5
3459
  8
0
 10
45.4999998632677318
 20
103.172926538255993
 30
0.0
  0
SEQEND
  5
345A
  8
0
  0
POLYLINE
  5
2E5C
  8
0
 66
     1
 10
0.0
 20
0.0
 30
0.0
  0
VERTEX
  5
345B
  8
0
 10
45.479354988587481
 20
101.9525562890699035
 30
0.0
  0
VERTEX
  5
345C
  8
0
 10
45.4747337437412966
 20
101.9534552684556985
 30
0.0
  0
VERTEX
  5
345D
  8
0
 10
45.469378261396173
 20
101.9568594306114022
 30
0.0
  0
VERTEX
  5
345E
  8
0
 10
45.4619006925593681
 20
101.9662396497375028
 30
0.0
  0
VERTEX
  5
345F
  8
0
 10
45.4436813087724829
 20
102.0163429319712947
 30
0.0
  0
VERTEX
  5
3460
  8
0
 10
45.4206192198032781
 20
102.2287297681179012
 30
0.0
  0
VERTEX
  5
3461
  8
0
 10
45.4204520712647195
 20
102.2489562592106012
 30
0.0
  0
SEQEND
  5
3462
  8
0
  0
LINE
  5
2E5D
  8
0
 10
45.5725349892906593
 20
101.9525562901116018
 30
0.0
 11
45.4793549885901811
 21
101.9525562890667061
 31
0.0
  0
POLYLINE
  5
2E5E
  8
0
 66
     1
 10
0.0
 20
0.0
 30
0.0
  0
VERTEX
  5
3463
  8
0
 10
45.7026054339943428
 20
102.3842024012019039
 30
0.0
  0
VERTEX
  5
3464
  8
0
 10
45.6670292598185483
 20
102.1916750237000997
 30
0.0
  0
VERTEX
  5
3465
  8
0
 10
45.6465384020653673
 20
102.1104462443326071
 30
0.0
  0
VERTEX
  5
3466
  8
0
 10
45.6301987232750079
 20
102.0553727590557003
 30
0.0
  0
VERTEX
  5
3467
  8
0
 10
45.6172830395842581
 20
102.0183003951291028
 30
0.0
  0
VERTEX
  5
3468
  8
0
 10
45.6069725293351667
 20
101.9934784256235929
 30
0.0
  0
VERTEX
  5
3469
  8
0
 10
45.5985872282131979
 20
101.9769563711635953
 30
0.0
  0
VERTEX
  5
346A
  8
0
 10
45.5878314127873168
 20
101.9614227060134937
 30
0.0
  0
VERTEX
  5
346B
  8
0
 10
45.5822537097364204
 20
101.9562339251119027
 30
0.0
  0
VERTEX
  5
346C
  8
0
 10
45.5766485213445023
 20
101.9532332194650053
 30
0.0
  0
VERTEX
  5
346D
  8
0
 10
45.5725349892906593
 20
101.9525562901116018
 30
0.0
  0
SEQEND
  5
346E
  8
0
  0
POLYLINE
  5
2E5F
  8
0
 66
     1
 10
0.0
 20
0.0
 30
0.0
  0
VERTEX
  5
346F
  8
0
 10
45.7026054339942505
 20
102.3842024012019039
 30
0.0
  0
VERTEX
  5
3470
  8
0
 10
45.7839099906580529
 20
102.7985036032077062
 30
0.0
  0
VERTEX
  5
3471
  8
0
 10
45.9347706588811775
 20
103.1793129222003955
 30
0.0
  0
VERTEX
  5
3472
  8
0
 10
46.1482590501491288
 20
103.4663459123795946
 30
0.0
  0
VERTEX
  5
3473
  8
0
 10
46.2917086154222304
 20
103.5862849138298003
 30
0.0
  0
VERTEX
  5
3474
  8
0
 10
46.4575932077467826
 20
103.6826081620528015
 30
0.0
  0
VERTEX
  5
3475
  8
0
 10
46.7057174315971366
 20
103.764743949992706
 30
0.0
  0
VERTEX
  5
3476
  8
0
 10
46.9599132446722081
 20
103.7844271187892957
 30
0.0
  0
VERTEX
  5
3477
  8
0
 10
47.1730450798167169
 20
103.7436326230625951
 30
0.0
  0
VERTEX
  5
3478
  8
0
 10
47.3450887848140596
 20
103.6487747113126971
 30
0.0
  0
VERTEX
  5
3479
  8
0
 10
47.4768742117094575
 20
103.4924789078204981
 30
0.0
  0
VERTEX
  5
347A
  8
0
 10
47.542684222896213
 20
103.3373870316908949
 30
0.0
  0
VERTEX
  5
347B
  8
0
 10
47.5804550128439701
 20
103.1635519946170945
 30
0.0
  0
VERTEX
  5
347C
  8
0
 10
47.6008365918237928
 20
102.8650568093760995
 30
0.0
  0
VERTEX
  5
347D
  8
0
 10
47.6008097033561626
 20
102.8202318969830031
 30
0.0
  0
SEQEND
  5
347E
  8
0
  0
POLYLINE
  5
2E60
  8
0
 66
     1
 10
0.0
 20
0.0
 30
0.0
  0
VERTEX
  5
347F
  8
0
 10
47.6631113008170288
 20
101.9525562890690935
 30
0.0
  0
VERTEX
  5
3480
  8
0
 10
47.6581105601852926
 20
101.9534615699867999
 30
0.0
  0
VERTEX
  5
3481
  8
0
 10
47.6522506809992024
 20
101.9568775935275937
 30
0.0
  0
VERTEX
  5
3482
  8
0
 10
47.6439031127942982
 20
101.9662915897566933
 30
0.0
  0
VERTEX
  5
3483
  8
0
 10
47.6224905709125323
 20
102.0166579845822952
 30
0.0
  0
VERTEX
  5
3484
  8
0
 10
47.587808851511511
 20
102.2300975647083021
 30
0.0
  0
VERTEX
  5
3485
  8
0
 10
47.5843566945479211
 20
102.3233602687607942
 30
0.0
  0
SEQEND
  5
3486
  8
0
  0
LINE
  5
2E61
  8
0
 10
47.7628806081380901
 20
101.9525562902980056
 30
0.0
 11
47.6631113008190823
 21
101.9525562890667061
 31
0.0
  0
POLYLINE
  5
2E62
  8
0
 66
     1
 10
0.0
 20
0.0
 30
0.0
  0
VERTEX
  5
3487
  8
0
 10
47.8802152250551103
 20
102.3842024012019039
 30
0.0
  0
VERTEX
  5
3488
  8
0
 10
47.8537330289148031
 20
102.1916202062515993
 30
0.0
  0
VERTEX
  5
3489
  8
0
 10
47.8357934684773625
 20
102.1103992314669
 30
0.0
  0
VERTEX
  5
348A
  8
0
 10
47.8207125630528296
 20
102.0553315547417981
 30
0.0
  0
VERTEX
  5
348B
  8
0
 10
47.8083750905812792
 20
102.0182647405797951
 30
0.0
  0
VERTEX
  5
348C
  8
0
 10
47.7982752272341713
 20
101.9934482648990013
 30
0.0
  0
VERTEX
  5
348D
  8
0
 10
47.7898971608960892
 20
101.976931564060294
 30
0.0
  0
VERTEX
  5
348E
  8
0
 10
47.7789243311967695
 20
101.9614019210334988
 30
0.0
  0
VERTEX
  5
348F
  8
0
 10
47.7731331782489121
 20
101.956220111476199
 30
0.0
  0
VERTEX
  5
3490
  8
0
 10
47.7672445417294611
 20
101.9532291474939001
 30
0.0
  0
VERTEX
  5
3491
  8
0
 10
47.7628806081380901
 20
101.9525562902980056
 30
0.0
  0
SEQEND
  5
3492
  8
0
  0
POLYLINE
  5
2E63
  8
0
 66
     1
 10
0.0
 20
0.0
 30
0.0
  0
VERTEX
  5
3493
  8
0
 10
47.8802152250551103
 20
102.3842024012019039
 30
0.0
  0
VERTEX
  5
3494
  8
0
 10
47.9309498083271919
 20
102.7981533960196003
 30
0.0
  0
VERTEX
  5
3495
  8
0
 10
48.043344342237468
 20
103.1786891172090037
 30
0.0
  0
VERTEX
  5
3496
  8
0
 10
48.2217698335379907
 20
103.4659478279930056
 30
0.0
  0
VERTEX
  5
3497
  8
0
 10
48.349765588938368
 20
103.5860003964232021
 30
0.0
  0
VERTEX
  5
3498
  8
0
 10
48.5039680060715384
 20
103.6824300799699046
 30
0.0
  0
VERTEX
  5
3499
  8
0
 10
48.7456621096411027
 20
103.7646681179182053
 30
0.0
  0
VERTEX
  5
349A
  8
0
 10
49.0070623017350115
 20
103.7844442659711035
 30
0.0
  0
VERTEX
  5
349B
  8
0
 10
49.2391187328947311
 20
103.7437232034709069
 30
0.0
  0
VERTEX
  5
349C
  8
0
 10
49.4390933152406191
 20
103.6489397493670026
 30
0.0
  0
VERTEX
  5
349D
  8
0
 10
49.606647756485728
 20
103.4927372232955065
 30
0.0
  0
VERTEX
  5
349E
  8
0
 10
49.7014418089273704
 20
103.3377550802504032
 30
0.0
  0
VERTEX
  5
349F
  8
0
 10
49.7665437132857491
 20
103.1640333468628938
 30
0.0
  0
VERTEX
  5
34A0
  8
0
 10
49.8240807083385917
 20
102.8657483811389
 30
0.0
  0
VERTEX
  5
34A1
  8
0
 10
49.8461693650289703
 20
102.5451187982931032
 30
0.0
  0
VERTEX
  5
34A2
  8
0
 10
49.84953021736316
 20
102.3842024012255933
 30
0.0
  0
SEQEND
  5
34A3
  8
0
  0
POLYLINE
  5
2E64
  8
0
 66
     1
 10
0.0
 20
0.0
 30
0.0
  0
VERTEX
  5
34A4
  8
0
 10
49.9490008662522982
 20
101.9525562890667061
 30
0.0
  0
VERTEX
  5
34A5
  8
0
 10
49.9485557467310386
 20
101.9525630658525017
 30
0.0
  0
VERTEX
  5
34A6
  8
0
 10
49.9435421179159107
 20
101.9535750321107059
 30
0.0
  0
VERTEX
  5
34A7
  8
0
 10
49.9353035860614227
 20
101.9589579200416978
 30
0.0
  0
VERTEX
  5
34A8
  8
0
 10
49.9289280069199606
 20
101.9662669945141005
 30
0.0
  0
VERTEX
  5
34A9
  8
0
 10
49.9178093228657005
 20
101.9854495898275957
 30
0.0
  0
VERTEX
  5
34AA
  8
0
 10
49.9084872562183008
 20
102.0077185166390024
 30
0.0
  0
VERTEX
  5
34AB
  8
0
 10
49.8657513735964173
 20
102.1916001105768004
 30
0.0
  0
VERTEX
  5
34AC
  8
0
 10
49.84953021736316
 20
102.3842024012255933
 30
0.0
  0
SEQEND
  5
34AD
  8
0
  0
LINE
  5
2E65
  8
0
 10
50.0509990792997712
 20
101.9525562887997978
 30
0.0
 11
49.9490008662522982
 21
101.9525562890667061
 31
0.0
  0
POLYLINE
  5
2E66
  8
0
 66
     1
 10
0.0
 20
0.0
 30
0.0
  0
VERTEX
  5
34AE
  8
0
 10
50.1504697826368897
 20
102.3842024012020033
 30
0.0
  0
VERTEX
  5
34AF
  8
0
 10
50.1342486264035969
 20
102.1916001105768999
 30
0.0
  0
VERTEX
  5
34B0
  8
0
 10
50.0915127437817489
 20
102.0077185166391018
 30
0.0
  0
VERTEX
  5
34B1
  8
0
 10
50.0821906771343208
 20
101.9854495898276951
 30
0.0
  0
VERTEX
  5
34B2
  8
0
 10
50.0710719930800607
 20
101.9662669945142
 30
0.0
  0
VERTEX
  5
34B3
  8
0
 10
50.0646964139385986
 20
101.9589579200417973
 30
0.0
  0
VERTEX
  5
34B4
  8
0
 10
50.0564578820841106
 20
101.9535750321108054
 30
0.0
  0
VERTEX
  5
34B5
  8
0
 10
50.0514442532689827
 20
101.9525630658526012
 30
0.0
  0
VERTEX
  5
34B6
  8
0
 10
50.0509990792997712
 20
101.9525562887997978
 30
0.0
  0
SEQEND
  5
34B7
  8
0
  0
POLYLINE
  5
2E67
  8
0
 66
     1
 10
0.0
 20
0.0
 30
0.0
  0
VERTEX
  5
34B8
  8
0
 10
50.1504697826368897
 20
102.3842024012020033
 30
0.0
  0
VERTEX
  5
34B9
  8
0
 10
50.1685666255070188
 20
102.7987454493796946
 30
0.0
  0
VERTEX
  5
34BA
  8
0
 10
50.2380924826229318
 20
103.1797436312609051
 30
0.0
  0
VERTEX
  5
34BB
  8
0
 10
50.3738783335044502
 20
103.4666208254239024
 30
0.0
  0
VERTEX
  5
34BC
  8
0
 10
50.4808846982314989
 20
103.5864814275518029
 30
0.0
  0
VERTEX
  5
34BD
  8
0
 10
50.6166563812918184
 20
103.6827311864451957
 30
0.0
  0
VERTEX
  5
34BE
  8
0
 10
50.8414017641963483
 20
103.7647962977166003
 30
0.0
  0
VERTEX
  5
34BF
  8
0
 10
51.0984939143845267
 20
103.7844151990216943
 30
0.0
  0
VERTEX
  5
34C0
  8
0
 10
51.3392245934268203
 20
103.7435699317166069
 30
0.0
  0
VERTEX
  5
34C1
  8
0
 10
51.5582872097276308
 20
103.6486605252965063
 30
0.0
  0
VERTEX
  5
34C2
  8
0
 10
51.7541759191876523
 20
103.4923001982551938
 30
0.0
  0
VERTEX
  5
34C3
  8
0
 10
51.8737510776436395
 20
103.3371323995065012
 30
0.0
  0
VERTEX
  5
34C4
  8
0
 10
51.963246573856452
 20
103.1632189696842943
 30
0.0
  0
VERTEX
  5
34C5
  8
0
 10
52.0552783021013781
 20
102.8645783655232009
 30
0.0
  0
VERTEX
  5
34C6
  8
0
 10
52.105577006949197
 20
102.5435873765985946
 30
0.0
  0
VERTEX
  5
34C7
  8
0
 10
52.1197847749449181
 20
102.3842024012020033
 30
0.0
  0
SEQEND
  5
34C8
  8
0
  0
POLYLINE
  5
2E68
  8
0
 66
     1
 10
0.0
 20
0.0
 30
0.0
  0
VERTEX
  5
34C9
  8
0
 10
52.237119400017832
 20
101.9525562890667061
 30
0.0
  0
VERTEX
  5
34CA
  8
0
 10
52.23205326875879
 20
101.9534616783404033
 30
0.0
  0
VERTEX
  5
34CB
  8
0
 10
52.2259725285179002
 20
101.9568779057191961
 30
0.0
  0
VERTEX
  5
34CC
  8
0
 10
52.2170230356805689
 20
101.9662924827638051
 30
0.0
  0
VERTEX
  5
34CD
  8
0
 10
52.1922190963209118
 20
102.0166634063290019
 30
0.0
  0
VERTEX
  5
34CE
  8
0
 10
52.1391739971332413
 20
102.2301211061563038
 30
0.0
  0
VERTEX
  5
34CF
  8
0
 10
52.1197847749449181
 20
102.3842024012020033
 30
0.0
  0
SEQEND
  5
34D0
  8
0
  0
LINE
  5
2E69
  8
0
 10
52.3368886459753071
 20
101.9525562897070046
 30
0.0
 11
52.237119400017832
 21
101.9525562890667061
 31
0.0
  0
LINE
  5
2E6A
  8
0
 10
52.4141480886833122
 20
102.3842024012020033
 30
0.0
 11
52.4156432322768424
 21
102.3233007458363062
 31
0.0
  0
POLYLINE
  5
2E6B
  8
0
 66
     1
 10
0.0
 20
0.0
 30
0.0
  0
VERTEX
  5
34D1
  8
0
 10
52.4141480886832696
 20
102.3842024012020033
 30
0.0
  0
VERTEX
  5
34D2
  8
0
 10
52.398705703668611
 20
102.7987426923886005
 30
0.0
  0
VERTEX
  5
34D3
  8
0
 10
52.3991893344196669
 20
102.8210496638867966
 30
0.0
  0
SEQEND
  5
34D4
  8
0
  0
POLYLINE
  5
2E6C
  8
0
 66
     1
 10
0.0
 20
0.0
 30
0.0
  0
VERTEX
  5
34D5
  8
0
 10
54.4274650304473866
 20
101.9525562890667061
 30
0.0
  0
VERTEX
  5
34D6
  8
0
 10
54.4227166229217971
 20
101.9534555337931039
 30
0.0
  0
VERTEX
  5
34D7
  8
0
 10
54.4169304738848325
 20
101.9568601956633955
 30
0.0
  0
VERTEX
  5
34D8
  8
0
 10
54.4082794793208109
 20
101.9662418369801031
 30
0.0
  0
VERTEX
  5
34D9
  8
0
 10
54.3834617078150302
 20
102.016356187514603
 30
0.0
  0
VERTEX
  5
34DA
  8
0
 10
54.3247002988965733
 20
102.2287873099358961
 30
0.0
  0
VERTEX
  5
34DB
  8
0
 10
54.2973945660056927
 20
102.3842024012020033
 30
0.0
  0
SEQEND
  5
34DC
  8
0
  0
LINE
  5
2E6D
  8
0
 10
54.5206449651858804
 20
101.9525562873449047
 30
0.0
 11
54.4274650304473866
 21
101.9525562890667061
 31
0.0
  0
LINE
  5
2E6E
  8
0
 10
54.5723165360190592
 20
102.3842024267760991
 30
0.0
 11
54.579546975633292
 21
102.2479981792396018
 31
0.0
  0
POLYLINE
  5
2E6F
  8
0
 66
     1
 10
0.0
 20
0.0
 30
0.0
  0
VERTEX
  5
34DD
  8
0
 10
54.5723165360190308
 20
102.3842024267760991
 30
0.0
  0
VERTEX
  5
34DE
  8
0
 10
54.5240114187195886
 20
102.7987308148461949
 30
0.0
  0
VERTEX
  5
34DF
  8
0
 10
54.5000002020217593
 20
103.1727718144936006
 30
0.0
  0
SEQEND
  5
34E0
  8
0
  0
POLYLINE
  5
2E70
  8
0
 66
     1
 10
0.0
 20
0.0
 30
0.0
  0
VERTEX
  5
34E1
  8
0
 10
56.4243091700163006
 20
101.9525562890667061
 30
0.0
  0
VERTEX
  5
34E2
  8
0
 10
56.4200975659859125
 20
101.9534435607939997
 30
0.0
  0
VERTEX
  5
34E3
  8
0
 10
56.4148638954191881
 20
101.9568256497475005
 30
0.0
  0
VERTEX
  5
34E4
  8
0
 10
56.406902754303438
 20
101.9661431207559019
 30
0.0
  0
VERTEX
  5
34E5
  8
0
 10
56.3832385035693378
 20
102.0157589472156019
 30
0.0
  0
VERTEX
  5
34E6
  8
0
 10
56.3216218017595267
 20
102.2261953203204996
 30
0.0
  0
VERTEX
  5
34E7
  8
0
 10
56.2871875933450099
 20
102.3842024012020033
 30
0.0
  0
SEQEND
  5
34E8
  8
0
  0
LINE
  5
2E71
  8
0
 10
56.5068274069565177
 20
101.9525562890763979
 30
0.0
 11
56.4243091700163006
 21
101.9525562890667061
 31
0.0
  0
POLYLINE
  5
2E72
  8
0
 66
     1
 10
0.0
 20
0.0
 30
0.0
  0
VERTEX
  5
34E9
  8
0
 10
56.5306528159312904
 20
102.3842024012020033
 30
0.0
  0
VERTEX
  5
34EA
  8
0
 10
56.5475498608763587
 20
102.191737427566693
 30
0.0
  0
VERTEX
  5
34EB
  8
0
 10
56.547674377716497
 20
102.1740471813264008
 30
0.0
  0
SEQEND
  5
34EC
  8
0
  0
POLYLINE
  5
2E73
  8
0
 66
     1
 10
0.0
 20
0.0
 30
0.0
  0
VERTEX
  5
34ED
  8
0
 10
56.530652815931262
 20
102.3842024012020033
 30
0.0
  0
VERTEX
  5
34EE
  8
0
 10
56.4516010199890772
 20
102.7987066873491955
 30
0.0
  0
VERTEX
  5
34EF
  8
0
 10
56.38138098543876
 20
103.1796746034364958
 30
0.0
  0
VERTEX
  5
34F0
  8
0
 10
56.3604473155183712
 20
103.4118410891232998
 30
0.0
  0
SEQEND
  5
34F1
  8
0
  0
POLYLINE
  5
2E74
  8
0
 66
     1
 10
0.0
 20
0.0
 30
0.0
  0
VERTEX
  5
34F2
  8
0
 10
58.1403801926116515
 20
101.9525562890667061
 30
0.0
  0
VERTEX
  5
34F3
  8
0
 10
58.1368776078304634
 20
101.9534336610927028
 30
0.0
  0
VERTEX
  5
34F4
  8
0
 10
58.1324219244463265
 20
101.9567970482575987
 30
0.0
  0
VERTEX
  5
34F5
  8
0
 10
58.1254907155262117
 20
101.9660614661853941
 30
0.0
  0
VERTEX
  5
34F6
  8
0
 10
58.1039835000208598
 20
102.0152665080111944
 30
0.0
  0
VERTEX
  5
34F7
  8
0
 10
58.0422698367258931
 20
102.2240591030430039
 30
0.0
  0
VERTEX
  5
34F8
  8
0
 10
58.0022003535818627
 20
102.3842024012323009
 30
0.0
  0
SEQEND
  5
34F9
  8
0
  0
LINE
  5
2E75
  8
0
 10
58.2086302678210927
 20
101.9525562892581974
 30
0.0
 11
58.1403801926116515
 21
101.9525562890667061
 31
0.0
  0
POLYLINE
  5
2E76
  8
0
 66
     1
 10
0.0
 20
0.0
 30
0.0
  0
VERTEX
  5
34FA
  8
0
 10
58.2035682196838025
 20
102.3842024368335046
 30
0.0
  0
VERTEX
  5
34FB
  8
0
 10
58.2306531287592506
 20
102.1918603880690029
 30
0.0
  0
VERTEX
  5
34FC
  8
0
 10
58.2339595224656819
 20
102.1106056185326025
 30
0.0
  0
VERTEX
  5
34FD
  8
0
 10
58.2340062834993475
 20
102.1006244442737056
 30
0.0
  0
SEQEND
  5
34FE
  8
0
  0
POLYLINE
  5
2E77
  8
0
 66
     1
 10
0.0
 20
0.0
 30
0.0
  0
VERTEX
  5
34FF
  8
0
 10
58.2035682196837385
 20
102.3842024368334052
 30
0.0
  0
VERTEX
  5
3500
  8
0
 10
58.0972349952030527
 20
102.7986626367837033
 30
0.0
  0
VERTEX
  5
3501
  8
0
 10
57.9838784762750876
 20
103.1795961259572039
 30
0.0
  0
VERTEX
  5
3502
  8
0
 10
57.9112161607766325
 20
103.4665266707741011
 30
0.0
  0
VERTEX
  5
3503
  8
0
 10
57.8991869424936496
 20
103.5865281497376031
 30
0.0
  0
SEQEND
  5
3504
  8
0
  0
POLYLINE
  5
2E78
  8
0
 66
     1
 10
0.0
 20
0.0
 30
0.0
  0
VERTEX
  5
3505
  8
0
 10
59.5006775064366593
 20
101.9525562890667061
 30
0.0
  0
VERTEX
  5
3506
  8
0
 10
59.4979872238870087
 20
101.9534500585416055
 30
0.0
  0
VERTEX
  5
3507
  8
0
 10
59.4944837264960995
 20
101.9568444039257002
 30
0.0
  0
VERTEX
  5
3508
  8
0
 10
59.4888313771341473
 20
101.966196699153798
 30
0.0
  0
VERTEX
  5
3509
  8
0
 10
59.4700956471688187
 20
102.0160828417975978
 30
0.0
  0
VERTEX
  5
350A
  8
0
 10
59.4099342386131184
 20
102.227600850142295
 30
0.0
  0
VERTEX
  5
350B
  8
0
 10
59.3674785595495678
 20
102.3842024012314056
 30
0.0
  0
SEQEND
  5
350C
  8
0
  0
LINE
  5
2E79
  8
0
 10
59.5516765966036985
 20
101.9525562882244998
 30
0.0
 11
59.5006775064366593
 21
101.9525562890667061
 31
0.0
  0
POLYLINE
  5
2E7A
  8
0
 66
     1
 10
0.0
 20
0.0
 30
0.0
  0
VERTEX
  5
350D
  8
0
 10
59.517948342186429
 20
102.3842024012020033
 30
0.0
  0
VERTEX
  5
350E
  8
0
 10
59.5540566028250495
 20
102.1917195074860985
 30
0.0
  0
VERTEX
  5
350F
  8
0
 10
59.5619842933853079
 20
102.1104845475872054
 30
0.0
  0
VERTEX
  5
3510
  8
0
 10
59.5645953022291224
 20
102.0554064678614026
 30
0.0
  0
VERTEX
  5
3511
  8
0
 10
59.5648429338918106
 20
102.0352481850596007
 30
0.0
  0
SEQEND
  5
3512
  8
0
  0
POLYLINE
  5
2E7B
  8
0
 66
     1
 10
0.0
 20
0.0
 30
0.0
  0
VERTEX
  5
3513
  8
0
 10
59.517948342186429
 20
102.3842024012020033
 30
0.0
  0
VERTEX
  5
3514
  8
0
 10
59.3890029923926406
 20
102.7985780618172953
 30
0.0
  0
VERTEX
  5
3515
  8
0
 10
59.2374950527597832
 20
103.1794455339673959
 30
0.0
  0
VERTEX
  5
3516
  8
0
 10
59.1148091579711092
 20
103.4664305511602009
 30
0.0
  0
VERTEX
  5
3517
  8
0
 10
59.0709800190439793
 20
103.5863454129316068
 30
0.0
  0
VERTEX
  5
3518
  8
0
 10
59.0497570317065765
 20
103.6826460344477994
 30
0.0
  0
VERTEX
  5
3519
  8
0
 10
59.0490017846749069
 20
103.6990401739210057
 30
0.0
  0
SEQEND
  5
351A
  8
0
  0
POLYLINE
  5
2E7C
  8
0
 66
     1
 10
0.0
 20
0.0
 30
0.0
  0
VERTEX
  5
351B
  8
0
 10
60.4457496529250804
 20
101.9525562890667061
 30
0.0
  0
VERTEX
  5
351C
  8
0
 10
60.4440134528467183
 20
101.9534590096874069
 30
0.0
  0
VERTEX
  5
351D
  8
0
 10
60.4416238284576934
 20
101.9568702155781068
 30
0.0
  0
VERTEX
  5
351E
  8
0
 10
60.4375193611659824
 20
101.9662704878986972
 30
0.0
  0
VERTEX
  5
351F
  8
0
 10
60.4224920981836817
 20
102.0165299175859985
 30
0.0
  0
VERTEX
  5
3520
  8
0
 10
60.3667560143087201
 20
102.2295415220899031
 30
0.0
  0
VERTEX
  5
3521
  8
0
 10
60.323353002315713
 20
102.3842024012269007
 30
0.0
  0
SEQEND
  5
3522
  8
0
  0
LINE
  5
2E7D
  8
0
 10
60.4772688240852005
 20
101.952556287964498
 30
0.0
 11
60.4457496529250804
 21
101.9525562890667061
 31
0.0
  0
POLYLINE
  5
2E7E
  8
0
 66
     1
 10
0.0
 20
0.0
 30
0.0
  0
VERTEX
  5
3523
  8
0
 10
60.4163484422651109
 20
102.3842024012020033
 30
0.0
  0
VERTEX
  5
3524
  8
0
 10
60.4599052818989335
 20
102.1916426538572011
 30
0.0
  0
VERTEX
  5
3525
  8
0
 10
60.472111787887961
 20
102.1104184195716016
 30
0.0
  0
VERTEX
  5
3526
  8
0
 10
60.4781355112008896
 20
102.0553483197178934
 30
0.0
  0
VERTEX
  5
3527
  8
0
 10
60.4809034387874007
 20
102.0182792121221951
 30
0.0
  0
VERTEX
  5
3528
  8
0
 10
60.481912911601853
 20
101.993460484081595
 30
0.0
  0
VERTEX
  5
3529
  8
0
 10
60.4820207523854592
 20
101.9842565451855023
 30
0.0
  0
SEQEND
  5
352A
  8
0
  0
POLYLINE
  5
2E7F
  8
0
 66
     1
 10
0.0
 20
0.0
 30
0.0
  0
VERTEX
  5
352B
  8
0
 10
60.4163484422650399
 20
102.3842024012020033
 30
0.0
  0
VERTEX
  5
352C
  8
0
 10
60.2704851733414273
 20
102.7983821647266041
 30
0.0
  0
VERTEX
  5
352D
  8
0
 10
60.0875338840076765
 20
103.1790966256424014
 30
0.0
  0
VERTEX
  5
352E
  8
0
 10
59.9201611765275004
 20
103.4662078711520934
 30
0.0
  0
VERTEX
  5
352F
  8
0
 10
59.8463028322202604
 20
103.5861862478969044
 30
0.0
  0
VERTEX
  5
3530
  8
0
 10
59.7903576704892998
 20
103.6825464013385982
 30
0.0
  0
VERTEX
  5
3531
  8
0
 10
59.7596236080747474
 20
103.7646668779698018
 30
0.0
  0
SEQEND
  5
3532
  8
0
  0
POLYLINE
  5
2E80
  8
0
 66
     1
 10
0.0
 20
0.0
 30
0.0
  0
VERTEX
  5
3533
  8
0
 10
60.9342924153126475
 20
101.9525562890667061
 30
0.0
  0
VERTEX
  5
3534
  8
0
 10
60.9335983504977108
 20
101.9534630422432002
 30
0.0
  0
VERTEX
  5
3535
  8
0
 10
60.9324318063057717
 20
101.9568818351017967
 30
0.0
  0
VERTEX
  5
3536
  8
0
 10
60.9300670471168715
 20
101.9663037232509026
 30
0.0
  0
VERTEX
  5
3537
  8
0
 10
60.9194774154445824
 20
102.0167316656611973
 30
0.0
  0
VERTEX
  5
3538
  8
0
 10
60.8708086264705628
 20
102.2304174996949939
 30
0.0
  0
VERTEX
  5
3539
  8
0
 10
60.8280473819369334
 20
102.3842024012253944
 30
0.0
  0
SEQEND
  5
353A
  8
0
  0
LINE
  5
2E81
  8
0
 10
60.9449541284404006
 20
101.952556288254101
 30
0.0
 11
60.9342924153126475
 21
101.9525562890667061
 31
0.0
  0
POLYLINE
  5
2E82
  8
0
 66
     1
 10
0.0
 20
0.0
 30
0.0
  0
VERTEX
  5
353B
  8
0
 10
60.8595041322314216
 20
102.3842024012019039
 30
0.0
  0
VERTEX
  5
353C
  8
0
 10
60.9086041114899217
 20
102.1916062939261991
 30
0.0
  0
VERTEX
  5
353D
  8
0
 10
60.9245586870146312
 20
102.1103875166139971
 30
0.0
  0
VERTEX
  5
353E
  8
0
 10
60.9337337123647487
 20
102.0553214591792965
 30
0.0
  0
VERTEX
  5
353F
  8
0
 10
60.9390797842291576
 20
102.0182561181802043
 30
0.0
  0
VERTEX
  5
3540
  8
0
 10
60.9421998280274977
 20
101.9934410417983059
 30
0.0
  0
VERTEX
  5
3541
  8
0
 10
60.9439870806912083
 20
101.9769256659733969
 30
0.0
  0
VERTEX
  5
3542
  8
0
 10
60.9452641138549609
 20
101.9613970230728057
 30
0.0
  0
VERTEX
  5
3543
  8
0
 10
60.9454538782313975
 20
101.9562168655094041
 30
0.0
  0
VERTEX
  5
3544
  8
0
 10
60.94529927033701
 20
101.9532281891736005
 30
0.0
  0
VERTEX
  5
3545
  8
0
 10
60.9449541284404006
 20
101.952556288254101
 30
0.0
  0
SEQEND
  5
3546
  8
0
  0
POLYLINE
  5
2E83
  8
0
 66
     1
 10
0.0
 20
0.0
 30
0.0
  0
VERTEX
  5
3547
  8
0
 10
60.8595041322314216
 20
102.3842024012019039
 30
0.0
  0
VERTEX
  5
3548
  8
0
 10
60.7066133261616017
 20
102.7917576095294976
 30
0.0
  0
VERTEX
  5
3549
  8
0
 10
60.496140899650527
 20
103.1797404768813067
 30
0.0
  0
VERTEX
  5
354A
  8
0
 10
60.2915368378179366
 20
103.4666188118865051
 30
0.0
  0
VERTEX
  5
354B
  8
0
 10
60.1928498939962822
 20
103.5844671634945939
 30
0.0
  0
VERTEX
  5
354C
  8
0
 10
60.1028888750859096
 20
103.6827302852550048
 30
0.0
  0
VERTEX
  5
354D
  8
0
 10
60.021720599654941
 20
103.7647959143708931
 30
0.0
  0
VERTEX
  5
354E
  8
0
 10
60.0000000000006324
 20
103.7857789469427985
 30
0.0
  0
SEQEND
  5
354F
  8
0
  0
ARC
  5
2E84
  8
0
 10
41.9689952128837476
 20
101.522361651869204
 30
0.0
 40
2.999999999999992
 50
114.6032103784230003
 51
131.1700259953285013
  0
ARC
  5
2E85
  8
0
 10
58.0310047871163022
 20
101.522361651869204
 30
0.0
 40
2.9999999999999818
 50
48.8309758711960313
 51
65.3967896215769997
  0
POLYLINE
  5
2E86
  8
0
 66
     1
 10
0.0
 20
0.0
 30
0.0
  0
VERTEX
  5
3550
  8
0
 10
39.9999999988572981
 20
103.7857789458498985
 30
0.0
  0
VERTEX
  5
3551
  8
0
 10
39.9985758230397224
 20
103.7844152865578025
 30
0.0
  0
VERTEX
  5
3552
  8
0
 10
39.9567204282116677
 20
103.7435703912937015
 30
0.0
  0
VERTEX
  5
3553
  8
0
 10
39.8650732596763575
 20
103.6486613622573998
 30
0.0
  0
VERTEX
  5
3554
  8
0
 10
39.7291727114748596
 20
103.4923015081223951
 30
0.0
  0
VERTEX
  5
3555
  8
0
 10
39.6118926355633008
 20
103.3393427413484034
 30
0.0
  0
VERTEX
  5
3556
  8
0
 10
39.4934461492423168
 20
103.1632214106568028
 30
0.0
  0
VERTEX
  5
3557
  8
0
 10
39.3296112221397607
 20
102.8684158618121955
 30
0.0
  0
VERTEX
  5
3558
  8
0
 10
39.1926207165315432
 20
102.5435919664380009
 30
0.0
  0
VERTEX
  5
3559
  8
0
 10
39.1404958677749804
 20
102.3842024012233054
 30
0.0
  0
SEQEND
  5
355A
  8
0
  0
LINE
  5
2E87
  8
3
 10
52.0095000000000312
 20
53.0
 30
0.0
 11
52.0095000000000312
 21
93.0
 31
0.0
  0
LINE
  5
2E8A
  8
3
 10
47.9905000000000186
 20
53.0
 30
0.0
 11
47.9905000000000186
 21
93.0
 31
0.0
  0
ENDSEC
  0
EOF
