  0
SECTION
  2
HEADER
  9
$ACADVER
  1
AC1009
  9
$INSBASE
 10
0.0
 20
0.0
 30
0.0
  9
$EXTMIN
 10
0.0
 20
-2.960436562073669
 30
0.0
  9
$EXTMAX
 10
96.9999999999999716
 20
174.5473790923248032
 30
0.0
  9
$LIMMIN
 10
0.0
 20
0.0
  9
$LIMMAX
 10
187.5
 20
135.0
  9
$ORTHOMODE
 70
     1
  9
$REGENMODE
 70
     1
  9
$FILLMODE
 70
     1
  9
$QTEXTMODE
 70
     0
  9
$MIRRTEXT
 70
     0
  9
$DRAGMODE
 70
     2
  9
$LTSCALE
 40
5.0
  9
$OSMODE
 70
    37
  9
$ATTMODE
 70
     1
  9
$TEXTSIZE
 40
0.2
  9
$TRACEWID
 40
0.05
  9
$TEXTSTYLE
  7
STANDARD
  9
$CLAYER
  8
0
  9
$CELTYPE
  6
BYLAYER
  9
$CECOLOR
 62
   256
  9
$DIMSCALE
 40
0.5
  9
$DIMASZ
 40
3.0
  9
$DIMEXO
 40
2.0
  9
$DIMDLI
 40
0.38
  9
$DIMRND
 40
0.0
  9
$DIMDLE
 40
0.0
  9
$DIMEXE
 40
2.0
  9
$DIMTP
 40
0.0
  9
$DIMTM
 40
0.0
  9
$DIMTXT
 40
3.0
  9
$DIMCEN
 40
0.0
  9
$DIMTSZ
 40
0.0
  9
$DIMTOL
 70
     0
  9
$DIMLIM
 70
     0
  9
$DIMTIH
 70
     0
  9
$DIMTOH
 70
     0
  9
$DIMSE1
 70
     0
  9
$DIMSE2
 70
     0
  9
$DIMTAD
 70
     1
  9
$DIMZIN
 70
     0
  9
$DIMBLK
  1

  9
$DIMASO
 70
     0
  9
$DIMSHO
 70
     0
  9
$DIMPOST
  1

  9
$DIMAPOST
  1

  9
$DIMALT
 70
     0
  9
$DIMALTD
 70
     2
  9
$DIMALTF
 40
25.3999999999999986
  9
$DIMLFAC
 40
1.0
  9
$DIMTOFL
 70
     1
  9
$DIMTVP
 40
1.6000000000000001
  9
$DIMTIX
 70
     1
  9
$DIMSOXD
 70
     0
  9
$DIMSAH
 70
     0
  9
$DIMBLK1
  1

  9
$DIMBLK2
  1

  9
$DIMSTYLE
  2
STANDARD
  9
$DIMCLRD
 70
     0
  9
$DIMCLRE
 70
     0
  9
$DIMCLRT
 70
     0
  9
$DIMTFAC
 40
1.0
  9
$DIMGAP
 40
0.09
  9
$LUNITS
 70
     2
  9
$LUPREC
 70
     4
  9
$SKETCHINC
 40
0.1
  9
$FILLETRAD
 40
3.0
  9
$AUNITS
 70
     0
  9
$AUPREC
 70
     4
  9
$MENU
  1
E:\r13\win\SUPPORT\ACAD
  9
$ELEVATION
 40
0.0
  9
$PELEVATION
 40
0.0
  9
$THICKNESS
 40
0.0
  9
$LIMCHECK
 70
     0
  9
$BLIPMODE
 70
     0
  9
$CHAMFERA
 40
0.0
  9
$CHAMFERB
 40
0.0
  9
$SKPOLY
 70
     0
  9
$TDCREATE
 40
2451584.6354745370335877
  9
$TDUPDATE
 40
2460095.5804050927981734
  9
$TDINDWG
 40
0.082574919
  9
$TDUSRTIMER
 40
2456689.1120539577677846
  9
$USRTIMER
 70
     1
  9
$ANGBASE
 50
0.0
  9
$ANGDIR
 70
     0
  9
$PDMODE
 70
     0
  9
$PDSIZE
 40
0.0
  9
$PLINEWID
 40
0.0
  9
$COORDS
 70
     1
  9
$SPLFRAME
 70
     0
  9
$SPLINETYPE
 70
     6
  9
$SPLINESEGS
 70
     8
  9
$ATTDIA
 70
     1
  9
$ATTREQ
 70
     1
  9
$HANDLING
 70
     1
  9
$HANDSEED
  5
2F6E
  9
$SURFTAB1
 70
     6
  9
$SURFTAB2
 70
     6
  9
$SURFTYPE
 70
     6
  9
$SURFU
 70
     6
  9
$SURFV
 70
     6
  9
$UCSNAME
  2

  9
$UCSORG
 10
0.0
 20
0.0
 30
0.0
  9
$UCSXDIR
 10
1.0
 20
0.0
 30
0.0
  9
$UCSYDIR
 10
0.0
 20
1.0
 30
0.0
  9
$PUCSNAME
  2

  9
$PUCSORG
 10
0.0
 20
0.0
 30
0.0
  9
$PUCSXDIR
 10
1.0
 20
0.0
 30
0.0
  9
$PUCSYDIR
 10
0.0
 20
1.0
 30
0.0
  9
$USERI1
 70
     0
  9
$USERI2
 70
     1
  9
$USERI3
 70
     1
  9
$USERI4
 70
     0
  9
$USERI5
 70
     0
  9
$USERR1
 40
0.0
  9
$USERR2
 40
0.0
  9
$USERR3
 40
0.0
  9
$USERR4
 40
0.0
  9
$USERR5
 40
0.0
  9
$WORLDVIEW
 70
     1
  9
$SHADEDGE
 70
     3
  9
$SHADEDIF
 70
    70
  9
$TILEMODE
 70
     1
  9
$MAXACTVP
 70
    16
  9
$PLIMCHECK
 70
     0
  9
$PEXTMIN
 10
1.0000000000000000E+20
 20
1.0000000000000000E+20
 30
1.0000000000000000E+20
  9
$PEXTMAX
 10
-1.0000000000000000E+20
 20
-1.0000000000000000E+20
 30
-1.0000000000000000E+20
  9
$PLIMMIN
 10
0.0
 20
0.0
  9
$PLIMMAX
 10
0.0
 20
0.0
  9
$UNITMODE
 70
     0
  9
$VISRETAIN
 70
     0
  9
$PLINEGEN
 70
     0
  9
$PSLTSCALE
 70
     0
  0
ENDSEC
  0
SECTION
  2
TABLES
  0
TABLE
  2
VPORT
 70
     1
  0
VPORT
  2
*ACTIVE
 70
     0
 10
0.0
 20
0.0
 11
1.0
 21
1.0
 12
232.5609756097560989
 22
100.0
 13
0.0
 23
0.0
 14
5.0
 24
5.0
 15
5.0
 25
5.0
 16
0.0
 26
0.0
 36
1.0
 17
0.0
 27
0.0
 37
0.0
 40
200.0
 41
2.325609756097561
 42
50.0
 43
0.0
 44
0.0
 50
0.0
 51
0.0
 71
    16
 72
   500
 73
     1
 74
     0
 75
     0
 76
     0
 77
     0
 78
     2
  0
ENDTAB
  0
TABLE
  2
LTYPE
 70
     3
  0
LTYPE
  2
CONTINUOUS
 70
     0
  3
Solid Line
 72
    65
 73
     0
 40
0.0
  0
LTYPE
  2
CENTER
 70
     0
  3
____ _ ____ _ ____ _ ____ _ ____ _ ____ _ ____
 72
    65
 73
     4
 40
2.0
 49
1.25
 49
-0.25
 49
0.25
 49
-0.25
  0
LTYPE
  2
PHANTOM2
 70
     0
  3
___ _ _ ___ _ _ ___ _ _ ___ _ _
 72
    65
 73
     6
 40
1.25
 49
0.625
 49
-0.125
 49
0.125
 49
-0.125
 49
0.125
 49
-0.125
  0
ENDTAB
  0
TABLE
  2
LAYER
 70
     4
  0
LAYER
  2
0
 70
     0
 62
     7
  6
CONTINUOUS
  0
LAYER
  2
1
 70
     0
 62
     1
  6
CENTER
  0
LAYER
  2
3
 70
     0
 62
     3
  6
CONTINUOUS
  0
LAYER
  2
DEFPOINTS
 70
     0
 62
     7
  6
CONTINUOUS
  0
ENDTAB
  0
TABLE
  2
STYLE
 70
     2
  0
STYLE
  2
STANDARD
 70
     0
 40
0.0
 41
1.0
 50
0.0
 71
     0
 42
0.2
  3
TXT
  4
BIGFONT
  0
STYLE
  2
STANDARD1
 70
     0
 40
0.0
 41
1.0
 50
0.0
 71
     0
 42
3.0
  3
txt
  4

  0
ENDTAB
  0
TABLE
  2
VIEW
 70
     1
  0
VIEW
  2
ALL
 70
     0
 40
175.0
 10
142.7371014838101075
 20
87.5
 41
0.0
 11
0.0
 21
0.0
 31
1.0
 12
0.0
 22
0.0
 32
0.0
 42
50.0
 43
0.0
 44
0.0
 50
0.0
 71
     0
  0
ENDTAB
  0
TABLE
  2
UCS
 70
     0
  0
ENDTAB
  0
TABLE
  2
APPID
 70
     9
  0
APPID
  2
ACAD
 70
     0
  0
APPID
  2
GENIUS_GENODEF_13
 70
     0
  0
APPID
  2
GENIUS_GENOBJ-N-FIL_13
 70
     0
  0
APPID
  2
GENIUS_GENOREF_13
 70
     0
  0
APPID
  2
GENIUS_GENFIL_13
 70
     0
  0
APPID
  2
GENIUS_GENOBJ-N-CHA_13
 70
     0
  0
APPID
  2
ACAD_MLEADERVER
 70
     0
  0
APPID
  2
ACAD_EXEMPT_FROM_CAD_STANDARDS
 70
     0
  0
APPID
  2
ACAD_NAV_VCDISPLAY
 70
     0
  0
ENDTAB
  0
TABLE
  2
DIMSTYLE
 70
     1
  0
DIMSTYLE
  2
STANDARD
 70
     0
  3

  4

  5

  6

  7

 40
1.0
 41
0.18
 42
0.0625
 43
0.38
 44
0.18
 45
0.0
 46
0.0
 47
0.0
 48
0.0
140
0.18
141
0.09
142
0.0
143
25.3999999999999986
144
1.0
145
0.0
146
1.0
147
0.09
 71
     0
 72
     0
 73
     1
 74
     1
 75
     0
 76
     0
 77
     0
 78
     0
170
     0
171
     2
172
     0
173
     0
174
     0
175
     0
176
     0
177
     0
178
     0
  0
ENDTAB
  0
ENDSEC
  0
SECTION
  2
BLOCKS
  0
BLOCK
  8
0
  2
$MODEL_SPACE
 70
     0
 10
0.0
 20
0.0
 30
0.0
  3
$MODEL_SPACE
  1

  0
ENDBLK
  5
49C
  8
0
  0
BLOCK
 67
     1
  8
0
  2
$PAPER_SPACE
 70
     0
 10
0.0
 20
0.0
 30
0.0
  3
$PAPER_SPACE
  1

  0
ENDBLK
  5
49A
 67
     1
  8
0
  0
ENDSEC
  0
SECTION
  2
ENTITIES
  0
TEXT
  5
1C19
  8
0
 62
     3
 10
0.0
 20
0.0
 30
0.0
 40
10.0
  1
ECL05X20
  7
STANDARD1
  0
LINE
  5
2679
  8
1
 10
42.4999999999999716
 20
95.4999999999999716
 30
0.0
 11
57.4999999999999716
 21
95.4999999999999716
 31
0.0
  0
LINE
  5
267A
  8
1
 10
42.4999999999999716
 20
94.9999999999999858
 30
0.0
 11
57.4999999999999716
 21
94.9999999999999858
 31
0.0
  0
ARC
  5
267B
  8
0
 10
71.8048695624940194
 20
75.7570167163328847
 30
0.0
 40
22.0000000000000107
 50
53.1459532882687498
 51
111.6479274262791961
  0
ARC
  5
267C
  8
0
 10
49.9999999999999716
 20
95.5
 30
0.0
 40
8.0000000000000018
 50
96.4753826053447767
 51
324.1992133584327007
  0
ARC
  5
267D
  8
0
 10
60.8265258198959486
 20
0.1124413842592773
 30
0.0
 40
104.0000000000012932
 50
76.5593944675817255
 51
96.4753826053447767
  0
ARC
  5
267E
  8
0
 10
68.6542829176515852
 20
82.045717082348375
 30
0.0
 40
15.0000000000000195
 50
110.2533127853150035
 51
144.1992120493137008
  0
ARC
  5
2680
  8
0
 10
60.000000000008157
 20
105.4999999999779021
 30
0.0
 40
9.9999999999764526
 50
290.2533150620437823
 51
291.6479274262827062
  0
POLYLINE
  5
2681
  8
0
 66
     1
 10
0.0
 20
0.0
 30
0.0
  0
VERTEX
  5
297F
  8
0
 10
84.9999999999999858
 20
93.360667835836594
 30
0.0
  0
VERTEX
  5
2980
  8
0
 10
85.673176326188937
 20
92.8353287772976046
 30
0.0
  0
VERTEX
  5
2981
  8
0
 10
86.3235170007493764
 20
92.2860480419623741
 30
0.0
  0
VERTEX
  5
2982
  8
0
 10
86.959109548113247
 20
91.7053120802638944
 30
0.0
  0
VERTEX
  5
2983
  8
0
 10
87.5670724635411375
 20
91.1047513930277546
 30
0.0
  0
SEQEND
  5
2984
  8
0
  0
POLYLINE
  5
2682
  8
0
 66
     1
 10
0.0
 20
0.0
 30
0.0
  0
VERTEX
  5
2985
  8
0
 10
84.9999999999999858
 20
101.2640263746295943
 30
0.0
  0
VERTEX
  5
2986
  8
0
 10
85.7710322423178866
 20
101.0766402181751005
 30
0.0
  0
VERTEX
  5
2987
  8
0
 10
86.5353198764313731
 20
100.8847486326244933
 30
0.0
  0
VERTEX
  5
2988
  8
0
 10
87.3092842246430507
 20
100.6841139243169039
 30
0.0
  0
VERTEX
  5
2989
  8
0
 10
88.0650480129469742
 20
100.4820727910693989
 30
0.0
  0
VERTEX
  5
298A
  8
0
 10
88.7767497032514541
 20
100.2862071050741974
 30
0.0
  0
VERTEX
  5
298B
  8
0
 10
89.4613846431670652
 20
100.0926637293389945
 30
0.0
  0
VERTEX
  5
298C
  8
0
 10
90.1327016611397767
 20
99.8979446098035169
 30
0.0
  0
VERTEX
  5
298D
  8
0
 10
90.7653949459974854
 20
99.7099519728800345
 30
0.0
  0
VERTEX
  5
298E
  8
0
 10
91.3528308311241233
 20
99.5314772997303407
 30
0.0
  0
VERTEX
  5
298F
  8
0
 10
91.8962414880767966
 20
99.3629968905065084
 30
0.0
  0
SEQEND
  5
2990
  8
0
  0
POLYLINE
  5
2683
  8
0
 66
     1
 10
0.0
 20
0.0
 30
0.0
  0
VERTEX
  5
2991
  8
0
 10
90.4839013070262865
 20
91.1590910131535139
 30
0.0
  0
VERTEX
  5
2992
  8
0
 10
90.1469440953728736
 20
90.8617625603754391
 30
0.0
  0
VERTEX
  5
2993
  8
0
 10
89.757466246119705
 20
90.6489881453677242
 30
0.0
  0
VERTEX
  5
2994
  8
0
 10
89.3923461160823081
 20
90.5390445363045586
 30
0.0
  0
VERTEX
  5
2995
  8
0
 10
89.0068174955503082
 20
90.5000116195951421
 30
0.0
  0
VERTEX
  5
2996
  8
0
 10
88.6174522932035273
 20
90.5372828269429704
 30
0.0
  0
VERTEX
  5
2997
  8
0
 10
88.2334883666452754
 20
90.6527155292343423
 30
0.0
  0
VERTEX
  5
2998
  8
0
 10
87.942989871332685
 20
90.8023918960597456
 30
0.0
  0
VERTEX
  5
2999
  8
0
 10
87.6764866457357641
 20
91.0005626384925961
 30
0.0
  0
VERTEX
  5
299A
  8
0
 10
87.5670724635411375
 20
91.1047513930277546
 30
0.0
  0
SEQEND
  5
299B
  8
0
  0
POLYLINE
  5
2684
  8
0
 66
     1
 10
0.0
 20
0.0
 30
0.0
  0
VERTEX
  5
299C
  8
0
 10
93.4008700873593796
 20
94.7011607010010721
 30
0.0
  0
VERTEX
  5
299D
  8
0
 10
93.0865131520991156
 20
94.2861528360400598
 30
0.0
  0
VERTEX
  5
299E
  8
0
 10
92.7251131712415884
 20
93.8198135129294855
 30
0.0
  0
VERTEX
  5
299F
  8
0
 10
92.308987221307774
 20
93.2966678025901643
 30
0.0
  0
VERTEX
  5
29A0
  8
0
 10
91.8553926812781469
 20
92.7422761032961489
 30
0.0
  0
VERTEX
  5
29A1
  8
0
 10
91.1984764934284868
 20
91.9672241535020731
 30
0.0
  0
VERTEX
  5
29A2
  8
0
 10
90.4839013070262865
 20
91.1590910131535139
 30
0.0
  0
SEQEND
  5
29A3
  8
0
  0
POLYLINE
  5
2685
  8
0
 66
     1
 10
0.0
 20
0.0
 30
0.0
  0
VERTEX
  5
29A4
  8
0
 10
93.9999999999999574
 20
96.5
 30
0.0
  0
VERTEX
  5
29A5
  8
0
 10
93.9999849999812227
 20
96.4905131729415473
 30
0.0
  0
VERTEX
  5
29A6
  8
0
 10
93.9632013684335732
 20
96.0315582745812151
 30
0.0
  0
VERTEX
  5
29A7
  8
0
 10
93.8544598599870454
 20
95.5769296301350266
 30
0.0
  0
VERTEX
  5
29A8
  8
0
 10
93.6680554346353631
 20
95.1283294135570543
 30
0.0
  0
VERTEX
  5
29A9
  8
0
 10
93.4008700873593796
 20
94.7011607010010721
 30
0.0
  0
SEQEND
  5
29AA
  8
0
  0
POLYLINE
  5
2686
  8
0
 66
     1
 10
0.0
 20
0.0
 30
0.0
  0
VERTEX
  5
29AB
  8
0
 10
91.8962414880767966
 20
99.3629968905065084
 30
0.0
  0
VERTEX
  5
29AC
  8
0
 10
92.2470199551728456
 20
99.2285506358971077
 30
0.0
  0
VERTEX
  5
29AD
  8
0
 10
92.5641357546829511
 20
99.0599764336654118
 30
0.0
  0
VERTEX
  5
29AE
  8
0
 10
92.8546049576663108
 20
98.8580705416412115
 30
0.0
  0
VERTEX
  5
29AF
  8
0
 10
93.1103555765597264
 20
98.6322287261181145
 30
0.0
  0
VERTEX
  5
29B0
  8
0
 10
93.4166025800671207
 20
98.2776823518014169
 30
0.0
  0
VERTEX
  5
29B1
  8
0
 10
93.6564105634910931
 20
97.8940885618150389
 30
0.0
  0
VERTEX
  5
29B2
  8
0
 10
93.835892786893325
 20
97.4786459690421339
 30
0.0
  0
VERTEX
  5
29B3
  8
0
 10
93.9493321755084594
 20
97.0490352616275516
 30
0.0
  0
VERTEX
  5
29B4
  8
0
 10
93.9999849999812227
 20
96.5094868270568753
 30
0.0
  0
VERTEX
  5
29B5
  8
0
 10
93.9999999999999574
 20
96.5
 30
0.0
  0
SEQEND
  5
29B6
  8
0
  0
LINE
  5
26F1
  8
1
 10
49.9999999999999432
 20
106.5473790923247037
 30
0.0
 11
50.0
 21
50.0
 31
0.0
  0
LINE
  5
26F2
  8
0
 10
39.054545454545412
 20
81.9561715783576403
 30
0.0
 11
39.054545454545412
 21
73.0
 31
0.0
  0
LINE
  5
26F3
  8
0
 10
60.9454545454545098
 20
73.0
 30
0.0
 11
60.9454545454545098
 21
81.9560330715041943
 31
0.0
  0
LINE
  5
26F4
  8
0
 10
39.0550458671890226
 20
81.9525562890667629
 30
0.0
 11
39.0550458671890226
 21
73.0
 31
0.0
  0
LINE
  5
26F5
  8
0
 10
60.9449541284403367
 20
81.9525562882540726
 30
0.0
 11
60.9449541284403367
 21
73.0
 31
0.0
  0
LINE
  5
26F6
  8
0
 10
39.0657075823341415
 20
81.9525562899413131
 30
0.0
 11
39.0657075823341415
 21
73.0
 31
0.0
  0
LINE
  5
26F7
  8
0
 10
60.9342924153125978
 20
81.9525562890667345
 30
0.0
 11
60.9342924153125978
 21
73.0
 31
0.0
  0
LINE
  5
26F8
  8
0
 10
52.0094999999999672
 20
53.0
 30
0.0
 11
47.9904999999999617
 21
53.0
 31
0.0
  0
LINE
  5
26F9
  8
0
 10
52.0094999999999672
 20
53.0
 30
0.0
 11
52.4999999999999716
 21
53.4904999999999973
 31
0.0
  0
LINE
  5
26FA
  8
0
 10
47.4999999999999716
 20
53.4904999999999973
 30
0.0
 11
47.9904999999999617
 21
53.0
 31
0.0
  0
LINE
  5
26FB
  8
0
 10
52.4999999999999716
 20
53.4904999999999973
 30
0.0
 11
47.4999999999999716
 21
53.4904999999999973
 31
0.0
  0
LINE
  5
26FC
  8
0
 10
47.4999999999999716
 20
73.0
 30
0.0
 11
47.4999999999999716
 21
53.4904999999999973
 31
0.0
  0
LINE
  5
26FD
  8
0
 10
52.4999999999999716
 20
53.4904999999999973
 30
0.0
 11
52.4999999999999716
 21
73.0
 31
0.0
  0
LINE
  5
26FE
  8
0
 10
39.1719526180630524
 20
82.3842024012019465
 30
0.0
 11
39.1719526180630524
 21
73.0
 31
0.0
  0
POLYLINE
  5
26FF
  8
0
 66
     1
 10
0.0
 20
0.0
 30
0.0
  0
VERTEX
  5
29B7
  8
0
 10
40.240375216795087
 20
83.7643553184464054
 30
0.0
  0
VERTEX
  5
29B8
  8
0
 10
40.2366941680615184
 20
83.7435700154006639
 30
0.0
  0
VERTEX
  5
29B9
  8
0
 10
40.1908433062005699
 20
83.6486606776980466
 30
0.0
  0
VERTEX
  5
29BA
  8
0
 10
40.0958944175673011
 20
83.4923004367678061
 30
0.0
  0
VERTEX
  5
29BB
  8
0
 10
40.0021475809516787
 20
83.3371327393517447
 30
0.0
  0
VERTEX
  5
29BC
  8
0
 10
39.9038751549518125
 20
83.1632194141589309
 30
0.0
  0
VERTEX
  5
29BD
  8
0
 10
39.7576514731441932
 20
82.8645790040703787
 30
0.0
  0
VERTEX
  5
29BE
  8
0
 10
39.6328048146958523
 20
82.5435882123584008
 30
0.0
  0
VERTEX
  5
29BF
  8
0
 10
39.5836515577348678
 20
82.3842024012019749
 30
0.0
  0
SEQEND
  5
29C0
  8
0
  0
LINE
  5
2700
  8
0
 10
60.8280473819368623
 20
82.3842024012254512
 30
0.0
 11
60.8280473819368623
 21
73.0
 31
0.0
  0
POLYLINE
  5
2701
  8
0
 66
     1
 10
0.0
 20
0.0
 30
0.0
  0
VERTEX
  5
29C1
  8
0
 10
59.7596236080746905
 20
83.7646668779698871
 30
0.0
  0
VERTEX
  5
29C2
  8
0
 10
59.7596236388573132
 20
83.7647176582618158
 30
0.0
  0
VERTEX
  5
29C3
  8
0
 10
59.7938706771694797
 20
83.7844330799435397
 30
0.0
  0
VERTEX
  5
29C4
  8
0
 10
59.8841572663143609
 20
83.7436640597045283
 30
0.0
  0
VERTEX
  5
29C5
  8
0
 10
60.0175408355439117
 20
83.6488319817039354
 30
0.0
  0
VERTEX
  5
29C6
  8
0
 10
60.1884041640265295
 20
83.4925685442044028
 30
0.0
  0
VERTEX
  5
29C7
  8
0
 10
60.3269065143919292
 20
83.3375147470689512
 30
0.0
  0
VERTEX
  5
29C8
  8
0
 10
60.4574554921878189
 20
83.1637190279797238
 30
0.0
  0
VERTEX
  5
29C9
  8
0
 10
60.6349029550820191
 20
82.8652967864544081
 30
0.0
  0
VERTEX
  5
29CA
  8
0
 10
60.7748895826051978
 20
82.5445276983124927
 30
0.0
  0
VERTEX
  5
29CB
  8
0
 10
60.8280473819304177
 20
82.3842024012235044
 30
0.0
  0
SEQEND
  5
29CC
  8
0
  0
LINE
  5
2702
  8
0
 10
39.5179790743155479
 20
81.9878125337698691
 30
0.0
 11
39.5179790743155479
 21
73.0
 31
0.0
  0
POLYLINE
  5
2703
  8
0
 66
     1
 10
0.0
 20
0.0
 30
0.0
  0
VERTEX
  5
29CD
  8
0
 10
39.5179915965456701
 20
81.9870288124537012
 30
0.0
  0
VERTEX
  5
29CE
  8
0
 10
39.5189994512388409
 20
82.016540937084784
 30
0.0
  0
VERTEX
  5
29CF
  8
0
 10
39.547045823038097
 20
82.2295893644312343
 30
0.0
  0
VERTEX
  5
29D0
  8
0
 10
39.5836515577348678
 20
82.3842024012019749
 30
0.0
  0
SEQEND
  5
29D1
  8
0
  0
LINE
  5
2704
  8
0
 10
60.4820209256843668
 20
73.0
 30
0.0
 11
60.4820209256843668
 21
81.9843521703777753
 31
0.0
  0
POLYLINE
  5
2705
  8
0
 66
     1
 10
0.0
 20
0.0
 30
0.0
  0
VERTEX
  5
29D2
  8
0
 10
60.4820207523854094
 20
81.9842565451855307
 30
0.0
  0
VERTEX
  5
29D3
  8
0
 10
60.4819494123629227
 20
81.9769416003430678
 30
0.0
  0
VERTEX
  5
29D4
  8
0
 10
60.4809337241968876
 20
81.9614103132360441
 30
0.0
  0
VERTEX
  5
29D5
  8
0
 10
60.4799135479079908
 20
81.9562256852998843
 30
0.0
  0
VERTEX
  5
29D6
  8
0
 10
60.4785278736167982
 20
81.9532307911882754
 30
0.0
  0
VERTEX
  5
29D7
  8
0
 10
60.4772688240851508
 20
81.9525562890667629
 30
0.0
  0
SEQEND
  5
29D8
  8
0
  0
LINE
  5
2706
  8
0
 10
39.5227311625906381
 20
81.9525562890667629
 30
0.0
 11
39.5227311625906381
 21
73.0
 31
0.0
  0
LINE
  5
2707
  8
0
 10
60.4772688240851508
 20
81.9525562879645406
 30
0.0
 11
60.4772688240851508
 21
73.0
 31
0.0
  0
LINE
  5
2708
  8
0
 10
39.554250340316969
 20
81.9525562901744706
 30
0.0
 11
39.554250340316969
 21
73.0
 31
0.0
  0
LINE
  5
2709
  8
0
 10
60.4457496529250307
 20
81.9525562890667629
 30
0.0
 11
60.4457496529250307
 21
73.0
 31
0.0
  0
LINE
  5
270A
  8
0
 10
46.0999999999999588
 20
88.5150161059598588
 30
0.0
 11
46.0999999999999588
 21
86.5
 31
0.0
  0
LINE
  5
270B
  8
0
 10
53.8999999999999702
 20
86.5
 30
0.0
 11
53.8999999999999702
 21
88.5150161059598588
 31
0.0
  0
LINE
  5
270C
  8
0
 10
39.6766469976842586
 20
82.3842024012019039
 30
0.0
 11
39.6766469976842586
 21
73.0
 31
0.0
  0
POLYLINE
  5
270D
  8
0
 66
     1
 10
0.0
 20
0.0
 30
0.0
  0
VERTEX
  5
29D9
  8
0
 10
40.9509964447695367
 20
83.6987095083474628
 30
0.0
  0
VERTEX
  5
29DA
  8
0
 10
40.9453218656134013
 20
83.648664041338634
 30
0.0
  0
VERTEX
  5
29DB
  8
0
 10
40.8954759950312905
 20
83.4923057009635841
 30
0.0
  0
VERTEX
  5
29DC
  8
0
 10
40.8308255398571589
 20
83.337140240051923
 30
0.0
  0
VERTEX
  5
29DD
  8
0
 10
40.7555587073020718
 20
83.1632292241240947
 30
0.0
  0
VERTEX
  5
29DE
  8
0
 10
40.6349666861251535
 20
82.8645930974044944
 30
0.0
  0
VERTEX
  5
29DF
  8
0
 10
40.5260919231133911
 20
82.5436066583675085
 30
0.0
  0
VERTEX
  5
29E0
  8
0
 10
40.4820516578135425
 20
82.3842024012019465
 30
0.0
  0
SEQEND
  5
29E1
  8
0
  0
LINE
  5
270E
  8
0
 10
60.323353002315649
 20
82.3842024012269576
 30
0.0
 11
60.323353002315649
 21
73.0
 31
0.0
  0
POLYLINE
  5
270F
  8
0
 66
     1
 10
0.0
 20
0.0
 30
0.0
  0
VERTEX
  5
29E2
  8
0
 10
59.0490017846748501
 20
83.6990401739210057
 30
0.0
  0
VERTEX
  5
29E3
  8
0
 10
59.0709476825696171
 20
83.7647600683842768
 30
0.0
  0
VERTEX
  5
29E4
  8
0
 10
59.1583826210595021
 20
83.7844234558019139
 30
0.0
  0
VERTEX
  5
29E5
  8
0
 10
59.2932590423714032
 20
83.7436133339561053
 30
0.0
  0
VERTEX
  5
29E6
  8
0
 10
59.4626368333258313
 20
83.6487395748288236
 30
0.0
  0
VERTEX
  5
29E7
  8
0
 10
59.6610752425716484
 20
83.4924239154969712
 30
0.0
  0
VERTEX
  5
29E8
  8
0
 10
59.8133614444952499
 20
83.3373086770887852
 30
0.0
  0
VERTEX
  5
29E9
  8
0
 10
59.9518209932821193
 20
83.1634495176213306
 30
0.0
  0
VERTEX
  5
29EA
  8
0
 10
60.1335397978994592
 20
82.8649095827720146
 30
0.0
  0
VERTEX
  5
29EB
  8
0
 10
60.27199983485648
 20
82.5440208930477439
 30
0.0
  0
VERTEX
  5
29EC
  8
0
 10
60.3233530023090623
 20
82.3842024012248828
 30
0.0
  0
SEQEND
  5
29ED
  8
0
  0
LINE
  5
2710
  8
0
 10
40.4351568270017694
 20
82.0382445380369347
 30
0.0
 11
40.4351568270017694
 21
73.0
 31
0.0
  0
POLYLINE
  5
2711
  8
0
 66
     1
 10
0.0
 20
0.0
 30
0.0
  0
VERTEX
  5
29EE
  8
0
 10
40.4351626572650886
 20
82.0377119266375558
 30
0.0
  0
VERTEX
  5
29EF
  8
0
 10
40.4508368817580504
 20
82.2276888960464873
 30
0.0
  0
VERTEX
  5
29F0
  8
0
 10
40.4820516578135425
 20
82.3842024012019465
 30
0.0
  0
SEQEND
  5
29F1
  8
0
  0
LINE
  5
2712
  8
0
 10
59.5648431729981667
 20
73.0
 30
0.0
 11
59.5648431729981667
 21
82.0353252427250368
 31
0.0
  0
POLYLINE
  5
2713
  8
0
 66
     1
 10
0.0
 20
0.0
 30
0.0
  0
VERTEX
  5
29F2
  8
0
 10
59.5648429338917467
 20
82.0352481850596291
 30
0.0
  0
VERTEX
  5
29F3
  8
0
 10
59.5646655620757315
 20
82.0183296616335156
 30
0.0
  0
VERTEX
  5
29F4
  8
0
 10
59.5635215573211099
 20
81.9935032474800494
 30
0.0
  0
VERTEX
  5
29F5
  8
0
 10
59.5618067897031622
 20
81.9769768289561966
 30
0.0
  0
VERTEX
  5
29F6
  8
0
 10
59.5585465647718024
 20
81.9614399112843444
 30
0.0
  0
VERTEX
  5
29F7
  8
0
 10
59.5563620312500674
 20
81.9562453738383283
 30
0.0
  0
VERTEX
  5
29F8
  8
0
 10
59.5532496367350817
 20
81.9529207260796682
 30
0.0
  0
VERTEX
  5
29F9
  8
0
 10
59.5516765966276012
 20
81.9525562889263739
 30
0.0
  0
SEQEND
  5
29FA
  8
0
  0
LINE
  5
2714
  8
0
 10
40.4483233817009307
 20
81.9525562890667345
 30
0.0
 11
40.4483233817009307
 21
73.0
 31
0.0
  0
LINE
  5
2715
  8
0
 10
59.5516765966036417
 20
81.9525562882245993
 30
0.0
 11
59.5516765966036417
 21
73.0
 31
0.0
  0
LINE
  5
2716
  8
0
 10
40.4993224826960372
 20
81.9525562884481928
 30
0.0
 11
40.4993224826960372
 21
73.0
 31
0.0
  0
LINE
  5
2717
  8
0
 10
59.5006775064366025
 20
81.9525562890667629
 30
0.0
 11
59.5006775064366025
 21
73.0
 31
0.0
  0
LINE
  5
2718
  8
0
 10
59.3674785595495109
 20
82.3842024012314198
 30
0.0
 11
59.3674785595495109
 21
73.0
 31
0.0
  0
POLYLINE
  5
2719
  8
0
 66
     1
 10
0.0
 20
0.0
 30
0.0
  0
VERTEX
  5
29FB
  8
0
 10
57.8991869424935999
 20
83.5865281497376458
 30
0.0
  0
VERTEX
  5
29FC
  8
0
 10
57.8993086746498022
 20
83.5864141211456513
 30
0.0
  0
VERTEX
  5
29FD
  8
0
 10
57.9137072241760507
 20
83.6826890480482461
 30
0.0
  0
VERTEX
  5
29FE
  8
0
 10
57.9858645535820827
 20
83.7647783711624641
 30
0.0
  0
VERTEX
  5
29FF
  8
0
 10
58.1226316707888486
 20
83.7844192886057613
 30
0.0
  0
VERTEX
  5
2A00
  8
0
 10
58.2961764374919582
 20
83.7435914154607417
 30
0.0
  0
VERTEX
  5
2A01
  8
0
 10
58.4941231380201074
 20
83.6486996522928905
 30
0.0
  0
VERTEX
  5
2A02
  8
0
 10
58.7114426542004182
 20
83.4923614337095756
 30
0.0
  0
VERTEX
  5
2A03
  8
0
 10
58.8708374356691024
 20
83.3372196506937541
 30
0.0
  0
VERTEX
  5
2A04
  8
0
 10
59.0111424338952588
 20
83.1633330829929065
 30
0.0
  0
VERTEX
  5
2A05
  8
0
 10
59.1891767119329018
 20
82.8647423055989805
 30
0.0
  0
VERTEX
  5
2A06
  8
0
 10
59.3200621339604979
 20
82.543801949892412
 30
0.0
  0
VERTEX
  5
2A07
  8
0
 10
59.3674785595423486
 20
82.3842024012289755
 30
0.0
  0
SEQEND
  5
2A08
  8
0
  0
LINE
  5
271A
  8
0
 10
40.6325214404503967
 20
82.3842024012019039
 30
0.0
 11
40.6325214404503967
 21
73.0
 31
0.0
  0
POLYLINE
  5
271B
  8
0
 66
     1
 10
0.0
 20
0.0
 30
0.0
  0
VERTEX
  5
2A09
  8
0
 10
42.1008056604495025
 20
83.5840110636693083
 30
0.0
  0
VERTEX
  5
2A0A
  8
0
 10
42.0929676312881327
 20
83.4923185760167428
 30
0.0
  0
VERTEX
  5
2A0B
  8
0
 10
42.0602407022763884
 20
83.3371585850788961
 30
0.0
  0
VERTEX
  5
2A0C
  8
0
 10
42.0112705644373534
 20
83.1632532170815182
 30
0.0
  0
VERTEX
  5
2A0D
  8
0
 10
41.921582721220453
 20
82.8646275665803387
 30
0.0
  0
VERTEX
  5
2A0E
  8
0
 10
41.8334392769681287
 20
82.5436517732863706
 30
0.0
  0
VERTEX
  5
2A0F
  8
0
 10
41.7964317726291483
 20
82.3842024012019465
 30
0.0
  0
SEQEND
  5
2A10
  8
0
  0
LINE
  5
271C
  8
0
 10
41.7659936437045189
 20
82.1082980853597064
 30
0.0
 11
41.7659936437045189
 21
73.0
 31
0.0
  0
POLYLINE
  5
271D
  8
0
 66
     1
 10
0.0
 20
0.0
 30
0.0
  0
VERTEX
  5
2A11
  8
0
 10
41.7660176396180702
 20
82.1076375834738741
 30
0.0
  0
VERTEX
  5
2A12
  8
0
 10
41.7720085652049065
 20
82.2242107874800183
 30
0.0
  0
VERTEX
  5
2A13
  8
0
 10
41.7964317726291483
 20
82.3842024012019465
 30
0.0
  0
SEQEND
  5
2A14
  8
0
  0
LINE
  5
271E
  8
0
 10
58.2340063562953887
 20
73.0
 30
0.0
 11
58.2340063562953887
 21
82.1006567733065253
 31
0.0
  0
POLYLINE
  5
271F
  8
0
 66
     1
 10
0.0
 20
0.0
 30
0.0
  0
VERTEX
  5
2A15
  8
0
 10
58.2340062834992906
 20
82.1006244442737056
 30
0.0
  0
VERTEX
  5
2A16
  8
0
 10
58.2330464611590628
 20
82.0555129514849568
 30
0.0
  0
VERTEX
  5
2A17
  8
0
 10
58.2304181331318489
 20
82.0184221190703511
 30
0.0
  0
VERTEX
  5
2A18
  8
0
 10
58.2271724463145119
 20
81.9935816952890377
 30
0.0
  0
VERTEX
  5
2A19
  8
0
 10
58.2237829690140174
 20
81.9770415218904702
 30
0.0
  0
VERTEX
  5
2A1A
  8
0
 10
58.218428055688257
 20
81.9614945115483238
 30
0.0
  0
VERTEX
  5
2A1B
  8
0
 10
58.2151760138364978
 20
81.9562817507886336
 30
0.0
  0
VERTEX
  5
2A1C
  8
0
 10
58.2107965633577535
 20
81.952932197644742
 30
0.0
  0
VERTEX
  5
2A1D
  8
0
 10
58.2086302678490881
 20
81.9525562889036365
 30
0.0
  0
SEQEND
  5
2A1E
  8
0
  0
LINE
  5
2720
  8
0
 10
58.2086302678210288
 20
81.95255628925824
 30
0.0
 11
58.2086302678210288
 21
73.0
 31
0.0
  0
LINE
  5
2721
  8
0
 10
41.7913697002042923
 20
81.9525562890667629
 30
0.0
 11
41.7913697002042923
 21
73.0
 31
0.0
  0
LINE
  5
2722
  8
0
 10
41.8596198218900781
 20
81.9525562883360976
 30
0.0
 11
41.8596198218900781
 21
73.0
 31
0.0
  0
LINE
  5
2723
  8
0
 10
58.1403801926115804
 20
81.9525562890667629
 30
0.0
 11
58.1403801926115804
 21
73.0
 31
0.0
  0
LINE
  5
2725
  8
0
 10
57.9999999999999716
 20
86.5
 30
0.0
 11
41.9999999999999716
 21
86.5
 31
0.0
  0
LINE
  5
2726
  8
0
 10
41.9999999999999716
 20
86.5
 30
0.0
 11
41.9999999999999716
 21
84.25
 31
0.0
  0
LINE
  5
2727
  8
0
 10
57.9999999999999716
 20
84.25
 30
0.0
 11
57.9999999999999716
 21
86.5
 31
0.0
  0
LINE
  5
2728
  8
0
 10
41.9977996464181231
 20
82.3842024012019039
 30
0.0
 11
41.9977996464181231
 21
73.0
 31
0.0
  0
POLYLINE
  5
2729
  8
0
 66
     1
 10
0.0
 20
0.0
 30
0.0
  0
VERTEX
  5
2A1F
  8
0
 10
43.6395597784683886
 20
83.4137422596541285
 30
0.0
  0
VERTEX
  5
2A20
  8
0
 10
43.6366559024392302
 20
83.337192971264102
 30
0.0
  0
VERTEX
  5
2A21
  8
0
 10
43.6161249436682326
 20
83.1632981897807468
 30
0.0
  0
VERTEX
  5
2A22
  8
0
 10
43.5612643078606823
 20
82.8646921762875337
 30
0.0
  0
VERTEX
  5
2A23
  8
0
 10
43.4977068925030608
 20
82.5437363378277098
 30
0.0
  0
VERTEX
  5
2A24
  8
0
 10
43.4693471840661516
 20
82.3842024011866556
 30
0.0
  0
SEQEND
  5
2A25
  8
0
  0
LINE
  5
272A
  8
0
 10
58.0022003535817916
 20
82.3842024012323151
 30
0.0
 11
58.0022003535817916
 21
73.0
 31
0.0
  0
POLYLINE
  5
272B
  8
0
 66
     1
 10
0.0
 20
0.0
 30
0.0
  0
VERTEX
  5
2A26
  8
0
 10
56.3604473155183072
 20
83.4118410891233566
 30
0.0
  0
VERTEX
  5
2A27
  8
0
 10
56.3619068855302032
 20
83.466576763380445
 30
0.0
  0
VERTEX
  5
2A28
  8
0
 10
56.3824321382141704
 20
83.5864499294779932
 30
0.0
  0
VERTEX
  5
2A29
  8
0
 10
56.4318120041498617
 20
83.6827114662122966
 30
0.0
  0
VERTEX
  5
2A2A
  8
0
 10
56.5517697114584905
 20
83.7647879087878664
 30
0.0
  0
VERTEX
  5
2A2B
  8
0
 10
56.7318787065041974
 20
83.7844171137797247
 30
0.0
  0
VERTEX
  5
2A2C
  8
0
 10
56.9364972563738476
 20
83.7435799872189648
 30
0.0
  0
VERTEX
  5
2A2D
  8
0
 10
57.154353371512741
 20
83.6486788382992756
 30
0.0
  0
VERTEX
  5
2A2E
  8
0
 10
57.3810484200607505
 20
83.4923288587481238
 30
0.0
  0
VERTEX
  5
2A2F
  8
0
 10
57.5405781407555423
 20
83.3371732364153956
 30
0.0
  0
VERTEX
  5
2A30
  8
0
 10
57.6765917302696991
 20
83.1632723791494755
 30
0.0
  0
VERTEX
  5
2A31
  8
0
 10
57.8431559358810077
 20
82.864655095588077
 30
0.0
  0
VERTEX
  5
2A32
  8
0
 10
57.9607485182231414
 20
82.543687804643227
 30
0.0
  0
VERTEX
  5
2A33
  8
0
 10
58.0022003535753683
 20
82.384202401229814
 30
0.0
  0
SEQEND
  5
2A34
  8
0
  0
LINE
  5
272C
  8
0
 10
43.4523255694703323
 20
82.178791697173267
 30
0.0
 11
43.4523255694703323
 21
73.0
 31
0.0
  0
POLYLINE
  5
272D
  8
0
 66
     1
 10
0.0
 20
0.0
 30
0.0
  0
VERTEX
  5
2A35
  8
0
 10
43.4523348459547876
 20
82.1785928756349762
 30
0.0
  0
VERTEX
  5
2A36
  8
0
 10
43.4533651253514677
 20
82.2260881550157734
 30
0.0
  0
VERTEX
  5
2A37
  8
0
 10
43.4693471840661516
 20
82.3842024011866556
 30
0.0
  0
SEQEND
  5
2A38
  8
0
  0
LINE
  5
272E
  8
0
 10
56.5476744305295824
 20
73.0
 30
0.0
 11
56.5476744305295824
 21
82.1740675626953845
 31
0.0
  0
POLYLINE
  5
272F
  8
0
 66
     1
 10
0.0
 20
0.0
 30
0.0
  0
VERTEX
  5
2A39
  8
0
 10
56.5476743777164472
 20
82.1740471813264435
 30
0.0
  0
VERTEX
  5
2A3A
  8
0
 10
56.5460745574946486
 20
82.110508337728902
 30
0.0
  0
VERTEX
  5
2A3B
  8
0
 10
56.5416676153989499
 20
82.0554339147356586
 30
0.0
  0
VERTEX
  5
2A3C
  8
0
 10
56.5364485524407598
 20
82.0183577297233342
 30
0.0
  0
VERTEX
  5
2A3D
  8
0
 10
56.5312374475181514
 20
81.9935296646906266
 30
0.0
  0
VERTEX
  5
2A3E
  8
0
 10
56.5263165747059588
 20
81.9770001661446486
 30
0.0
  0
VERTEX
  5
2A3F
  8
0
 10
56.5190855628375672
 20
81.9614609807285746
 30
0.0
  0
VERTEX
  5
2A40
  8
0
 10
56.5149035572823095
 20
81.9562596940740065
 30
0.0
  0
VERTEX
  5
2A41
  8
0
 10
56.5094446244866901
 20
81.9529253653133765
 30
0.0
  0
VERTEX
  5
2A42
  8
0
 10
56.5068274069802783
 20
81.9525562889175205
 30
0.0
  0
SEQEND
  5
2A43
  8
0
  0
LINE
  5
2730
  8
0
 10
56.5068274069564609
 20
81.9525562890764547
 30
0.0
 11
56.5068274069564609
 21
73.0
 31
0.0
  0
LINE
  5
2731
  8
0
 10
43.4931725543151728
 20
81.9525562890667345
 30
0.0
 11
43.4931725543151728
 21
73.0
 31
0.0
  0
LINE
  5
2732
  8
0
 10
43.575690836745423
 20
81.9525562909951049
 30
0.0
 11
43.575690836745423
 21
73.0
 31
0.0
  0
LINE
  5
2733
  8
0
 10
56.4243091700162367
 20
81.9525562890667629
 30
0.0
 11
56.4243091700162367
 21
73.0
 31
0.0
  0
CIRCLE
  5
2734
  8
0
 10
49.9999999999999716
 20
95.5
 30
0.0
 40
4.5
  0
LINE
  5
2735
  8
0
 10
56.287187593344953
 20
82.3842024012019749
 30
0.0
 11
56.287187593344953
 21
73.0
 31
0.0
  0
POLYLINE
  5
2736
  8
0
 66
     1
 10
0.0
 20
0.0
 30
0.0
  0
VERTEX
  5
2A44
  8
0
 10
54.5000002020217096
 20
83.1727718144936432
 30
0.0
  0
VERTEX
  5
2A45
  8
0
 10
54.5000098791007872
 20
83.1797175487538993
 30
0.0
  0
VERTEX
  5
2A46
  8
0
 10
54.5345685872956594
 20
83.4666041762290831
 30
0.0
  0
VERTEX
  5
2A47
  8
0
 10
54.5866246105565622
 20
83.5864695256822046
 30
0.0
  0
VERTEX
  5
2A48
  8
0
 10
54.6688222464895475
 20
83.6827237348930169
 30
0.0
  0
VERTEX
  5
2A49
  8
0
 10
54.8313310798475513
 20
83.7647931279455804
 30
0.0
  0
VERTEX
  5
2A4A
  8
0
 10
55.0469042848172876
 20
83.7844159227215357
 30
0.0
  0
VERTEX
  5
2A4B
  8
0
 10
55.2736494020775169
 20
83.7435737316080946
 30
0.0
  0
VERTEX
  5
2A4C
  8
0
 10
55.5018899185807584
 20
83.6486674455356649
 30
0.0
  0
VERTEX
  5
2A4D
  8
0
 10
55.7280495244879077
 20
83.4923110286407137
 30
0.0
  0
VERTEX
  5
2A4E
  8
0
 10
55.8807385923777815
 20
83.3371478311990757
 30
0.0
  0
VERTEX
  5
2A4F
  8
0
 10
56.0065143264738978
 20
83.1632391523793473
 30
0.0
  0
VERTEX
  5
2A50
  8
0
 10
56.1543271822081635
 20
82.8646073606941798
 30
0.0
  0
VERTEX
  5
2A51
  8
0
 10
56.2534892513410796
 20
82.5436253268376845
 30
0.0
  0
VERTEX
  5
2A52
  8
0
 10
56.287187593344953
 20
82.3842024012019749
 30
0.0
  0
SEQEND
  5
2A53
  8
0
  0
LINE
  5
2737
  8
0
 10
43.7128124066549617
 20
82.3842024012019465
 30
0.0
 11
43.7128124066549617
 21
73.0
 31
0.0
  0
POLYLINE
  5
2738
  8
0
 66
     1
 10
0.0
 20
0.0
 30
0.0
  0
VERTEX
  5
2A54
  8
0
 10
45.4999998632676679
 20
83.1729265382560072
 30
0.0
  0
VERTEX
  5
2A55
  8
0
 10
45.4999723506144207
 20
83.163381155343103
 30
0.0
  0
VERTEX
  5
2A56
  8
0
 10
45.4823420356265871
 20
82.8648113690362607
 30
0.0
  0
VERTEX
  5
2A57
  8
0
 10
45.44615335457393
 20
82.5438923443181238
 30
0.0
  0
VERTEX
  5
2A58
  8
0
 10
45.4276834611162812
 20
82.3842024012264744
 30
0.0
  0
SEQEND
  5
2A59
  8
0
  0
LINE
  5
2739
  8
0
 10
45.4204518072249073
 20
82.2489426612317232
 30
0.0
 11
45.4204518072249073
 21
73.0
 31
0.0
  0
LINE
  5
273A
  8
0
 10
45.4204520712646627
 20
82.2489562592106722
 30
0.0
 11
45.4276834611162812
 21
82.3842024012264744
 31
0.0
  0
LINE
  5
273B
  8
0
 10
54.5795481927750288
 20
73.0
 30
0.0
 11
54.5795481927750288
 21
82.2479593769562598
 31
0.0
  0
POLYLINE
  5
273C
  8
0
 66
     1
 10
0.0
 20
0.0
 30
0.0
  0
VERTEX
  5
2A5A
  8
0
 10
54.5795469756332281
 20
82.247998179239687
 30
0.0
  0
VERTEX
  5
2A5B
  8
0
 10
54.5782748127438424
 20
82.1916521283512651
 30
0.0
  0
VERTEX
  5
2A5C
  8
0
 10
54.5720852952555333
 20
82.1104311188724409
 30
0.0
  0
VERTEX
  5
2A5D
  8
0
 10
54.5643777949131632
 20
82.0553630047344882
 30
0.0
  0
VERTEX
  5
2A5E
  8
0
 10
54.5567959528315711
 20
82.0182942347563255
 30
0.0
  0
VERTEX
  5
2A5F
  8
0
 10
54.5498467208830107
 20
81.9934746193793558
 30
0.0
  0
VERTEX
  5
2A60
  8
0
 10
54.5436089371573019
 20
81.9769540812611694
 30
0.0
  0
VERTEX
  5
2A61
  8
0
 10
54.5348139563427878
 20
81.9614215446630965
 30
0.0
  0
VERTEX
  5
2A62
  8
0
 10
54.5298844359994916
 20
81.9562333100764135
 30
0.0
  0
VERTEX
  5
2A63
  8
0
 10
54.5246605301026577
 20
81.9532330153984958
 30
0.0
  0
VERTEX
  5
2A64
  8
0
 10
54.5206449651858165
 20
81.9525562890667629
 30
0.0
  0
SEQEND
  5
2A65
  8
0
  0
LINE
  5
273D
  8
0
 10
54.5206449651858165
 20
81.9525562873449758
 30
0.0
 11
54.5206449651858165
 21
73.0
 31
0.0
  0
LINE
  5
273E
  8
0
 10
45.4793549885901314
 20
81.9525562890667345
 30
0.0
 11
45.4793549885901314
 21
73.0
 31
0.0
  0
LINE
  5
273F
  8
0
 10
45.5725349892906024
 20
81.9525562901116587
 30
0.0
 11
45.5725349892906024
 21
73.0
 31
0.0
  0
LINE
  5
2740
  8
0
 10
54.4274650304473369
 20
81.9525562890667629
 30
0.0
 11
54.4274650304473369
 21
73.0
 31
0.0
  0
LINE
  5
2741
  8
0
 10
54.297394566005643
 20
82.3842024012020033
 30
0.0
 11
54.297394566005643
 21
73.0
 31
0.0
  0
POLYLINE
  5
2742
  8
0
 66
     1
 10
0.0
 20
0.0
 30
0.0
  0
VERTEX
  5
2A66
  8
0
 10
52.3991893344196171
 20
82.8210496638868534
 30
0.0
  0
VERTEX
  5
2A67
  8
0
 10
52.4219764715113783
 20
83.1797387216371646
 30
0.0
  0
VERTEX
  5
2A68
  8
0
 10
52.5090531660325084
 20
83.4666176914612663
 30
0.0
  0
VERTEX
  5
2A69
  8
0
 10
52.5903619746216933
 20
83.5864791871957351
 30
0.0
  0
VERTEX
  5
2A6A
  8
0
 10
52.7017820849989889
 20
83.6827297837919275
 30
0.0
  0
VERTEX
  5
2A6B
  8
0
 10
52.8997359376461418
 20
83.76479570105937
 30
0.0
  0
VERTEX
  5
2A6C
  8
0
 10
53.1413489024201624
 20
83.7844153352653933
 30
0.0
  0
VERTEX
  5
2A6D
  8
0
 10
53.3803088359955495
 20
83.7435706470210448
 30
0.0
  0
VERTEX
  5
2A6E
  8
0
 10
53.6089570250771317
 20
83.6486618279770937
 30
0.0
  0
VERTEX
  5
2A6F
  8
0
 10
53.82469562651724
 20
83.4923022369870864
 30
0.0
  0
VERTEX
  5
2A70
  8
0
 10
53.9638692397139721
 20
83.3371353043984016
 30
0.0
  0
VERTEX
  5
2A71
  8
0
 10
54.0739094352063603
 20
83.1632227689151762
 30
0.0
  0
VERTEX
  5
2A72
  8
0
 10
54.1965105623264094
 20
82.8645838236270862
 30
0.0
  0
VERTEX
  5
2A73
  8
0
 10
54.2729097629038222
 20
82.5435945204159651
 30
0.0
  0
VERTEX
  5
2A74
  8
0
 10
54.297394566005643
 20
82.3842024012020033
 30
0.0
  0
SEQEND
  5
2A75
  8
0
  0
LINE
  5
2743
  8
0
 10
45.7026054339942718
 20
82.3842024012019039
 30
0.0
 11
45.7026054339942718
 21
73.0
 31
0.0
  0
POLYLINE
  5
2744
  8
0
 66
     1
 10
0.0
 20
0.0
 30
0.0
  0
VERTEX
  5
2A76
  8
0
 10
47.6008097033560986
 20
82.8202318969830174
 30
0.0
  0
VERTEX
  5
2A77
  8
0
 10
47.5936096317491888
 20
82.544213594474229
 30
0.0
  0
VERTEX
  5
2A78
  8
0
 10
47.5858519113178318
 20
82.384202401223888
 30
0.0
  0
SEQEND
  5
2A79
  8
0
  0
LINE
  5
2745
  8
0
 10
47.5843557962608017
 20
82.3232132813380133
 30
0.0
 11
47.5843557962608017
 21
73.0
 31
0.0
  0
LINE
  5
2746
  8
0
 10
47.5843566945478571
 20
82.3233602687607799
 30
0.0
 11
47.5858519113178318
 21
82.384202401223888
 31
0.0
  0
LINE
  5
2747
  8
0
 10
52.415644203739113
 20
73.0
 30
0.0
 11
52.415644203739113
 21
82.3230909507556845
 31
0.0
  0
POLYLINE
  5
2748
  8
0
 66
     1
 10
0.0
 20
0.0
 30
0.0
  0
VERTEX
  5
2A7A
  8
0
 10
52.4156432322767714
 20
82.323300745836292
 30
0.0
  0
VERTEX
  5
2A7B
  8
0
 10
52.4089018223217167
 20
82.1916099663675652
 30
0.0
  0
VERTEX
  5
2A7C
  8
0
 10
52.3982716251753899
 20
82.1103924718868541
 30
0.0
  0
VERTEX
  5
2A7D
  8
0
 10
52.3876025492693884
 20
82.0553272005130765
 30
0.0
  0
VERTEX
  5
2A7E
  8
0
 10
52.3779910381090303
 20
82.0182619949069363
 30
0.0
  0
VERTEX
  5
2A7F
  8
0
 10
52.3696089047268671
 20
81.9934465719579748
 30
0.0
  0
VERTEX
  5
2A80
  8
0
 10
52.3623281903421685
 20
81.9769305483749946
 30
0.0
  0
VERTEX
  5
2A81
  8
0
 10
52.3523574036706805
 20
81.9614014103060953
 30
0.0
  0
VERTEX
  5
2A82
  8
0
 10
52.3468971448420817
 20
81.9562198423366652
 30
0.0
  0
VERTEX
  5
2A83
  8
0
 10
52.3412027962729383
 20
81.953229057991777
 30
0.0
  0
VERTEX
  5
2A84
  8
0
 10
52.3368886459752503
 20
81.9525562890667629
 30
0.0
  0
SEQEND
  5
2A85
  8
0
  0
LINE
  5
2749
  8
0
 10
52.3368886459752503
 20
81.9525562897070756
 30
0.0
 11
52.3368886459752503
 21
73.0
 31
0.0
  0
LINE
  5
274A
  8
0
 10
47.6631113008190184
 20
81.9525562890667629
 30
0.0
 11
47.6631113008190184
 21
73.0
 31
0.0
  0
LINE
  5
274B
  8
0
 10
47.7628806081380333
 20
81.9525562902980766
 30
0.0
 11
47.7628806081380333
 21
73.0
 31
0.0
  0
LINE
  5
274C
  8
0
 10
52.2371194000177681
 20
81.9525562890667629
 30
0.0
 11
52.2371194000177681
 21
73.0
 31
0.0
  0
LINE
  5
274D
  8
0
 10
52.1197847749448613
 20
82.3842024012020033
 30
0.0
 11
52.1197847749448613
 21
73.0
 31
0.0
  0
LINE
  5
274E
  8
0
 10
47.8802152250550535
 20
82.3842024012019039
 30
0.0
 11
47.8802152250550535
 21
73.0
 31
0.0
  0
LINE
  5
274F
  8
0
 10
49.8495302173631103
 20
82.384202401225636
 30
0.0
 11
49.8495302173631103
 21
73.0
 31
0.0
  0
LINE
  5
2750
  8
0
 10
39.0550458671890226
 20
73.0
 30
0.0
 11
60.9449541284403367
 21
73.0
 31
0.0
  0
LINE
  5
2751
  8
0
 10
50.1504697826368329
 20
82.3842024012019749
 30
0.0
 11
50.1504697826368329
 21
73.0
 31
0.0
  0
LINE
  5
2752
  8
0
 10
49.9490008662522484
 20
81.9525562890667629
 30
0.0
 11
49.9490008662522484
 21
73.0
 31
0.0
  0
LINE
  5
2753
  8
0
 10
50.0509990792997073
 20
81.9525562887998547
 30
0.0
 11
50.0509990792997073
 21
73.0
 31
0.0
  0
LINE
  5
2754
  8
0
 10
59.2799999999999727
 20
84.25
 30
0.0
 11
40.7199999999999704
 21
84.25
 31
0.0
  0
POLYLINE
  5
2755
  8
0
 66
     1
 10
0.0
 20
0.0
 30
0.0
  0
VERTEX
  5
2A86
  8
0
 10
39.0550458671890226
 20
81.9525562890667629
 30
0.0
  0
VERTEX
  5
2A87
  8
0
 10
39.054663298296127
 20
81.9534631180438851
 30
0.0
  0
VERTEX
  5
2A88
  8
0
 10
39.0545535678441027
 20
81.9568820534642839
 30
0.0
  0
VERTEX
  5
2A89
  8
0
 10
39.0550692632991527
 20
81.9663043479419002
 30
0.0
  0
VERTEX
  5
2A8A
  8
0
 10
39.060717179660692
 20
82.0167354599691123
 30
0.0
  0
VERTEX
  5
2A8B
  8
0
 10
39.1000116223361189
 20
82.2304339756926481
 30
0.0
  0
VERTEX
  5
2A8C
  8
0
 10
39.1404958677685499
 20
82.3842024012252665
 30
0.0
  0
SEQEND
  5
2A8D
  8
0
  0
LINE
  5
2756
  8
0
 10
39.0657075823341415
 20
81.9525562899413131
 30
0.0
 11
39.0550458671890226
 21
81.9525562890667629
 31
0.0
  0
POLYLINE
  5
2757
  8
0
 66
     1
 10
0.0
 20
0.0
 30
0.0
  0
VERTEX
  5
2A8E
  8
0
 10
39.1719526180630524
 20
82.3842024012019465
 30
0.0
  0
VERTEX
  5
2A8F
  8
0
 10
39.1194604669261992
 20
82.1916013116614863
 30
0.0
  0
VERTEX
  5
2A90
  8
0
 10
39.1004532401117615
 20
82.1103842283317249
 30
0.0
  0
VERTEX
  5
2A91
  8
0
 10
39.0885266967744869
 20
82.0553193416042745
 30
0.0
  0
VERTEX
  5
2A92
  8
0
 10
39.0808351868843715
 20
82.0182547833957472
 30
0.0
  0
VERTEX
  5
2A93
  8
0
 10
39.0757401400111704
 20
81.9934402192086509
 30
0.0
  0
VERTEX
  5
2A94
  8
0
 10
39.0722795481049374
 20
81.9769251727959585
 30
0.0
  0
VERTEX
  5
2A95
  8
0
 10
39.0687641869888296
 20
81.9613967756039017
 30
0.0
  0
VERTEX
  5
2A96
  8
0
 10
39.0673720441806225
 20
81.9562167352602557
 30
0.0
  0
VERTEX
  5
2A97
  8
0
 10
39.0662891603286369
 20
81.9532281458348848
 30
0.0
  0
VERTEX
  5
2A98
  8
0
 10
39.0657075823341415
 20
81.9525562899413131
 30
0.0
  0
SEQEND
  5
2A99
  8
0
  0
POLYLINE
  5
2758
  8
0
 66
     1
 10
0.0
 20
0.0
 30
0.0
  0
VERTEX
  5
2A9A
  8
0
 10
39.1719526180630524
 20
82.3842024012019465
 30
0.0
  0
VERTEX
  5
2A9B
  8
0
 10
39.3323836959416226
 20
82.7987451268398758
 30
0.0
  0
VERTEX
  5
2A9C
  8
0
 10
39.553635583943958
 20
83.179743056885556
 30
0.0
  0
VERTEX
  5
2A9D
  8
0
 10
39.78662627711455
 20
83.4666204587823159
 30
0.0
  0
VERTEX
  5
2A9E
  8
0
 10
39.9095459616824613
 20
83.5864811654528523
 30
0.0
  0
VERTEX
  5
2A9F
  8
0
 10
40.0260280533250281
 20
83.6827310223489178
 30
0.0
  0
VERTEX
  5
2AA0
  8
0
 10
40.1541805199844433
 20
83.7647962279139051
 30
0.0
  0
VERTEX
  5
2AA1
  8
0
 10
40.2282234447682399
 20
83.7844152149613137
 30
0.0
  0
VERTEX
  5
2AA2
  8
0
 10
40.240375216795087
 20
83.7643553184464054
 30
0.0
  0
SEQEND
  5
2AA3
  8
0
  0
POLYLINE
  5
2759
  8
0
 66
     1
 10
0.0
 20
0.0
 30
0.0
  0
VERTEX
  5
2AA4
  8
0
 10
39.5227311625899134
 20
81.9525562890694346
 30
0.0
  0
VERTEX
  5
2AA5
  8
0
 10
39.5212914736991365
 20
81.9534592300543352
 30
0.0
  0
VERTEX
  5
2AA6
  8
0
 10
39.519910285614742
 20
81.9568708506901658
 30
0.0
  0
VERTEX
  5
2AA7
  8
0
 10
39.5185539970342177
 20
81.966272304219558
 30
0.0
  0
VERTEX
  5
2AA8
  8
0
 10
39.5179915965456701
 20
81.9870288124537012
 30
0.0
  0
SEQEND
  5
2AA9
  8
0
  0
LINE
  5
275A
  8
0
 10
39.554250340316969
 20
81.9525562901744706
 30
0.0
 11
39.5227311625906381
 21
81.9525562890667629
 31
0.0
  0
POLYLINE
  5
275B
  8
0
 66
     1
 10
0.0
 20
0.0
 30
0.0
  0
VERTEX
  5
2AAA
  8
0
 10
39.6766469976842586
 20
82.3842024012019039
 30
0.0
  0
VERTEX
  5
2AAB
  8
0
 10
39.6230646164594305
 20
82.1916265676300668
 30
0.0
  0
VERTEX
  5
2AAC
  8
0
 10
39.6018343236862904
 20
82.1104077972137247
 30
0.0
  0
VERTEX
  5
2AAD
  8
0
 10
39.5876768853077579
 20
82.0553414739432014
 30
0.0
  0
VERTEX
  5
2AAE
  8
0
 10
39.5779756166173229
 20
82.0182748925072076
 30
0.0
  0
VERTEX
  5
2AAF
  8
0
 10
39.5711278395949435
 20
81.993457818335969
 30
0.0
  0
VERTEX
  5
2AB0
  8
0
 10
39.5661448036096601
 20
81.9769399991351975
 30
0.0
  0
VERTEX
  5
2AB1
  8
0
 10
39.5605454127737275
 20
81.9614095051736911
 30
0.0
  0
VERTEX
  5
2AB2
  8
0
 10
39.5580112456153472
 20
81.9562252585763389
 30
0.0
  0
VERTEX
  5
2AB3
  8
0
 10
39.5557361479462486
 20
81.9532306494192255
 30
0.0
  0
VERTEX
  5
2AB4
  8
0
 10
39.554250340316969
 20
81.9525562901744706
 30
0.0
  0
SEQEND
  5
2AB5
  8
0
  0
POLYLINE
  5
275C
  8
0
 66
     1
 10
0.0
 20
0.0
 30
0.0
  0
VERTEX
  5
2AB6
  8
0
 10
39.6766469976842586
 20
82.3842024012019465
 30
0.0
  0
VERTEX
  5
2AB7
  8
0
 10
39.833846297389961
 20
82.798738007923248
 30
0.0
  0
VERTEX
  5
2AB8
  8
0
 10
40.0599574248621195
 20
83.1797303795661946
 30
0.0
  0
VERTEX
  5
2AB9
  8
0
 10
40.3111529820850691
 20
83.4666123664758857
 30
0.0
  0
VERTEX
  5
2ABA
  8
0
 10
40.4510719438885431
 20
83.5864753805641385
 30
0.0
  0
VERTEX
  5
2ABB
  8
0
 10
40.5908487019206277
 20
83.6827274005229356
 30
0.0
  0
VERTEX
  5
2ABC
  8
0
 10
40.7603863993349194
 20
83.7647946872606326
 30
0.0
  0
VERTEX
  5
2ABD
  8
0
 10
40.8849422069999378
 20
83.7844155667408756
 30
0.0
  0
VERTEX
  5
2ABE
  8
0
 10
40.9433708132278795
 20
83.7435718623771379
 30
0.0
  0
VERTEX
  5
2ABF
  8
0
 10
40.9509964447695367
 20
83.6987095083474628
 30
0.0
  0
SEQEND
  5
2AC0
  8
0
  0
POLYLINE
  5
275D
  8
0
 66
     1
 10
0.0
 20
0.0
 30
0.0
  0
VERTEX
  5
2AC1
  8
0
 10
40.4483233816990335
 20
81.9525562890706567
 30
0.0
  0
VERTEX
  5
2AC2
  8
0
 10
40.4459002486676624
 20
81.9534504651601878
 30
0.0
  0
VERTEX
  5
2AC3
  8
0
 10
40.4433105452896484
 20
81.9568455770479716
 30
0.0
  0
VERTEX
  5
2AC4
  8
0
 10
40.4401476218407083
 20
81.9662000515959193
 30
0.0
  0
VERTEX
  5
2AC5
  8
0
 10
40.4353889659607191
 20
82.0161031285505686
 30
0.0
  0
VERTEX
  5
2AC6
  8
0
 10
40.4351626572650886
 20
82.0377119266375558
 30
0.0
  0
SEQEND
  5
2AC7
  8
0
  0
LINE
  5
275E
  8
0
 10
40.4993224826960372
 20
81.9525562884481928
 30
0.0
 11
40.4483233817009307
 21
81.9525562890667345
 31
0.0
  0
POLYLINE
  5
275F
  8
0
 66
     1
 10
0.0
 20
0.0
 30
0.0
  0
VERTEX
  5
2AC8
  8
0
 10
40.6325214404503967
 20
82.3842024012019039
 30
0.0
  0
VERTEX
  5
2AC9
  8
0
 10
40.5802014042069672
 20
82.1916882041735448
 30
0.0
  0
VERTEX
  5
2ACA
  8
0
 10
40.5576756253939479
 20
82.1104638530425461
 30
0.0
  0
VERTEX
  5
2ACB
  8
0
 10
40.5419060935498692
 20
82.0553931081709038
 30
0.0
  0
VERTEX
  5
2ACC
  8
0
 10
40.5306191338318627
 20
82.0183212123563408
 30
0.0
  0
VERTEX
  5
2ACD
  8
0
 10
40.5223179664997701
 20
81.9934980171734367
 30
0.0
  0
VERTEX
  5
2ACE
  8
0
 10
40.5160303380401103
 20
81.9769736743669171
 30
0.0
  0
VERTEX
  5
2ACF
  8
0
 10
40.5085947034884626
 20
81.9614382992161552
 30
0.0
  0
VERTEX
  5
2AD0
  8
0
 10
40.5050290651380678
 20
81.9562445163604139
 30
0.0
  0
VERTEX
  5
2AD1
  8
0
 10
40.5010136840512871
 20
81.9529205598807096
 30
0.0
  0
VERTEX
  5
2AD2
  8
0
 10
40.4993224826960372
 20
81.9525562884481928
 30
0.0
  0
SEQEND
  5
2AD3
  8
0
  0
POLYLINE
  5
2760
  8
0
 66
     1
 10
0.0
 20
0.0
 30
0.0
  0
VERTEX
  5
2AD4
  8
0
 10
40.6325214404503967
 20
82.3842024012019039
 30
0.0
  0
VERTEX
  5
2AD5
  8
0
 10
40.7796140604742376
 20
82.7987205953345153
 30
0.0
  0
VERTEX
  5
2AD6
  8
0
 10
41.0006930036286334
 20
83.179699371109848
 30
0.0
  0
VERTEX
  5
2AD7
  8
0
 10
41.2591143595612095
 20
83.4665925730248262
 30
0.0
  0
VERTEX
  5
2AD8
  8
0
 10
41.4099182008079367
 20
83.5864612310483608
 30
0.0
  0
VERTEX
  5
2AD9
  8
0
 10
41.5668823255761311
 20
83.6827185418112833
 30
0.0
  0
VERTEX
  5
2ADA
  8
0
 10
41.7703969807838504
 20
83.7647909188218733
 30
0.0
  0
VERTEX
  5
2ADB
  8
0
 10
41.9400246496766869
 20
83.7844164269456542
 30
0.0
  0
VERTEX
  5
2ADC
  8
0
 10
42.0458599587371111
 20
83.743576379595325
 30
0.0
  0
VERTEX
  5
2ADD
  8
0
 10
42.0955298167483818
 20
83.6486722680314045
 30
0.0
  0
VERTEX
  5
2ADE
  8
0
 10
42.1008056604495025
 20
83.5840110636693083
 30
0.0
  0
SEQEND
  5
2ADF
  8
0
  0
POLYLINE
  5
2761
  8
0
 66
     1
 10
0.0
 20
0.0
 30
0.0
  0
VERTEX
  5
2AE0
  8
0
 10
41.7913697001988211
 20
81.9525562890738684
 30
0.0
  0
VERTEX
  5
2AE1
  8
0
 10
41.7880916748688875
 20
81.9534343649873591
 30
0.0
  0
VERTEX
  5
2AE2
  8
0
 10
41.7844129900849381
 20
81.9567990830461213
 30
0.0
  0
VERTEX
  5
2AE3
  8
0
 10
41.7795972806277618
 20
81.9660672730682052
 30
0.0
  0
VERTEX
  5
2AE4
  8
0
 10
41.7699072861262195
 20
82.0153014807029876
 30
0.0
  0
VERTEX
  5
2AE5
  8
0
 10
41.7660176396180702
 20
82.1076375834738741
 30
0.0
  0
SEQEND
  5
2AE6
  8
0
  0
LINE
  5
2762
  8
0
 10
41.8596198218900781
 20
81.9525562883360976
 30
0.0
 11
41.7913697002042923
 21
81.9525562890667629
 31
0.0
  0
POLYLINE
  5
2763
  8
0
 66
     1
 10
0.0
 20
0.0
 30
0.0
  0
VERTEX
  5
2AE7
  8
0
 10
41.9977996464181231
 20
82.3842024012019039
 30
0.0
  0
VERTEX
  5
2AE8
  8
0
 10
41.9490436587714726
 20
82.1918037508828832
 30
0.0
  0
VERTEX
  5
2AE9
  8
0
 10
41.926207778980249
 20
82.1105680971098764
 30
0.0
  0
VERTEX
  5
2AEA
  8
0
 10
41.909516412325182
 20
82.0554886531992622
 30
0.0
  0
VERTEX
  5
2AEB
  8
0
 10
41.8971379673155511
 20
82.0184066867162045
 30
0.0
  0
VERTEX
  5
2AEC
  8
0
 10
41.8877469814384824
 20
81.9935720886330728
 30
0.0
  0
VERTEX
  5
2AED
  8
0
 10
41.8804302734744383
 20
81.9770356844681629
 30
0.0
  0
VERTEX
  5
2AEE
  8
0
 10
41.8714900759286408
 20
81.9614914609869913
 30
0.0
  0
VERTEX
  5
2AEF
  8
0
 10
41.8670490381881493
 20
81.9562801075686593
 30
0.0
  0
VERTEX
  5
2AF0
  8
0
 10
41.8618896757098682
 20
81.9529318647890079
 30
0.0
  0
VERTEX
  5
2AF1
  8
0
 10
41.8596198218900781
 20
81.9525562883360976
 30
0.0
  0
SEQEND
  5
2AF2
  8
0
  0
POLYLINE
  5
2764
  8
0
 66
     1
 10
0.0
 20
0.0
 30
0.0
  0
VERTEX
  5
2AF3
  8
0
 10
41.9977996464181231
 20
82.3842024012019039
 30
0.0
  0
VERTEX
  5
2AF4
  8
0
 10
42.1283517798779812
 20
82.7986879518811349
 30
0.0
  0
VERTEX
  5
2AF5
  8
0
 10
42.3347234549026226
 20
83.1796412385312038
 30
0.0
  0
VERTEX
  5
2AF6
  8
0
 10
42.5890733597511826
 20
83.4665554662000346
 30
0.0
  0
VERTEX
  5
2AF7
  8
0
 10
42.744171115463331
 20
83.5864347052493315
 30
0.0
  0
VERTEX
  5
2AF8
  8
0
 10
42.9114638504144281
 20
83.6827019348506838
 30
0.0
  0
VERTEX
  5
2AF9
  8
0
 10
43.1400614021780484
 20
83.7647838538782707
 30
0.0
  0
VERTEX
  5
2AFA
  8
0
 10
43.3473504178850177
 20
83.7844180386798882
 30
0.0
  0
VERTEX
  5
2AFB
  8
0
 10
43.4959700024604103
 20
83.7435848464626815
 30
0.0
  0
VERTEX
  5
2AFC
  8
0
 10
43.5911906734183106
 20
83.6486876882020169
 30
0.0
  0
VERTEX
  5
2AFD
  8
0
 10
43.6360270735744606
 20
83.4923427092543449
 30
0.0
  0
VERTEX
  5
2AFE
  8
0
 10
43.6395597784683886
 20
83.4137422596541285
 30
0.0
  0
SEQEND
  5
2AFF
  8
0
  0
POLYLINE
  5
2765
  8
0
 66
     1
 10
0.0
 20
0.0
 30
0.0
  0
VERTEX
  5
2B00
  8
0
 10
43.4931725543107106
 20
81.9525562890719357
 30
0.0
  0
VERTEX
  5
2B01
  8
0
 10
43.4891425485072034
 20
81.9534430648562733
 30
0.0
  0
VERTEX
  5
2B02
  8
0
 10
43.4845272578686206
 20
81.9568242177413708
 30
0.0
  0
VERTEX
  5
2B03
  8
0
 10
43.4782502022885282
 20
81.966139030893828
 30
0.0
  0
VERTEX
  5
2B04
  8
0
 10
43.4640197271725413
 20
82.0157342482385729
 30
0.0
  0
VERTEX
  5
2B05
  8
0
 10
43.4523348459547876
 20
82.1785928756349762
 30
0.0
  0
SEQEND
  5
2B06
  8
0
  0
LINE
  5
2766
  8
0
 10
43.575690836745423
 20
81.9525562909951049
 30
0.0
 11
43.4931725543151728
 21
81.9525562890667345
 31
0.0
  0
POLYLINE
  5
2767
  8
0
 66
     1
 10
0.0
 20
0.0
 30
0.0
  0
VERTEX
  5
2B07
  8
0
 10
43.7128124066549617
 20
82.3842024012019465
 30
0.0
  0
VERTEX
  5
2B08
  8
0
 10
43.669713299216312
 20
82.1917795040058081
 30
0.0
  0
VERTEX
  5
2B09
  8
0
 10
43.6475648685703774
 20
82.1105361792710369
 30
0.0
  0
VERTEX
  5
2B0A
  8
0
 10
43.6306795553673226
 20
82.0554519121752151
 30
0.0
  0
VERTEX
  5
2B0B
  8
0
 10
43.6177494415520286
 20
82.0183691325977975
 30
0.0
  0
VERTEX
  5
2B0C
  8
0
 10
43.6076783589835983
 20
81.993536740222325
 30
0.0
  0
VERTEX
  5
2B0D
  8
0
 10
43.5996518806498372
 20
81.9770044472617769
 30
0.0
  0
VERTEX
  5
2B0E
  8
0
 10
43.5895857129165378
 20
81.9614631896348556
 30
0.0
  0
VERTEX
  5
2B0F
  8
0
 10
43.5844645899296381
 20
81.9562608754562234
 30
0.0
  0
VERTEX
  5
2B10
  8
0
 10
43.5783902956549625
 20
81.9529255987483225
 30
0.0
  0
VERTEX
  5
2B11
  8
0
 10
43.575690836745423
 20
81.9525562909951049
 30
0.0
  0
SEQEND
  5
2B12
  8
0
  0
POLYLINE
  5
2768
  8
0
 66
     1
 10
0.0
 20
0.0
 30
0.0
  0
VERTEX
  5
2B13
  8
0
 10
43.7128124066549333
 20
82.3842024012019465
 30
0.0
  0
VERTEX
  5
2B14
  8
0
 10
43.8211119884743709
 20
82.7986277138994069
 30
0.0
  0
VERTEX
  5
2B15
  8
0
 10
44.00373735242664
 20
83.1795339616078593
 30
0.0
  0
VERTEX
  5
2B16
  8
0
 10
44.2428920296533192
 20
83.4664869919623982
 30
0.0
  0
VERTEX
  5
2B17
  8
0
 10
44.3955034846864933
 20
83.5863857575921827
 30
0.0
  0
VERTEX
  5
2B18
  8
0
 10
44.5658141277171111
 20
83.6826712912344135
 30
0.0
  0
VERTEX
  5
2B19
  8
0
 10
44.8095027111730815
 20
83.7647708159120725
 30
0.0
  0
VERTEX
  5
2B1A
  8
0
 10
45.04539726078999
 20
83.7844210097987059
 30
0.0
  0
VERTEX
  5
2B1B
  8
0
 10
45.2303100413003207
 20
83.7436004652258674
 30
0.0
  0
VERTEX
  5
2B1C
  8
0
 10
45.3669239757350269
 20
83.6487161351530943
 30
0.0
  0
VERTEX
  5
2B1D
  8
0
 10
45.4572037373197304
 20
83.4923872304755292
 30
0.0
  0
VERTEX
  5
2B1E
  8
0
 10
45.4911633087307266
 20
83.3372564069705248
 30
0.0
  0
VERTEX
  5
2B1F
  8
0
 10
45.4999998632676679
 20
83.1729265382560072
 30
0.0
  0
SEQEND
  5
2B20
  8
0
  0
POLYLINE
  5
2769
  8
0
 66
     1
 10
0.0
 20
0.0
 30
0.0
  0
VERTEX
  5
2B21
  8
0
 10
45.4793549885874313
 20
81.9525562890699035
 30
0.0
  0
VERTEX
  5
2B22
  8
0
 10
45.4747337437412327
 20
81.9534552684557127
 30
0.0
  0
VERTEX
  5
2B23
  8
0
 10
45.4693782613961091
 20
81.956859430611388
 30
0.0
  0
VERTEX
  5
2B24
  8
0
 10
45.461900692559297
 20
81.966239649737517
 30
0.0
  0
VERTEX
  5
2B25
  8
0
 10
45.443681308772419
 20
82.0163429319712947
 30
0.0
  0
VERTEX
  5
2B26
  8
0
 10
45.4206192198032213
 20
82.2287297681179865
 30
0.0
  0
VERTEX
  5
2B27
  8
0
 10
45.4204520712646627
 20
82.2489562592106722
 30
0.0
  0
SEQEND
  5
2B28
  8
0
  0
LINE
  5
276A
  8
0
 10
45.5725349892906024
 20
81.9525562901116587
 30
0.0
 11
45.4793549885901314
 21
81.9525562890667345
 31
0.0
  0
POLYLINE
  5
276B
  8
0
 66
     1
 10
0.0
 20
0.0
 30
0.0
  0
VERTEX
  5
2B29
  8
0
 10
45.7026054339942718
 20
82.3842024012019039
 30
0.0
  0
VERTEX
  5
2B2A
  8
0
 10
45.6670292598184915
 20
82.1916750237001139
 30
0.0
  0
VERTEX
  5
2B2B
  8
0
 10
45.6465384020653104
 20
82.1104462443325929
 30
0.0
  0
VERTEX
  5
2B2C
  8
0
 10
45.6301987232749582
 20
82.0553727590557003
 30
0.0
  0
VERTEX
  5
2B2D
  8
0
 10
45.6172830395842013
 20
82.0183003951291312
 30
0.0
  0
VERTEX
  5
2B2E
  8
0
 10
45.6069725293351027
 20
81.9934784256235787
 30
0.0
  0
VERTEX
  5
2B2F
  8
0
 10
45.598587228213141
 20
81.9769563711636238
 30
0.0
  0
VERTEX
  5
2B30
  8
0
 10
45.5878314127872599
 20
81.9614227060135647
 30
0.0
  0
VERTEX
  5
2B31
  8
0
 10
45.5822537097363565
 20
81.956233925111917
 30
0.0
  0
VERTEX
  5
2B32
  8
0
 10
45.5766485213444525
 20
81.9532332194650337
 30
0.0
  0
VERTEX
  5
2B33
  8
0
 10
45.5725349892906024
 20
81.9525562901116587
 30
0.0
  0
SEQEND
  5
2B34
  8
0
  0
POLYLINE
  5
276C
  8
0
 66
     1
 10
0.0
 20
0.0
 30
0.0
  0
VERTEX
  5
2B35
  8
0
 10
45.7026054339941865
 20
82.3842024012019465
 30
0.0
  0
VERTEX
  5
2B36
  8
0
 10
45.7839099906580032
 20
82.798503603207763
 30
0.0
  0
VERTEX
  5
2B37
  8
0
 10
45.9347706588811135
 20
83.1793129222004097
 30
0.0
  0
VERTEX
  5
2B38
  8
0
 10
46.148259050149079
 20
83.4663459123796088
 30
0.0
  0
VERTEX
  5
2B39
  8
0
 10
46.2917086154221806
 20
83.5862849138298714
 30
0.0
  0
VERTEX
  5
2B3A
  8
0
 10
46.4575932077467186
 20
83.6826081620528726
 30
0.0
  0
VERTEX
  5
2B3B
  8
0
 10
46.7057174315970869
 20
83.7647439499926776
 30
0.0
  0
VERTEX
  5
2B3C
  8
0
 10
46.9599132446721512
 20
83.7844271187892957
 30
0.0
  0
VERTEX
  5
2B3D
  8
0
 10
47.1730450798166601
 20
83.7436326230625951
 30
0.0
  0
VERTEX
  5
2B3E
  8
0
 10
47.3450887848140098
 20
83.6487747113126971
 30
0.0
  0
VERTEX
  5
2B3F
  8
0
 10
47.4768742117093865
 20
83.4924789078205691
 30
0.0
  0
VERTEX
  5
2B40
  8
0
 10
47.542684222896149
 20
83.3373870316909233
 30
0.0
  0
VERTEX
  5
2B41
  8
0
 10
47.5804550128439132
 20
83.1635519946171371
 30
0.0
  0
VERTEX
  5
2B42
  8
0
 10
47.6008365918237288
 20
82.8650568093761706
 30
0.0
  0
VERTEX
  5
2B43
  8
0
 10
47.6008097033560986
 20
82.8202318969830174
 30
0.0
  0
SEQEND
  5
2B44
  8
0
  0
POLYLINE
  5
276D
  8
0
 66
     1
 10
0.0
 20
0.0
 30
0.0
  0
VERTEX
  5
2B45
  8
0
 10
47.6631113008169791
 20
81.9525562890691788
 30
0.0
  0
VERTEX
  5
2B46
  8
0
 10
47.6581105601852286
 20
81.9534615699868141
 30
0.0
  0
VERTEX
  5
2B47
  8
0
 10
47.6522506809991526
 20
81.956877593527679
 30
0.0
  0
VERTEX
  5
2B48
  8
0
 10
47.6439031127942485
 20
81.9662915897567359
 30
0.0
  0
VERTEX
  5
2B49
  8
0
 10
47.6224905709124684
 20
82.0166579845823946
 30
0.0
  0
VERTEX
  5
2B4A
  8
0
 10
47.587808851511447
 20
82.2300975647083305
 30
0.0
  0
VERTEX
  5
2B4B
  8
0
 10
47.5843566945478571
 20
82.3233602687607799
 30
0.0
  0
SEQEND
  5
2B4C
  8
0
  0
LINE
  5
276E
  8
0
 10
47.7628806081380333
 20
81.9525562902980766
 30
0.0
 11
47.6631113008190184
 21
81.9525562890667629
 31
0.0
  0
POLYLINE
  5
276F
  8
0
 66
     1
 10
0.0
 20
0.0
 30
0.0
  0
VERTEX
  5
2B4D
  8
0
 10
47.8802152250550535
 20
82.3842024012019039
 30
0.0
  0
VERTEX
  5
2B4E
  8
0
 10
47.8537330289147391
 20
82.1916202062516561
 30
0.0
  0
VERTEX
  5
2B4F
  8
0
 10
47.8357934684772985
 20
82.1103992314669426
 30
0.0
  0
VERTEX
  5
2B50
  8
0
 10
47.8207125630527798
 20
82.0553315547418833
 30
0.0
  0
VERTEX
  5
2B51
  8
0
 10
47.8083750905812224
 20
82.0182647405798377
 30
0.0
  0
VERTEX
  5
2B52
  8
0
 10
47.7982752272341074
 20
81.9934482648990013
 30
0.0
  0
VERTEX
  5
2B53
  8
0
 10
47.7898971608960323
 20
81.9769315640603224
 30
0.0
  0
VERTEX
  5
2B54
  8
0
 10
47.7789243311967198
 20
81.9614019210334845
 30
0.0
  0
VERTEX
  5
2B55
  8
0
 10
47.7731331782488482
 20
81.9562201114761848
 30
0.0
  0
VERTEX
  5
2B56
  8
0
 10
47.7672445417294114
 20
81.9532291474939143
 30
0.0
  0
VERTEX
  5
2B57
  8
0
 10
47.7628806081380333
 20
81.9525562902980766
 30
0.0
  0
SEQEND
  5
2B58
  8
0
  0
POLYLINE
  5
2770
  8
0
 66
     1
 10
0.0
 20
0.0
 30
0.0
  0
VERTEX
  5
2B59
  8
0
 10
47.8802152250550535
 20
82.3842024012019039
 30
0.0
  0
VERTEX
  5
2B5A
  8
0
 10
47.9309498083271421
 20
82.7981533960196145
 30
0.0
  0
VERTEX
  5
2B5B
  8
0
 10
48.0433443422374182
 20
83.1786891172090179
 30
0.0
  0
VERTEX
  5
2B5C
  8
0
 10
48.2217698335379268
 20
83.4659478279930482
 30
0.0
  0
VERTEX
  5
2B5D
  8
0
 10
48.3497655889383111
 20
83.5860003964232448
 30
0.0
  0
VERTEX
  5
2B5E
  8
0
 10
48.5039680060714886
 20
83.6824300799699756
 30
0.0
  0
VERTEX
  5
2B5F
  8
0
 10
48.7456621096410387
 20
83.7646681179181769
 30
0.0
  0
VERTEX
  5
2B60
  8
0
 10
49.0070623017349405
 20
83.7844442659711603
 30
0.0
  0
VERTEX
  5
2B61
  8
0
 10
49.23911873289466
 20
83.7437232034709211
 30
0.0
  0
VERTEX
  5
2B62
  8
0
 10
49.4390933152405694
 20
83.6489397493670452
 30
0.0
  0
VERTEX
  5
2B63
  8
0
 10
49.6066477564856712
 20
83.4927372232955349
 30
0.0
  0
VERTEX
  5
2B64
  8
0
 10
49.7014418089273065
 20
83.3377550802505027
 30
0.0
  0
VERTEX
  5
2B65
  8
0
 10
49.7665437132856994
 20
83.1640333468628938
 30
0.0
  0
VERTEX
  5
2B66
  8
0
 10
49.8240807083385207
 20
82.8657483811389142
 30
0.0
  0
VERTEX
  5
2B67
  8
0
 10
49.8461693650289206
 20
82.5451187982931458
 30
0.0
  0
VERTEX
  5
2B68
  8
0
 10
49.8495302173631103
 20
82.384202401225636
 30
0.0
  0
SEQEND
  5
2B69
  8
0
  0
POLYLINE
  5
2771
  8
0
 66
     1
 10
0.0
 20
0.0
 30
0.0
  0
VERTEX
  5
2B6A
  8
0
 10
49.9490008662522484
 20
81.9525562890667629
 30
0.0
  0
VERTEX
  5
2B6B
  8
0
 10
49.9485557467309889
 20
81.952563065852587
 30
0.0
  0
VERTEX
  5
2B6C
  8
0
 10
49.9435421179158467
 20
81.9535750321107344
 30
0.0
  0
VERTEX
  5
2B6D
  8
0
 10
49.9353035860613588
 20
81.9589579200416978
 30
0.0
  0
VERTEX
  5
2B6E
  8
0
 10
49.9289280069198966
 20
81.9662669945141715
 30
0.0
  0
VERTEX
  5
2B6F
  8
0
 10
49.9178093228656508
 20
81.9854495898276525
 30
0.0
  0
VERTEX
  5
2B70
  8
0
 10
49.9084872562182511
 20
82.007718516639045
 30
0.0
  0
VERTEX
  5
2B71
  8
0
 10
49.8657513735963605
 20
82.1916001105768572
 30
0.0
  0
VERTEX
  5
2B72
  8
0
 10
49.8495302173631103
 20
82.384202401225636
 30
0.0
  0
SEQEND
  5
2B73
  8
0
  0
LINE
  5
2772
  8
0
 10
50.0509990792997073
 20
81.9525562887998547
 30
0.0
 11
49.9490008662522484
 21
81.9525562890667629
 31
0.0
  0
POLYLINE
  5
2773
  8
0
 66
     1
 10
0.0
 20
0.0
 30
0.0
  0
VERTEX
  5
2B74
  8
0
 10
50.1504697826368329
 20
82.3842024012019749
 30
0.0
  0
VERTEX
  5
2B75
  8
0
 10
50.1342486264035472
 20
82.1916001105769283
 30
0.0
  0
VERTEX
  5
2B76
  8
0
 10
50.0915127437816921
 20
82.0077185166391445
 30
0.0
  0
VERTEX
  5
2B77
  8
0
 10
50.0821906771342569
 20
81.9854495898277662
 30
0.0
  0
VERTEX
  5
2B78
  8
0
 10
50.071071993080011
 20
81.9662669945142568
 30
0.0
  0
VERTEX
  5
2B79
  8
0
 10
50.0646964139385489
 20
81.958957920041783
 30
0.0
  0
VERTEX
  5
2B7A
  8
0
 10
50.0564578820840609
 20
81.9535750321108338
 30
0.0
  0
VERTEX
  5
2B7B
  8
0
 10
50.051444253268933
 20
81.9525630658526723
 30
0.0
  0
VERTEX
  5
2B7C
  8
0
 10
50.0509990792997073
 20
81.9525562887998547
 30
0.0
  0
SEQEND
  5
2B7D
  8
0
  0
POLYLINE
  5
2774
  8
0
 66
     1
 10
0.0
 20
0.0
 30
0.0
  0
VERTEX
  5
2B7E
  8
0
 10
50.1504697826368329
 20
82.3842024012019749
 30
0.0
  0
VERTEX
  5
2B7F
  8
0
 10
50.1685666255069691
 20
82.7987454493796804
 30
0.0
  0
VERTEX
  5
2B80
  8
0
 10
50.2380924826228821
 20
83.1797436312610046
 30
0.0
  0
VERTEX
  5
2B81
  8
0
 10
50.3738783335044005
 20
83.466620825423945
 30
0.0
  0
VERTEX
  5
2B82
  8
0
 10
50.4808846982314492
 20
83.5864814275518029
 30
0.0
  0
VERTEX
  5
2B83
  8
0
 10
50.6166563812917616
 20
83.6827311864452668
 30
0.0
  0
VERTEX
  5
2B84
  8
0
 10
50.8414017641962914
 20
83.7647962977166003
 30
0.0
  0
VERTEX
  5
2B85
  8
0
 10
51.098493914384477
 20
83.7844151990217654
 30
0.0
  0
VERTEX
  5
2B86
  8
0
 10
51.3392245934267635
 20
83.7435699317165927
 30
0.0
  0
VERTEX
  5
2B87
  8
0
 10
51.5582872097275811
 20
83.6486605252965347
 30
0.0
  0
VERTEX
  5
2B88
  8
0
 10
51.7541759191875812
 20
83.4923001982552364
 30
0.0
  0
VERTEX
  5
2B89
  8
0
 10
51.8737510776435897
 20
83.3371323995065154
 30
0.0
  0
VERTEX
  5
2B8A
  8
0
 10
51.963246573856388
 20
83.1632189696843511
 30
0.0
  0
VERTEX
  5
2B8B
  8
0
 10
52.0552783021013283
 20
82.8645783655232435
 30
0.0
  0
VERTEX
  5
2B8C
  8
0
 10
52.1055770069491473
 20
82.543587376598694
 30
0.0
  0
VERTEX
  5
2B8D
  8
0
 10
52.1197847749448613
 20
82.3842024012020033
 30
0.0
  0
SEQEND
  5
2B8E
  8
0
  0
POLYLINE
  5
2775
  8
0
 66
     1
 10
0.0
 20
0.0
 30
0.0
  0
VERTEX
  5
2B8F
  8
0
 10
52.2371194000177681
 20
81.9525562890667629
 30
0.0
  0
VERTEX
  5
2B90
  8
0
 10
52.2320532687587402
 20
81.9534616783404886
 30
0.0
  0
VERTEX
  5
2B91
  8
0
 10
52.2259725285178433
 20
81.9568779057192245
 30
0.0
  0
VERTEX
  5
2B92
  8
0
 10
52.2170230356805121
 20
81.9662924827638051
 30
0.0
  0
VERTEX
  5
2B93
  8
0
 10
52.1922190963208621
 20
82.0166634063290161
 30
0.0
  0
VERTEX
  5
2B94
  8
0
 10
52.1391739971331774
 20
82.230121106156318
 30
0.0
  0
VERTEX
  5
2B95
  8
0
 10
52.1197847749448613
 20
82.3842024012020033
 30
0.0
  0
SEQEND
  5
2B96
  8
0
  0
LINE
  5
2776
  8
0
 10
52.3368886459752503
 20
81.9525562897070756
 30
0.0
 11
52.2371194000177681
 21
81.9525562890667629
 31
0.0
  0
LINE
  5
2777
  8
0
 10
52.4141480886832483
 20
82.384202401202046
 30
0.0
 11
52.4156432322767714
 21
82.323300745836292
 31
0.0
  0
POLYLINE
  5
2778
  8
0
 66
     1
 10
0.0
 20
0.0
 30
0.0
  0
VERTEX
  5
2B97
  8
0
 10
52.4141480886832198
 20
82.3842024012019749
 30
0.0
  0
VERTEX
  5
2B98
  8
0
 10
52.3987057036685471
 20
82.7987426923886005
 30
0.0
  0
VERTEX
  5
2B99
  8
0
 10
52.3991893344196171
 20
82.8210496638868534
 30
0.0
  0
SEQEND
  5
2B9A
  8
0
  0
POLYLINE
  5
2779
  8
0
 66
     1
 10
0.0
 20
0.0
 30
0.0
  0
VERTEX
  5
2B9B
  8
0
 10
54.4274650304473369
 20
81.9525562890667629
 30
0.0
  0
VERTEX
  5
2B9C
  8
0
 10
54.4227166229217403
 20
81.9534555337931749
 30
0.0
  0
VERTEX
  5
2B9D
  8
0
 10
54.4169304738847686
 20
81.9568601956633813
 30
0.0
  0
VERTEX
  5
2B9E
  8
0
 10
54.4082794793207469
 20
81.9662418369801458
 30
0.0
  0
VERTEX
  5
2B9F
  8
0
 10
54.3834617078149734
 20
82.0163561875146172
 30
0.0
  0
VERTEX
  5
2BA0
  8
0
 10
54.3247002988965093
 20
82.2287873099358961
 30
0.0
  0
VERTEX
  5
2BA1
  8
0
 10
54.297394566005643
 20
82.3842024012020033
 30
0.0
  0
SEQEND
  5
2BA2
  8
0
  0
LINE
  5
277A
  8
0
 10
54.5206449651858165
 20
81.9525562873449758
 30
0.0
 11
54.4274650304473369
 21
81.9525562890667629
 31
0.0
  0
LINE
  5
277B
  8
0
 10
54.5723165360190023
 20
82.3842024267761843
 30
0.0
 11
54.5795469756332281
 21
82.247998179239687
 31
0.0
  0
POLYLINE
  5
277C
  8
0
 66
     1
 10
0.0
 20
0.0
 30
0.0
  0
VERTEX
  5
2BA3
  8
0
 10
54.572316536018981
 20
82.3842024267760991
 30
0.0
  0
VERTEX
  5
2BA4
  8
0
 10
54.5240114187195388
 20
82.7987308148462944
 30
0.0
  0
VERTEX
  5
2BA5
  8
0
 10
54.5000002020217096
 20
83.1727718144936432
 30
0.0
  0
SEQEND
  5
2BA6
  8
0
  0
POLYLINE
  5
277D
  8
0
 66
     1
 10
0.0
 20
0.0
 30
0.0
  0
VERTEX
  5
2BA7
  8
0
 10
56.4243091700162367
 20
81.9525562890667629
 30
0.0
  0
VERTEX
  5
2BA8
  8
0
 10
56.4200975659858628
 20
81.9534435607940566
 30
0.0
  0
VERTEX
  5
2BA9
  8
0
 10
56.4148638954191313
 20
81.9568256497475431
 30
0.0
  0
VERTEX
  5
2BAA
  8
0
 10
56.4069027543033883
 20
81.9661431207559446
 30
0.0
  0
VERTEX
  5
2BAB
  8
0
 10
56.383238503569288
 20
82.0157589472156161
 30
0.0
  0
VERTEX
  5
2BAC
  8
0
 10
56.321621801759477
 20
82.2261953203204996
 30
0.0
  0
VERTEX
  5
2BAD
  8
0
 10
56.287187593344953
 20
82.3842024012019749
 30
0.0
  0
SEQEND
  5
2BAE
  8
0
  0
LINE
  5
277E
  8
0
 10
56.5068274069564609
 20
81.9525562890764547
 30
0.0
 11
56.4243091700162367
 21
81.9525562890667629
 31
0.0
  0
POLYLINE
  5
277F
  8
0
 66
     1
 10
0.0
 20
0.0
 30
0.0
  0
VERTEX
  5
2BAF
  8
0
 10
56.5306528159312265
 20
82.3842024012020602
 30
0.0
  0
VERTEX
  5
2BB0
  8
0
 10
56.5475498608763019
 20
82.191737427566693
 30
0.0
  0
VERTEX
  5
2BB1
  8
0
 10
56.5476743777164472
 20
82.1740471813264435
 30
0.0
  0
SEQEND
  5
2BB2
  8
0
  0
POLYLINE
  5
2780
  8
0
 66
     1
 10
0.0
 20
0.0
 30
0.0
  0
VERTEX
  5
2BB3
  8
0
 10
56.5306528159312123
 20
82.3842024012019749
 30
0.0
  0
VERTEX
  5
2BB4
  8
0
 10
56.4516010199890275
 20
82.7987066873492381
 30
0.0
  0
VERTEX
  5
2BB5
  8
0
 10
56.3813809854387102
 20
83.1796746034365242
 30
0.0
  0
VERTEX
  5
2BB6
  8
0
 10
56.3604473155183072
 20
83.4118410891233566
 30
0.0
  0
SEQEND
  5
2BB7
  8
0
  0
POLYLINE
  5
2781
  8
0
 66
     1
 10
0.0
 20
0.0
 30
0.0
  0
VERTEX
  5
2BB8
  8
0
 10
58.1403801926115804
 20
81.9525562890667629
 30
0.0
  0
VERTEX
  5
2BB9
  8
0
 10
58.1368776078303924
 20
81.9534336610927028
 30
0.0
  0
VERTEX
  5
2BBA
  8
0
 10
58.1324219244462768
 20
81.9567970482576413
 30
0.0
  0
VERTEX
  5
2BBB
  8
0
 10
58.125490715526162
 20
81.9660614661853941
 30
0.0
  0
VERTEX
  5
2BBC
  8
0
 10
58.1039835000208029
 20
82.0152665080112655
 30
0.0
  0
VERTEX
  5
2BBD
  8
0
 10
58.0422698367258434
 20
82.2240591030430323
 30
0.0
  0
VERTEX
  5
2BBE
  8
0
 10
58.0022003535817916
 20
82.3842024012323151
 30
0.0
  0
SEQEND
  5
2BBF
  8
0
  0
LINE
  5
2782
  8
0
 10
58.2086302678210288
 20
81.95255628925824
 30
0.0
 11
58.1403801926115804
 21
81.9525562890667629
 31
0.0
  0
POLYLINE
  5
2783
  8
0
 66
     1
 10
0.0
 20
0.0
 30
0.0
  0
VERTEX
  5
2BC0
  8
0
 10
58.2035682196837385
 20
82.3842024368335331
 30
0.0
  0
VERTEX
  5
2BC1
  8
0
 10
58.2306531287592009
 20
82.1918603880689886
 30
0.0
  0
VERTEX
  5
2BC2
  8
0
 10
58.2339595224656321
 20
82.1106056185326736
 30
0.0
  0
VERTEX
  5
2BC3
  8
0
 10
58.2340062834992906
 20
82.1006244442737056
 30
0.0
  0
SEQEND
  5
2BC4
  8
0
  0
POLYLINE
  5
2784
  8
0
 66
     1
 10
0.0
 20
0.0
 30
0.0
  0
VERTEX
  5
2BC5
  8
0
 10
58.2035682196836888
 20
82.3842024368333909
 30
0.0
  0
VERTEX
  5
2BC6
  8
0
 10
58.0972349952029887
 20
82.7986626367837744
 30
0.0
  0
VERTEX
  5
2BC7
  8
0
 10
57.9838784762750379
 20
83.1795961259572749
 30
0.0
  0
VERTEX
  5
2BC8
  8
0
 10
57.9112161607765685
 20
83.4665266707741864
 30
0.0
  0
VERTEX
  5
2BC9
  8
0
 10
57.8991869424935999
 20
83.5865281497376458
 30
0.0
  0
SEQEND
  5
2BCA
  8
0
  0
POLYLINE
  5
2785
  8
0
 66
     1
 10
0.0
 20
0.0
 30
0.0
  0
VERTEX
  5
2BCB
  8
0
 10
59.5006775064366025
 20
81.9525562890667629
 30
0.0
  0
VERTEX
  5
2BCC
  8
0
 10
59.4979872238869518
 20
81.9534500585416339
 30
0.0
  0
VERTEX
  5
2BCD
  8
0
 10
59.4944837264960427
 20
81.956844403925686
 30
0.0
  0
VERTEX
  5
2BCE
  8
0
 10
59.4888313771340904
 20
81.9661966991538264
 30
0.0
  0
VERTEX
  5
2BCF
  8
0
 10
59.4700956471687618
 20
82.016082841797683
 30
0.0
  0
VERTEX
  5
2BD0
  8
0
 10
59.4099342386130616
 20
82.2276008501423377
 30
0.0
  0
VERTEX
  5
2BD1
  8
0
 10
59.3674785595495109
 20
82.3842024012314198
 30
0.0
  0
SEQEND
  5
2BD2
  8
0
  0
LINE
  5
2786
  8
0
 10
59.5516765966036417
 20
81.9525562882245993
 30
0.0
 11
59.5006775064366025
 21
81.9525562890667629
 31
0.0
  0
POLYLINE
  5
2787
  8
0
 66
     1
 10
0.0
 20
0.0
 30
0.0
  0
VERTEX
  5
2BD3
  8
0
 10
59.5179483421863722
 20
82.384202401202046
 30
0.0
  0
VERTEX
  5
2BD4
  8
0
 10
59.5540566028249998
 20
82.1917195074861127
 30
0.0
  0
VERTEX
  5
2BD5
  8
0
 10
59.561984293385251
 20
82.1104845475872338
 30
0.0
  0
VERTEX
  5
2BD6
  8
0
 10
59.5645953022290726
 20
82.0554064678614452
 30
0.0
  0
VERTEX
  5
2BD7
  8
0
 10
59.5648429338917467
 20
82.0352481850596291
 30
0.0
  0
SEQEND
  5
2BD8
  8
0
  0
POLYLINE
  5
2788
  8
0
 66
     1
 10
0.0
 20
0.0
 30
0.0
  0
VERTEX
  5
2BD9
  8
0
 10
59.5179483421863722
 20
82.3842024012019749
 30
0.0
  0
VERTEX
  5
2BDA
  8
0
 10
59.3890029923925908
 20
82.7985780618173663
 30
0.0
  0
VERTEX
  5
2BDB
  8
0
 10
59.2374950527597193
 20
83.1794455339675096
 30
0.0
  0
VERTEX
  5
2BDC
  8
0
 10
59.1148091579710524
 20
83.4664305511601867
 30
0.0
  0
VERTEX
  5
2BDD
  8
0
 10
59.0709800190439296
 20
83.5863454129316494
 30
0.0
  0
VERTEX
  5
2BDE
  8
0
 10
59.0497570317065197
 20
83.6826460344478562
 30
0.0
  0
VERTEX
  5
2BDF
  8
0
 10
59.0490017846748501
 20
83.6990401739210057
 30
0.0
  0
SEQEND
  5
2BE0
  8
0
  0
POLYLINE
  5
2789
  8
0
 66
     1
 10
0.0
 20
0.0
 30
0.0
  0
VERTEX
  5
2BE1
  8
0
 10
60.4457496529250307
 20
81.9525562890667629
 30
0.0
  0
VERTEX
  5
2BE2
  8
0
 10
60.4440134528466615
 20
81.9534590096874069
 30
0.0
  0
VERTEX
  5
2BE3
  8
0
 10
60.4416238284576366
 20
81.9568702155781352
 30
0.0
  0
VERTEX
  5
2BE4
  8
0
 10
60.4375193611659185
 20
81.9662704878987824
 30
0.0
  0
VERTEX
  5
2BE5
  8
0
 10
60.4224920981836178
 20
82.0165299175860554
 30
0.0
  0
VERTEX
  5
2BE6
  8
0
 10
60.3667560143086632
 20
82.2295415220899741
 30
0.0
  0
VERTEX
  5
2BE7
  8
0
 10
60.323353002315649
 20
82.3842024012269576
 30
0.0
  0
SEQEND
  5
2BE8
  8
0
  0
LINE
  5
278A
  8
0
 10
60.4772688240851508
 20
81.9525562879645406
 30
0.0
 11
60.4457496529250307
 21
81.9525562890667629
 31
0.0
  0
POLYLINE
  5
278B
  8
0
 66
     1
 10
0.0
 20
0.0
 30
0.0
  0
VERTEX
  5
2BE9
  8
0
 10
60.4163484422650399
 20
82.3842024012020033
 30
0.0
  0
VERTEX
  5
2BEA
  8
0
 10
60.4599052818988696
 20
82.1916426538572296
 30
0.0
  0
VERTEX
  5
2BEB
  8
0
 10
60.4721117878879113
 20
82.1104184195716584
 30
0.0
  0
VERTEX
  5
2BEC
  8
0
 10
60.4781355112008328
 20
82.0553483197179787
 30
0.0
  0
VERTEX
  5
2BED
  8
0
 10
60.480903438787351
 20
82.0182792121223088
 30
0.0
  0
VERTEX
  5
2BEE
  8
0
 10
60.4819129116017891
 20
81.9934604840816377
 30
0.0
  0
VERTEX
  5
2BEF
  8
0
 10
60.4820207523854094
 20
81.9842565451855307
 30
0.0
  0
SEQEND
  5
2BF0
  8
0
  0
POLYLINE
  5
278C
  8
0
 66
     1
 10
0.0
 20
0.0
 30
0.0
  0
VERTEX
  5
2BF1
  8
0
 10
60.4163484422649901
 20
82.3842024012020033
 30
0.0
  0
VERTEX
  5
2BF2
  8
0
 10
60.2704851733413705
 20
82.7983821647266751
 30
0.0
  0
VERTEX
  5
2BF3
  8
0
 10
60.0875338840076196
 20
83.1790966256424156
 30
0.0
  0
VERTEX
  5
2BF4
  8
0
 10
59.9201611765274365
 20
83.4662078711521076
 30
0.0
  0
VERTEX
  5
2BF5
  8
0
 10
59.8463028322202106
 20
83.586186247896876
 30
0.0
  0
VERTEX
  5
2BF6
  8
0
 10
59.790357670489243
 20
83.6825464013385982
 30
0.0
  0
VERTEX
  5
2BF7
  8
0
 10
59.7596236080746905
 20
83.7646668779698871
 30
0.0
  0
SEQEND
  5
2BF8
  8
0
  0
POLYLINE
  5
278D
  8
0
 66
     1
 10
0.0
 20
0.0
 30
0.0
  0
VERTEX
  5
2BF9
  8
0
 10
60.9342924153125978
 20
81.9525562890667345
 30
0.0
  0
VERTEX
  5
2BFA
  8
0
 10
60.9335983504976397
 20
81.9534630422432429
 30
0.0
  0
VERTEX
  5
2BFB
  8
0
 10
60.932431806305722
 20
81.9568818351018535
 30
0.0
  0
VERTEX
  5
2BFC
  8
0
 10
60.9300670471168004
 20
81.9663037232509737
 30
0.0
  0
VERTEX
  5
2BFD
  8
0
 10
60.9194774154445327
 20
82.0167316656612257
 30
0.0
  0
VERTEX
  5
2BFE
  8
0
 10
60.8708086264704988
 20
82.2304174996950508
 30
0.0
  0
VERTEX
  5
2BFF
  8
0
 10
60.8280473819368623
 20
82.3842024012254512
 30
0.0
  0
SEQEND
  5
2C00
  8
0
  0
LINE
  5
278E
  8
0
 10
60.9449541284403367
 20
81.9525562882540726
 30
0.0
 11
60.9342924153125978
 21
81.9525562890667345
 31
0.0
  0
POLYLINE
  5
278F
  8
0
 66
     1
 10
0.0
 20
0.0
 30
0.0
  0
VERTEX
  5
2C01
  8
0
 10
60.8595041322313719
 20
82.3842024012019749
 30
0.0
  0
VERTEX
  5
2C02
  8
0
 10
60.908604111489872
 20
82.1916062939262702
 30
0.0
  0
VERTEX
  5
2C03
  8
0
 10
60.9245586870145814
 20
82.1103875166140256
 30
0.0
  0
VERTEX
  5
2C04
  8
0
 10
60.9337337123646989
 20
82.0553214591793108
 30
0.0
  0
VERTEX
  5
2C05
  8
0
 10
60.9390797842291079
 20
82.0182561181801759
 30
0.0
  0
VERTEX
  5
2C06
  8
0
 10
60.9421998280274408
 20
81.9934410417982917
 30
0.0
  0
VERTEX
  5
2C07
  8
0
 10
60.9439870806911586
 20
81.9769256659734538
 30
0.0
  0
VERTEX
  5
2C08
  8
0
 10
60.9452641138549112
 20
81.9613970230728626
 30
0.0
  0
VERTEX
  5
2C09
  8
0
 10
60.9454538782313477
 20
81.9562168655094752
 30
0.0
  0
VERTEX
  5
2C0A
  8
0
 10
60.9452992703369603
 20
81.9532281891736147
 30
0.0
  0
VERTEX
  5
2C0B
  8
0
 10
60.9449541284403367
 20
81.9525562882540726
 30
0.0
  0
SEQEND
  5
2C0C
  8
0
  0
POLYLINE
  5
2790
  8
0
 66
     1
 10
0.0
 20
0.0
 30
0.0
  0
VERTEX
  5
2C0D
  8
0
 10
60.8595041322313719
 20
82.3842024012019749
 30
0.0
  0
VERTEX
  5
2C0E
  8
0
 10
60.7066133261615377
 20
82.791757609529526
 30
0.0
  0
VERTEX
  5
2C0F
  8
0
 10
60.4961408996504701
 20
83.1797404768813919
 30
0.0
  0
VERTEX
  5
2C10
  8
0
 10
60.2915368378178869
 20
83.4666188118865477
 30
0.0
  0
VERTEX
  5
2C11
  8
0
 10
60.1928498939962182
 20
83.5844671634946508
 30
0.0
  0
VERTEX
  5
2C12
  8
0
 10
60.1028888750858528
 20
83.6827302852550474
 30
0.0
  0
VERTEX
  5
2C13
  8
0
 10
60.021720599654877
 20
83.7647959143709784
 30
0.0
  0
VERTEX
  5
2C14
  8
0
 10
60.0000000000005613
 20
83.7857789469428553
 30
0.0
  0
SEQEND
  5
2C15
  8
0
  0
ARC
  5
2791
  8
0
 10
41.9689952128836907
 20
81.5223616518692467
 30
0.0
 40
2.999999999999992
 50
114.6032103784229008
 51
131.1700259953285865
  0
ARC
  5
2792
  8
0
 10
58.0310047871162382
 20
81.5223616518692467
 30
0.0
 40
2.9999999999999818
 50
48.8309758711960313
 51
65.3967896215770708
  0
POLYLINE
  5
2793
  8
0
 66
     1
 10
0.0
 20
0.0
 30
0.0
  0
VERTEX
  5
2C16
  8
0
 10
39.9999999988572483
 20
83.7857789458499269
 30
0.0
  0
VERTEX
  5
2C17
  8
0
 10
39.9985758230396584
 20
83.7844152865577882
 30
0.0
  0
VERTEX
  5
2C18
  8
0
 10
39.9567204282116109
 20
83.7435703912936873
 30
0.0
  0
VERTEX
  5
2C19
  8
0
 10
39.8650732596763078
 20
83.648661362257414
 30
0.0
  0
VERTEX
  5
2C1A
  8
0
 10
39.7291727114748028
 20
83.4923015081224662
 30
0.0
  0
VERTEX
  5
2C1B
  8
0
 10
39.6118926355632368
 20
83.3393427413484176
 30
0.0
  0
VERTEX
  5
2C1C
  8
0
 10
39.4934461492422599
 20
83.1632214106568313
 30
0.0
  0
VERTEX
  5
2C1D
  8
0
 10
39.3296112221397109
 20
82.8684158618121955
 30
0.0
  0
VERTEX
  5
2C1E
  8
0
 10
39.1926207165314793
 20
82.5435919664379867
 30
0.0
  0
VERTEX
  5
2C1F
  8
0
 10
39.1404958677749235
 20
82.3842024012233765
 30
0.0
  0
SEQEND
  5
2C20
  8
0
  0
LINE
  5
2794
  8
3
 10
52.0094999999999672
 20
53.0
 30
0.0
 11
52.0094999999999672
 21
73.0
 31
0.0
  0
LINE
  5
2797
  8
3
 10
47.9904999999999617
 20
53.0
 30
0.0
 11
47.9904999999999617
 21
73.0
 31
0.0
  0
POLYLINE
  5
27F9
  8
0
 66
     1
 10
0.0
 20
0.0
 30
0.0
  0
VERTEX
  5
2C21
  8
0
 10
91.896241488076754
 20
154.7644859290259092
 30
0.0
  0
VERTEX
  5
2C22
  8
0
 10
92.2506052881242482
 20
155.2158246328660027
 30
0.0
  0
VERTEX
  5
2C23
  8
0
 10
92.5714680439552637
 20
155.6825031027487967
 30
0.0
  0
VERTEX
  5
2C24
  8
0
 10
92.8582460439677675
 20
156.1605074944365015
 30
0.0
  0
VERTEX
  5
2C25
  8
0
 10
93.1103555765596838
 20
156.6458239636912992
 30
0.0
  0
VERTEX
  5
2C26
  8
0
 10
93.363355408566207
 20
157.2226851377490107
 30
0.0
  0
VERTEX
  5
2C27
  8
0
 10
93.5730792186389237
 20
157.8086794260017882
 30
0.0
  0
VERTEX
  5
2C28
  8
0
 10
93.7402007726032878
 20
158.4010333627390992
 30
0.0
  0
VERTEX
  5
2C29
  8
0
 10
93.865393836284639
 20
158.9969734822497003
 30
0.0
  0
VERTEX
  5
2C2A
  8
0
 10
93.949332175508431
 20
159.5937263188226041
 30
0.0
  0
VERTEX
  5
2C2B
  8
0
 10
93.9869066614855342
 20
160.0620872673154906
 30
0.0
  0
VERTEX
  5
2C2C
  8
0
 10
93.9999849999811943
 20
160.5309474121795859
 30
0.0
  0
VERTEX
  5
2C2D
  8
0
 10
93.9999999999999432
 20
160.5473790923246895
 30
0.0
  0
SEQEND
  5
2C2E
  8
0
  0
POLYLINE
  5
27FA
  8
0
 66
     1
 10
0.0
 20
0.0
 30
0.0
  0
VERTEX
  5
2C2F
  8
0
 10
93.9999999999999432
 20
160.5473790923246895
 30
0.0
  0
VERTEX
  5
2C30
  8
0
 10
93.9999849999811943
 20
160.5638107724699069
 30
0.0
  0
VERTEX
  5
2C31
  8
0
 10
93.9869066614855342
 20
161.0326709173340021
 30
0.0
  0
VERTEX
  5
2C32
  8
0
 10
93.949332175508431
 20
161.5010318658268886
 30
0.0
  0
VERTEX
  5
2C33
  8
0
 10
93.865393836284639
 20
162.0977847023999061
 30
0.0
  0
VERTEX
  5
2C34
  8
0
 10
93.7402007726032878
 20
162.6937248219103935
 30
0.0
  0
VERTEX
  5
2C35
  8
0
 10
93.5730792186389522
 20
163.2860787586477045
 30
0.0
  0
VERTEX
  5
2C36
  8
0
 10
93.363355408566207
 20
163.8720730469005105
 30
0.0
  0
VERTEX
  5
2C37
  8
0
 10
93.1103555765596838
 20
164.4489342209581935
 30
0.0
  0
VERTEX
  5
2C38
  8
0
 10
92.8582460439677675
 20
164.9342506902129912
 30
0.0
  0
VERTEX
  5
2C39
  8
0
 10
92.5714680439552637
 20
165.412255081900696
 30
0.0
  0
VERTEX
  5
2C3A
  8
0
 10
92.2506052881242482
 20
165.87893355178349
 30
0.0
  0
VERTEX
  5
2C3B
  8
0
 10
91.896241488076754
 20
166.330272255623612
 30
0.0
  0
SEQEND
  5
2C3C
  8
0
  0
LINE
  5
27FB
  8
0
 10
84.9999999999999432
 20
169.5473790923248032
 30
0.0
 11
41.9999999999999076
 21
169.5473790923248032
 31
0.0
  0
LINE
  5
27FC
  8
0
 10
41.9999999999999076
 20
169.5473790923248032
 30
0.0
 11
41.9999999999999076
 21
164.4473790923248089
 31
0.0
  0
LINE
  5
27FD
  8
0
 10
41.9999999999999076
 20
164.4473790923248089
 30
0.0
 11
57.3599999999999284
 21
164.4473790923248089
 31
0.0
  0
LINE
  5
27FE
  8
0
 10
84.9999999999999432
 20
151.5473790923248032
 30
0.0
 11
41.9999999999999076
 21
151.5473790923248032
 31
0.0
  0
LINE
  5
27FF
  8
0
 10
57.3599999999999284
 20
156.6473790923247975
 30
0.0
 11
41.9999999999999076
 21
156.6473790923247975
 31
0.0
  0
LINE
  5
2800
  8
0
 10
41.9999999999999076
 20
156.6473790923247975
 30
0.0
 11
41.9999999999999076
 21
151.5473790923248032
 31
0.0
  0
POLYLINE
  5
2802
  8
0
 66
     1
 10
0.0
 20
0.0
 30
0.0
  0
VERTEX
  5
2C3D
  8
0
 10
91.896241488076754
 20
166.330272255623612
 30
0.0
  0
VERTEX
  5
2C3E
  8
0
 10
91.3782334560844731
 20
166.8969586743554032
 30
0.0
  0
VERTEX
  5
2C3F
  8
0
 10
90.8156056942080454
 20
167.4160565785294068
 30
0.0
  0
VERTEX
  5
2C40
  8
0
 10
90.1940243951644334
 20
167.8972833214689047
 30
0.0
  0
VERTEX
  5
2C41
  8
0
 10
89.534276052031629
 20
168.3217176933873134
 30
0.0
  0
VERTEX
  5
2C42
  8
0
 10
88.8615888655329798
 20
168.6767859327715939
 30
0.0
  0
VERTEX
  5
2C43
  8
0
 10
88.1619443942586543
 20
168.9736539304495864
 30
0.0
  0
VERTEX
  5
2C44
  8
0
 10
87.41924598865711
 20
169.2160734711987971
 30
0.0
  0
VERTEX
  5
2C45
  8
0
 10
86.6580711835740942
 20
169.3933273145449903
 30
0.0
  0
VERTEX
  5
2C46
  8
0
 10
86.2487972626920225
 20
169.4603149261162969
 30
0.0
  0
VERTEX
  5
2C47
  8
0
 10
85.8366140069200299
 20
169.5084101157854946
 30
0.0
  0
VERTEX
  5
2C48
  8
0
 10
85.4189447065507039
 20
169.5376182509220939
 30
0.0
  0
VERTEX
  5
2C49
  8
0
 10
84.9999999999999432
 20
169.5473790923248032
 30
0.0
  0
SEQEND
  5
2C4A
  8
0
  0
POLYLINE
  5
2804
  8
0
 66
     1
 10
0.0
 20
0.0
 30
0.0
  0
VERTEX
  5
2C4B
  8
0
 10
58.3599999999999284
 20
163.4473790923248089
 30
0.0
  0
VERTEX
  5
2C4C
  8
0
 10
58.3457138415841428
 20
163.6152086093368894
 30
0.0
  0
VERTEX
  5
2C4D
  8
0
 10
58.303656037095287
 20
163.7783070054017003
 30
0.0
  0
VERTEX
  5
2C4E
  8
0
 10
58.2346397218494971
 20
163.9319448268213932
 30
0.0
  0
VERTEX
  5
2C4F
  8
0
 10
58.1409880261864416
 20
164.0719250897928134
 30
0.0
  0
VERTEX
  5
2C50
  8
0
 10
58.0250231735816513
 20
164.1940670365171115
 30
0.0
  0
VERTEX
  5
2C51
  8
0
 10
57.89033500816398
 20
164.2951672611002039
 30
0.0
  0
VERTEX
  5
2C52
  8
0
 10
57.7404703286892413
 20
164.3720634505197893
 30
0.0
  0
VERTEX
  5
2C53
  8
0
 10
57.5798994712840511
 20
164.4229016305210962
 30
0.0
  0
VERTEX
  5
2C54
  8
0
 10
57.3599999999999284
 20
164.4473790923248089
 30
0.0
  0
SEQEND
  5
2C55
  8
0
  0
LINE
  5
2805
  8
0
 10
58.3599999999999284
 20
163.4473790923248089
 30
0.0
 11
58.3599999999999284
 21
157.6473790923247122
 31
0.0
  0
POLYLINE
  5
2806
  8
0
 66
     1
 10
0.0
 20
0.0
 30
0.0
  0
VERTEX
  5
2C56
  8
0
 10
57.3599999999999284
 20
156.6473790923247975
 30
0.0
  0
VERTEX
  5
2C57
  8
0
 10
57.5279047128524894
 20
156.6616780099141977
 30
0.0
  0
VERTEX
  5
2C58
  8
0
 10
57.6910861797386971
 20
156.7037785721967111
 30
0.0
  0
VERTEX
  5
2C59
  8
0
 10
57.8448138406575083
 20
156.772877102447211
 30
0.0
  0
VERTEX
  5
2C5A
  8
0
 10
57.9848760258798919
 20
156.8666550999429887
 30
0.0
  0
VERTEX
  5
2C5B
  8
0
 10
58.1070302588268817
 20
156.9827408752736062
 30
0.0
  0
VERTEX
  5
2C5C
  8
0
 10
58.2081232558316231
 20
157.1175801276999948
 30
0.0
  0
VERTEX
  5
2C5D
  8
0
 10
58.2849360072402973
 20
157.267521588803902
 30
0.0
  0
VERTEX
  5
2C5E
  8
0
 10
58.3356792617379867
 20
157.4281760398498875
 30
0.0
  0
VERTEX
  5
2C5F
  8
0
 10
58.3599999999999284
 20
157.6473790923247122
 30
0.0
  0
SEQEND
  5
2C60
  8
0
  0
POLYLINE
  5
2808
  8
0
 66
     1
 10
0.0
 20
0.0
 30
0.0
  0
VERTEX
  5
2C61
  8
0
 10
84.9999999999999432
 20
151.5473790923248032
 30
0.0
  0
VERTEX
  5
2C62
  8
0
 10
85.7710322423178582
 20
151.5805212657857908
 30
0.0
  0
VERTEX
  5
2C63
  8
0
 10
86.5353198764313163
 20
151.679301911952706
 30
0.0
  0
VERTEX
  5
2C64
  8
0
 10
87.3092842246430223
 20
151.8487491620116998
 30
0.0
  0
VERTEX
  5
2C65
  8
0
 10
88.0650480129469599
 20
152.0853769250873881
 30
0.0
  0
VERTEX
  5
2C66
  8
0
 10
88.7767497032514257
 20
152.37821504839971
 30
0.0
  0
VERTEX
  5
2C67
  8
0
 10
89.4613846431670368
 20
152.7309830515837064
 30
0.0
  0
VERTEX
  5
2C68
  8
0
 10
89.9128574493335861
 20
153.0066238696196024
 30
0.0
  0
VERTEX
  5
2C69
  8
0
 10
90.3482543470442039
 20
153.3089169291754956
 30
0.0
  0
VERTEX
  5
2C6A
  8
0
 10
90.7653949459974854
 20
153.6365020773095011
 30
0.0
  0
VERTEX
  5
2C6B
  8
0
 10
91.0648213475726038
 20
153.8977270234674108
 30
0.0
  0
VERTEX
  5
2C6C
  8
0
 10
91.3528308311240949
 20
154.1723072942099861
 30
0.0
  0
VERTEX
  5
2C6D
  8
0
 10
91.6309242809150248
 20
154.4620879643119906
 30
0.0
  0
VERTEX
  5
2C6E
  8
0
 10
91.896241488076754
 20
154.7644859290259092
 30
0.0
  0
SEQEND
  5
2C6F
  8
0
  0
LINE
  5
2884
  8
1
 10
49.9999999999999432
 20
174.5473790923248032
 30
0.0
 11
49.9999999999999432
 21
146.5473790923248032
 31
0.0
  0
LINE
  5
2885
  8
1
 10
35.9999999999999432
 20
160.5473790923246895
 30
0.0
 11
96.9999999999999716
 21
160.5473790923246895
 31
0.0
  0
POLYLINE
  5
2886
  8
0
 66
     1
 10
0.0
 20
0.0
 30
0.0
  0
VERTEX
  5
2C70
  8
0
 10
50.0509991146895672
 20
171.5472608685213061
 30
0.0
  0
VERTEX
  5
2C71
  8
0
 10
50.0514442532688903
 20
171.5472578137585913
 30
0.0
  0
VERTEX
  5
2C72
  8
0
 10
50.0564578820840111
 20
171.5470864134601925
 30
0.0
  0
VERTEX
  5
2C73
  8
0
 10
50.0646964139385204
 20
171.546254201412296
 30
0.0
  0
VERTEX
  5
2C74
  8
0
 10
50.071071993080011
 20
171.5451304800239996
 30
0.0
  0
VERTEX
  5
2C75
  8
0
 10
50.0821906771342569
 20
171.5421194506751021
 30
0.0
  0
VERTEX
  5
2C76
  8
0
 10
50.0915127437816565
 20
171.5384806997481917
 30
0.0
  0
VERTEX
  5
2C77
  8
0
 10
50.1342486264035188
 20
171.501962074296614
 30
0.0
  0
VERTEX
  5
2C78
  8
0
 10
50.1504697826367973
 20
171.4508853978030061
 30
0.0
  0
SEQEND
  5
2C79
  8
0
  0
ARC
  5
2887
  8
0
 10
49.9999999945811666
 20
160.5473814297326101
 30
0.0
 40
10.9999976626423805
 50
89.7343595063320549
 51
90.2656402528803739
  0
POLYLINE
  5
2888
  8
0
 66
     1
 10
0.0
 20
0.0
 30
0.0
  0
VERTEX
  5
2C7A
  8
0
 10
49.8495302173630819
 20
171.4508853978030061
 30
0.0
  0
VERTEX
  5
2C7B
  8
0
 10
49.8657513735963605
 20
171.501962074296614
 30
0.0
  0
VERTEX
  5
2C7C
  8
0
 10
49.9084872562182227
 20
171.5384806997481917
 30
0.0
  0
VERTEX
  5
2C7D
  8
0
 10
49.9178093228656223
 20
171.5421194506751021
 30
0.0
  0
VERTEX
  5
2C7E
  8
0
 10
49.9289280069198966
 20
171.5451304800239996
 30
0.0
  0
VERTEX
  5
2C7F
  8
0
 10
49.9353035860613588
 20
171.546254201412296
 30
0.0
  0
VERTEX
  5
2C80
  8
0
 10
49.9435421179158467
 20
171.5470864134601925
 30
0.0
  0
VERTEX
  5
2C81
  8
0
 10
49.9485557467309604
 20
171.5472578137585913
 30
0.0
  0
VERTEX
  5
2C82
  8
0
 10
49.949000920699973
 20
171.5472608687356058
 30
0.0
  0
SEQEND
  5
2C83
  8
0
  0
POLYLINE
  5
2889
  8
0
 66
     1
 10
0.0
 20
0.0
 30
0.0
  0
VERTEX
  5
2C84
  8
0
 10
49.8495302173630819
 20
171.4508853978030061
 30
0.0
  0
VERTEX
  5
2C85
  8
0
 10
49.8413692918518905
 20
171.3514779498244991
 30
0.0
  0
VERTEX
  5
2C86
  8
0
 10
49.8157831222177876
 20
171.2252725856417044
 30
0.0
  0
VERTEX
  5
2C87
  8
0
 10
49.7619075173770327
 20
171.0763091293891875
 30
0.0
  0
VERTEX
  5
2C88
  8
0
 10
49.7050846878387276
 20
170.96830993127341
 30
0.0
  0
VERTEX
  5
2C89
  8
0
 10
49.6261216664955214
 20
170.8563067801009083
 30
0.0
  0
VERTEX
  5
2C8A
  8
0
 10
49.5191153017684869
 20
170.7439568979058038
 30
0.0
  0
VERTEX
  5
2C8B
  8
0
 10
49.3833436187081531
 20
170.6411034417604071
 30
0.0
  0
VERTEX
  5
2C8C
  8
0
 10
49.2763515098116613
 20
170.5825546779695117
 30
0.0
  0
VERTEX
  5
2C8D
  8
0
 10
49.1585982358036233
 20
170.5358668465322012
 30
0.0
  0
VERTEX
  5
2C8E
  8
0
 10
49.032181881511967
 20
170.5039253599018139
 30
0.0
  0
VERTEX
  5
2C8F
  8
0
 10
48.9015060856154378
 20
170.4884376387369116
 30
0.0
  0
VERTEX
  5
2C90
  8
0
 10
48.7794842989367723
 20
170.4896953254726952
 30
0.0
  0
VERTEX
  5
2C91
  8
0
 10
48.6607754065731513
 20
170.5052221439337927
 30
0.0
  0
VERTEX
  5
2C92
  8
0
 10
48.5468788640856417
 20
170.5342784101956113
 30
0.0
  0
VERTEX
  5
2C93
  8
0
 10
48.4417127902723266
 20
170.5743500369810022
 30
0.0
  0
VERTEX
  5
2C94
  8
0
 10
48.3371163823404686
 20
170.6288052915726041
 30
0.0
  0
VERTEX
  5
2C95
  8
0
 10
48.2458240808123335
 20
170.6904107234792889
 30
0.0
  0
VERTEX
  5
2C96
  8
0
 10
48.1262489223563179
 20
170.7972418526389902
 30
0.0
  0
VERTEX
  5
2C97
  8
0
 10
48.0367534261435196
 20
170.9054619860347088
 30
0.0
  0
VERTEX
  5
2C98
  8
0
 10
47.9447216978985793
 20
171.0621640756995134
 30
0.0
  0
VERTEX
  5
2C99
  8
0
 10
47.8944229930507603
 20
171.1929850294382902
 30
0.0
  0
VERTEX
  5
2C9A
  8
0
 10
47.8802152250550535
 20
171.2439020515392087
 30
0.0
  0
SEQEND
  5
2C9B
  8
0
  0
POLYLINE
  5
288A
  8
0
 66
     1
 10
0.0
 20
0.0
 30
0.0
  0
VERTEX
  5
2C9C
  8
0
 10
47.7628806462620332
 20
171.3174903729536993
 30
0.0
  0
VERTEX
  5
2C9D
  8
0
 10
47.7679467885971292
 20
171.3184073254313091
 30
0.0
  0
VERTEX
  5
2C9E
  8
0
 10
47.7740275482510626
 20
171.3191570397023042
 30
0.0
  0
VERTEX
  5
2C9F
  8
0
 10
47.782977090490327
 20
171.3195799722305139
 30
0.0
  0
VERTEX
  5
2CA0
  8
0
 10
47.8077812842006082
 20
171.3165165709116877
 30
0.0
  0
VERTEX
  5
2CA1
  8
0
 10
47.839345525497059
 20
171.3028406894077875
 30
0.0
  0
VERTEX
  5
2CA2
  8
0
 10
47.8608267695805409
 20
171.2826428327192048
 30
0.0
  0
VERTEX
  5
2CA3
  8
0
 10
47.8802152250550535
 20
171.2439020515392087
 30
0.0
  0
SEQEND
  5
2CA4
  8
0
  0
ARC
  5
288B
  8
0
 10
50.0000014566829805
 20
160.5473722391691922
 30
0.0
 40
11.0000070061838198
 50
101.734359741719004
 51
102.2656400554645018
  0
POLYLINE
  5
288C
  8
0
 66
     1
 10
0.0
 20
0.0
 30
0.0
  0
VERTEX
  5
2CA5
  8
0
 10
47.5858519113166665
 20
171.181333197689213
 30
0.0
  0
VERTEX
  5
2CA6
  8
0
 10
47.591098177678191
 20
171.2346637612029099
 30
0.0
  0
VERTEX
  5
2CA7
  8
0
 10
47.6017283748245177
 20
171.2548932476559003
 30
0.0
  0
VERTEX
  5
2CA8
  8
0
 10
47.6123974507305192
 20
171.2680070372782097
 30
0.0
  0
VERTEX
  5
2CA9
  8
0
 10
47.6220089618909128
 20
171.2767512997307904
 30
0.0
  0
VERTEX
  5
2CAA
  8
0
 10
47.6303910952730689
 20
171.2827555788362019
 30
0.0
  0
VERTEX
  5
2CAB
  8
0
 10
47.6376718096577818
 20
171.2870006271002978
 30
0.0
  0
VERTEX
  5
2CAC
  8
0
 10
47.6476425963292627
 20
171.2915833256002998
 30
0.0
  0
VERTEX
  5
2CAD
  8
0
 10
47.6531028551578331
 20
171.2935572486584874
 30
0.0
  0
VERTEX
  5
2CAE
  8
0
 10
47.658797203727012
 20
171.2952450746919055
 30
0.0
  0
VERTEX
  5
2CAF
  8
0
 10
47.6631113540246574
 20
171.2962837554200917
 30
0.0
  0
SEQEND
  5
2CB0
  8
0
  0
POLYLINE
  5
288D
  8
0
 66
     1
 10
0.0
 20
0.0
 30
0.0
  0
VERTEX
  5
2CB1
  8
0
 10
47.5858519113166665
 20
171.181333197689213
 30
0.0
  0
VERTEX
  5
2CB2
  8
0
 10
47.5985372224731975
 20
171.082402078297406
 30
0.0
  0
VERTEX
  5
2CB3
  8
0
 10
47.5997499087609128
 20
170.9536361374609044
 30
0.0
  0
VERTEX
  5
2CB4
  8
0
 10
47.5780235284885293
 20
170.7967280603201061
 30
0.0
  0
VERTEX
  5
2CB5
  8
0
 10
47.5448971379171894
 20
170.6792746637570133
 30
0.0
  0
VERTEX
  5
2CB6
  8
0
 10
47.4909468339673992
 20
170.5533014542781984
 30
0.0
  0
VERTEX
  5
2CB7
  8
0
 10
47.4096380253782215
 20
170.4211583691958936
 30
0.0
  0
VERTEX
  5
2CB8
  8
0
 10
47.2982179150009188
 20
170.2923233888967047
 30
0.0
  0
VERTEX
  5
2CB9
  8
0
 10
47.2057370412207575
 20
170.2128088559942114
 30
0.0
  0
VERTEX
  5
2CBA
  8
0
 10
47.1002640623537729
 20
170.1426586346987051
 30
0.0
  0
VERTEX
  5
2CBB
  8
0
 10
46.9832512760280778
 20
170.085131317361089
 30
0.0
  0
VERTEX
  5
2CBC
  8
0
 10
46.8586510975797523
 20
170.0428126183921052
 30
0.0
  0
VERTEX
  5
2CBD
  8
0
 10
46.7390342762395719
 20
170.0186727359910037
 30
0.0
  0
VERTEX
  5
2CBE
  8
0
 10
46.6196911640043581
 20
170.0091789788203869
 30
0.0
  0
VERTEX
  5
2CBF
  8
0
 10
46.5022423659312878
 20
170.0139195848798863
 30
0.0
  0
VERTEX
  5
2CC0
  8
0
 10
46.3910429749227831
 20
170.0312500310348867
 30
0.0
  0
VERTEX
  5
2CC1
  8
0
 10
46.2774103146336984
 20
170.0627682098200921
 30
0.0
  0
VERTEX
  5
2CC2
  8
0
 10
46.1753043734826676
 20
170.1040464323353945
 30
0.0
  0
VERTEX
  5
2CC3
  8
0
 10
46.0361307602859426
 20
170.183681515213209
 30
0.0
  0
VERTEX
  5
2CC4
  8
0
 10
45.9260905647935473
 20
170.2709292628871935
 30
0.0
  0
VERTEX
  5
2CC5
  8
0
 10
45.8034894376734982
 20
170.405072166961105
 30
0.0
  0
VERTEX
  5
2CC6
  8
0
 10
45.7270902370960926
 20
170.5225766506034972
 30
0.0
  0
VERTEX
  5
2CC7
  8
0
 10
45.7026054339942718
 20
170.5694293243460038
 30
0.0
  0
SEQEND
  5
2CC8
  8
0
  0
POLYLINE
  5
288E
  8
0
 66
     1
 10
0.0
 20
0.0
 30
0.0
  0
VERTEX
  5
2CC9
  8
0
 10
45.5725350249350285
 20
170.6170143337112961
 30
0.0
  0
VERTEX
  5
2CCA
  8
0
 10
45.5772834465034506
 20
170.6189583446137874
 30
0.0
  0
VERTEX
  5
2CCB
  8
0
 10
45.583069620246647
 20
170.6209552448615909
 30
0.0
  0
VERTEX
  5
2CCC
  8
0
 10
45.5917206782741502
 20
170.6232285512917031
 30
0.0
  0
VERTEX
  5
2CCD
  8
0
 10
45.616538792536943
 20
170.62540168764599
 30
0.0
  0
VERTEX
  5
2CCE
  8
0
 10
45.6501526813164773
 20
170.6186695777489035
 30
0.0
  0
VERTEX
  5
2CCF
  8
0
 10
45.6753009089288682
 20
170.6035216512487125
 30
0.0
  0
VERTEX
  5
2CD0
  8
0
 10
45.7026054339942718
 20
170.5694293243460038
 30
0.0
  0
SEQEND
  5
2CD1
  8
0
  0
ARC
  5
288F
  8
0
 10
49.9999978861263514
 20
160.5473838401628086
 30
0.0
 40
10.9999948029001597
 50
113.7343594470197985
 51
114.2656403501667057
  0
POLYLINE
  5
2890
  8
0
 66
     1
 10
0.0
 20
0.0
 30
0.0
  0
VERTEX
  5
2CD2
  8
0
 10
45.4276834611135314
 20
170.447026175797788
 30
0.0
  0
VERTEX
  5
2CD3
  8
0
 10
45.4217251883820197
 20
170.5002706340908958
 30
0.0
  0
VERTEX
  5
2CD4
  8
0
 10
45.4279147066840423
 20
170.5222692062648946
 30
0.0
  0
VERTEX
  5
2CD5
  8
0
 10
45.4356222071334273
 20
170.5373151726861067
 30
0.0
  0
VERTEX
  5
2CD6
  8
0
 10
45.4432040490870506
 20
170.5478671434862008
 30
0.0
  0
VERTEX
  5
2CD7
  8
0
 10
45.4501532808481485
 20
170.5554833814126994
 30
0.0
  0
VERTEX
  5
2CD8
  8
0
 10
45.4563910643939835
 20
170.561149795810195
 30
0.0
  0
VERTEX
  5
2CD9
  8
0
 10
45.465186045336587
 20
170.5677037796882871
 30
0.0
  0
VERTEX
  5
2CDA
  8
0
 10
45.4701155655843934
 20
170.570770478875005
 30
0.0
  0
VERTEX
  5
2CDB
  8
0
 10
45.4753394710812984
 20
170.573609100278702
 30
0.0
  0
VERTEX
  5
2CDC
  8
0
 10
45.4793550348141125
 20
170.5755279294102991
 30
0.0
  0
SEQEND
  5
2CDD
  8
0
  0
POLYLINE
  5
2891
  8
0
 66
     1
 10
0.0
 20
0.0
 30
0.0
  0
VERTEX
  5
2CDE
  8
0
 10
45.4276834611135314
 20
170.447026175797788
 30
0.0
  0
VERTEX
  5
2CDF
  8
0
 10
45.4606595017860116
 20
170.3528976315865009
 30
0.0
  0
VERTEX
  5
2CE0
  8
0
 10
45.4886172593454319
 20
170.227202868986609
 30
0.0
  0
VERTEX
  5
2CE1
  8
0
 10
45.499990120941419
 20
170.0692135345802001
 30
0.0
  0
VERTEX
  5
2CE2
  8
0
 10
45.4920094601415315
 20
169.9474393344736995
 30
0.0
  0
VERTEX
  5
2CE3
  8
0
 10
45.4654314151420067
 20
169.8130013210152072
 30
0.0
  0
VERTEX
  5
2CE4
  8
0
 10
45.4133753930441912
 20
169.6668392767340094
 30
0.0
  0
VERTEX
  5
2CE5
  8
0
 10
45.3501459508066986
 20
169.5471114208372114
 30
0.0
  0
SEQEND
  5
2CE6
  8
0
  0
POLYLINE
  5
2892
  8
0
 66
     1
 10
0.0
 20
0.0
 30
0.0
  0
VERTEX
  5
2CE7
  8
0
 10
41.8596198480783528
 20
167.9456363859177088
 30
0.0
  0
VERTEX
  5
2CE8
  8
0
 10
41.8631224445043131
 20
167.9492993746586933
 30
0.0
  0
VERTEX
  5
2CE9
  8
0
 10
41.8675781489364525
 20
167.9534663620156039
 30
0.0
  0
VERTEX
  5
2CEA
  8
0
 10
41.8745094130103084
 20
167.9590364686029886
 30
0.0
  0
VERTEX
  5
2CEB
  8
0
 10
41.8960169557838924
 20
167.9710388735109916
 30
0.0
  0
VERTEX
  5
2CEC
  8
0
 10
41.9290068939982916
 20
167.9786748322723042
 30
0.0
  0
VERTEX
  5
2CED
  8
0
 10
41.9577316277754377
 20
167.9754299106594999
 30
0.0
  0
VERTEX
  5
2CEE
  8
0
 10
41.9977996464181231
 20
167.9550697183044008
 30
0.0
  0
SEQEND
  5
2CEF
  8
0
  0
ARC
  5
2893
  8
0
 10
49.9999847423031625
 20
160.5473928304164986
 30
0.0
 40
10.99997946896457
 50
137.7343590767139858
 51
138.2656407204696052
  0
POLYLINE
  5
2894
  8
0
 66
     1
 10
0.0
 20
0.0
 30
0.0
  0
VERTEX
  5
2CF0
  8
0
 10
41.7964317726291483
 20
167.7314280375898079
 30
0.0
  0
VERTEX
  5
2CF1
  8
0
 10
41.7693468687180882
 20
167.7775903523497902
 30
0.0
  0
VERTEX
  5
2CF2
  8
0
 10
41.7660404773169986
 20
167.8002090009730125
 30
0.0
  0
VERTEX
  5
2CF3
  8
0
 10
41.7669535395821114
 20
167.8170915196390922
 30
0.0
  0
VERTEX
  5
2CF4
  8
0
 10
41.769581867980861
 20
167.8298166498024955
 30
0.0
  0
VERTEX
  5
2CF5
  8
0
 10
41.7728275549123609
 20
167.8396020584031874
 30
0.0
  0
VERTEX
  5
2CF6
  8
0
 10
41.7762170322203019
 20
167.8473164022998958
 30
0.0
  0
VERTEX
  5
2CF7
  8
0
 10
41.7815719458167365
 20
167.8568693124838092
 30
0.0
  0
VERTEX
  5
2CF8
  8
0
 10
41.7848239876551588
 20
167.8616770901583948
 30
0.0
  0
VERTEX
  5
2CF9
  8
0
 10
41.7892034379606727
 20
167.8673258818120928
 30
0.0
  0
VERTEX
  5
2CFA
  8
0
 10
41.7913697321788788
 20
167.8698369533310029
 30
0.0
  0
SEQEND
  5
2CFB
  8
0
  0
POLYLINE
  5
2895
  8
0
 66
     1
 10
0.0
 20
0.0
 30
0.0
  0
VERTEX
  5
2CFC
  8
0
 10
42.0014969476131625
 20
166.5785418533322968
 30
0.0
  0
VERTEX
  5
2CFD
  8
0
 10
41.9532918816470612
 20
166.4904524266241026
 30
0.0
  0
VERTEX
  5
2CFE
  8
0
 10
41.8773683353886099
 20
166.3829677367760098
 30
0.0
  0
VERTEX
  5
2CFF
  8
0
 10
41.794790620344088
 20
166.2931211442557924
 30
0.0
  0
VERTEX
  5
2D00
  8
0
 10
41.7038235697652269
 20
166.2152836242991896
 30
0.0
  0
VERTEX
  5
2D01
  8
0
 10
41.6060232350024819
 20
166.1500768822415068
 30
0.0
  0
VERTEX
  5
2D02
  8
0
 10
41.5058768700743883
 20
166.09872844954279
 30
0.0
  0
VERTEX
  5
2D03
  8
0
 10
41.3954238140028394
 20
166.0574281020726062
 30
0.0
  0
VERTEX
  5
2D04
  8
0
 10
41.2885573545692566
 20
166.0307989281004097
 30
0.0
  0
VERTEX
  5
2D05
  8
0
 10
41.1291625740334723
 20
166.013409833204804
 30
0.0
  0
VERTEX
  5
2D06
  8
0
 10
40.9888575761024683
 20
166.0193036447230099
 30
0.0
  0
VERTEX
  5
2D07
  8
0
 10
40.810823297981301
 20
166.0557496743120964
 30
0.0
  0
VERTEX
  5
2D08
  8
0
 10
40.6799378747166429
 20
166.105898310332293
 30
0.0
  0
VERTEX
  5
2D09
  8
0
 10
40.6325214404503683
 20
166.1294428993292911
 30
0.0
  0
SEQEND
  5
2D0A
  8
0
  0
POLYLINE
  5
2896
  8
0
 66
     1
 10
0.0
 20
0.0
 30
0.0
  0
VERTEX
  5
2D0B
  8
0
 10
41.7964317726291483
 20
167.7314280375898079
 30
0.0
  0
VERTEX
  5
2D0C
  8
0
 10
41.8648295461304727
 20
167.6588646733341079
 30
0.0
  0
VERTEX
  5
2D0D
  8
0
 10
41.9414808143667912
 20
167.5554346026738131
 30
0.0
  0
VERTEX
  5
2D0E
  8
0
 10
42.0006247118998601
 20
167.4492954419418993
 30
0.0
  0
SEQEND
  5
2D0F
  8
0
  0
POLYLINE
  5
2897
  8
0
 66
     1
 10
0.0
 20
0.0
 30
0.0
  0
VERTEX
  5
2D10
  8
0
 10
40.4993225047426222
 20
166.091486516528505
 30
0.0
  0
VERTEX
  5
2D11
  8
0
 10
40.5020127909748098
 20
166.0958371545349905
 30
0.0
  0
VERTEX
  5
2D12
  8
0
 10
40.5055162950268013
 20
166.1008501384200997
 30
0.0
  0
VERTEX
  5
2D13
  8
0
 10
40.5111686621062574
 20
166.1077655642073978
 30
0.0
  0
VERTEX
  5
2D14
  8
0
 10
40.5299045042887087
 20
166.1240778170351859
 30
0.0
  0
VERTEX
  5
2D15
  8
0
 10
40.5609374440399222
 20
166.1383937968165867
 30
0.0
  0
VERTEX
  5
2D16
  8
0
 10
40.5900663238200465
 20
166.1409897953379868
 30
0.0
  0
VERTEX
  5
2D17
  8
0
 10
40.6325214404503683
 20
166.1294428993292911
 30
0.0
  0
SEQEND
  5
2D18
  8
0
  0
ARC
  5
2898
  8
0
 10
50.0000117653227107
 20
160.5473722996129879
 30
0.0
 40
11.0000135852782908
 50
149.7343598755751088
 51
150.2656398965872029
  0
POLYLINE
  5
2899
  8
0
 66
     1
 10
0.0
 20
0.0
 30
0.0
  0
VERTEX
  5
2D19
  8
0
 10
40.482051657813507
 20
165.8688215907984898
 30
0.0
  0
VERTEX
  5
2D1A
  8
0
 10
40.4459433971749078
 20
165.9083785043812895
 30
0.0
  0
VERTEX
  5
2D1B
  8
0
 10
40.4380157066146566
 20
165.9298152146054122
 30
0.0
  0
VERTEX
  5
2D1C
  8
0
 10
40.4354046977708421
 20
165.9465190061432907
 30
0.0
  0
VERTEX
  5
2D1D
  8
0
 10
40.4353344379241832
 20
165.9595129352836977
 30
0.0
  0
VERTEX
  5
2D1E
  8
0
 10
40.4364784426787978
 20
165.9697597446721034
 30
0.0
  0
VERTEX
  5
2D1F
  8
0
 10
40.4381932102967525
 20
165.9780107379332037
 30
0.0
  0
VERTEX
  5
2D20
  8
0
 10
40.4414534352281407
 20
165.9884793699663135
 30
0.0
  0
VERTEX
  5
2D21
  8
0
 10
40.4436379687498402
 20
165.9938581210734867
 30
0.0
  0
VERTEX
  5
2D22
  8
0
 10
40.4467503632648331
 20
166.0002919983569996
 30
0.0
  0
VERTEX
  5
2D23
  8
0
 10
40.4483234033962731
 20
166.0031534822618937
 30
0.0
  0
SEQEND
  5
2D24
  8
0
  0
POLYLINE
  5
289A
  8
0
 66
     1
 10
0.0
 20
0.0
 30
0.0
  0
VERTEX
  5
2D25
  8
0
 10
40.482051657813507
 20
165.8688215907984898
 30
0.0
  0
VERTEX
  5
2D26
  8
0
 10
40.5640221338679225
 20
165.8120792094088074
 30
0.0
  0
VERTEX
  5
2D27
  8
0
 10
40.6604788357732616
 20
165.7268743701860103
 30
0.0
  0
VERTEX
  5
2D28
  8
0
 10
40.7625049472401884
 20
165.6058276678191135
 30
0.0
  0
VERTEX
  5
2D29
  8
0
 10
40.8276459034303372
 20
165.5026329110098118
 30
0.0
  0
VERTEX
  5
2D2A
  8
0
 10
40.8851908420288623
 20
165.3782557736691956
 30
0.0
  0
VERTEX
  5
2D2B
  8
0
 10
40.929019980955978
 20
165.2294086715656078
 30
0.0
  0
VERTEX
  5
2D2C
  8
0
 10
40.9502429682933879
 20
165.0603848939659031
 30
0.0
  0
VERTEX
  5
2D2D
  8
0
 10
40.9474739769086611
 20
164.9384511597986034
 30
0.0
  0
VERTEX
  5
2D2E
  8
0
 10
40.9290523174302905
 20
164.813122866564413
 30
0.0
  0
VERTEX
  5
2D2F
  8
0
 10
40.8935262992460409
 20
164.68765912949479
 30
0.0
  0
VERTEX
  5
2D30
  8
0
 10
40.8416173789404127
 20
164.5667288004260911
 30
0.0
  0
VERTEX
  5
2D31
  8
0
 10
40.7795315303905284
 20
164.4616695799660135
 30
0.0
  0
VERTEX
  5
2D32
  8
0
 10
40.7067409576285115
 20
164.3666115274301092
 30
0.0
  0
VERTEX
  5
2D33
  8
0
 10
40.6246409740153283
 20
164.2824892596794086
 30
0.0
  0
VERTEX
  5
2D34
  8
0
 10
40.5373631666740835
 20
164.2114338979579884
 30
0.0
  0
VERTEX
  5
2D35
  8
0
 10
40.4379159778779922
 20
164.1480646447973868
 30
0.0
  0
VERTEX
  5
2D36
  8
0
 10
40.3389247574282592
 20
164.0997911354209862
 30
0.0
  0
VERTEX
  5
2D37
  8
0
 10
40.1866385555046577
 20
164.0496322234725142
 30
0.0
  0
VERTEX
  5
2D38
  8
0
 10
40.0481790067177883
 20
164.026215250184805
 30
0.0
  0
VERTEX
  5
2D39
  8
0
 10
39.866460202100491
 20
164.0248340928164055
 30
0.0
  0
VERTEX
  5
2D3A
  8
0
 10
39.7280001651434418
 20
164.0466636759520043
 30
0.0
  0
VERTEX
  5
2D3B
  8
0
 10
39.6766469976842302
 20
164.059853106274204
 30
0.0
  0
SEQEND
  5
2D3C
  8
0
  0
POLYLINE
  5
289B
  8
0
 66
     1
 10
0.0
 20
0.0
 30
0.0
  0
VERTEX
  5
2D3D
  8
0
 10
39.5542503540268271
 20
163.9950325455669997
 30
0.0
  0
VERTEX
  5
2D3E
  8
0
 10
39.555986556992373
 20
163.9998713079380934
 30
0.0
  0
VERTEX
  5
2D3F
  8
0
 10
39.5583761866451198
 20
164.0055101639183022
 30
0.0
  0
VERTEX
  5
2D40
  8
0
 10
39.562480668243289
 20
164.013466981834199
 30
0.0
  0
VERTEX
  5
2D41
  8
0
 10
39.5775080298485875
 20
164.033393740828302
 30
0.0
  0
VERTEX
  5
2D42
  8
0
 10
39.605076690483429
 20
164.0538815948673914
 30
0.0
  0
VERTEX
  5
2D43
  8
0
 10
39.6332445467699301
 20
164.0624072200457135
 30
0.0
  0
VERTEX
  5
2D44
  8
0
 10
39.6766469976842302
 20
164.059853106274204
 30
0.0
  0
SEQEND
  5
2D45
  8
0
  0
ARC
  5
289C
  8
0
 10
49.999992484221913
 20
160.5473815343493129
 30
0.0
 40
10.99999209752818
 50
161.7343593566608888
 51
162.2656404154998029
  0
POLYLINE
  5
289D
  8
0
 66
     1
 10
0.0
 20
0.0
 30
0.0
  0
VERTEX
  5
2D46
  8
0
 10
39.5836515577348393
 20
163.7736425717095869
 30
0.0
  0
VERTEX
  5
2D47
  8
0
 10
39.5400947181010523
 20
163.8048442369351108
 30
0.0
  0
VERTEX
  5
2D48
  8
0
 10
39.5278882121120034
 20
163.8241651778747894
 30
0.0
  0
VERTEX
  5
2D49
  8
0
 10
39.521864488799082
 20
163.8399619576802024
 30
0.0
  0
VERTEX
  5
2D4A
  8
0
 10
39.5190965612125709
 20
163.8526580551053939
 30
0.0
  0
VERTEX
  5
2D4B
  8
0
 10
39.5180870883981186
 20
163.8629194319954934
 30
0.0
  0
VERTEX
  5
2D4C
  8
0
 10
39.5180505876369921
 20
163.8713472698902933
 30
0.0
  0
VERTEX
  5
2D4D
  8
0
 10
39.5190662758030271
 20
163.8822717827987105
 30
0.0
  0
VERTEX
  5
2D4E
  8
0
 10
39.5200864520919311
 20
163.8879874826712921
 30
0.0
  0
VERTEX
  5
2D4F
  8
0
 10
39.5214721263831166
 20
163.8937654681535037
 30
0.0
  0
VERTEX
  5
2D50
  8
0
 10
39.522731175914771
 20
163.898026490642394
 30
0.0
  0
SEQEND
  5
2D51
  8
0
  0
POLYLINE
  5
289E
  8
0
 66
     1
 10
0.0
 20
0.0
 30
0.0
  0
VERTEX
  5
2D52
  8
0
 10
39.5836515577348393
 20
163.7736425717095869
 30
0.0
  0
VERTEX
  5
2D53
  8
0
 10
39.6755771599916898
 20
163.7352065055175103
 30
0.0
  0
VERTEX
  5
2D54
  8
0
 10
39.7875733844820232
 20
163.6719707831157962
 30
0.0
  0
VERTEX
  5
2D55
  8
0
 10
39.9124661159922596
 20
163.5748774090043014
 30
0.0
  0
VERTEX
  5
2D56
  8
0
 10
39.9976609164965282
 20
163.4875036989463979
 30
0.0
  0
VERTEX
  5
2D57
  8
0
 10
40.0798388234724428
 20
163.3778254183272907
 30
0.0
  0
VERTEX
  5
2D58
  8
0
 10
40.153697167779697
 20
163.2413497324644993
 30
0.0
  0
VERTEX
  5
2D59
  8
0
 10
40.2096423295106717
 20
163.0804230206038028
 30
0.0
  0
VERTEX
  5
2D5A
  8
0
 10
40.2323112153119098
 20
162.9605818844312068
 30
0.0
  0
VERTEX
  5
2D5B
  8
0
 10
40.2403763611426015
 20
162.8341595563344981
 30
0.0
  0
VERTEX
  5
2D5C
  8
0
 10
40.231738168702968
 20
162.7040409772473879
 30
0.0
  0
VERTEX
  5
2D5D
  8
0
 10
40.206129322830428
 20
162.5749442517885939
 30
0.0
  0
VERTEX
  5
2D5E
  8
0
 10
40.1672629502132779
 20
162.4592597887587999
 30
0.0
  0
VERTEX
  5
2D5F
  8
0
 10
40.1158427336855468
 20
162.3511285955071912
 30
0.0
  0
VERTEX
  5
2D60
  8
0
 10
40.0530434638445669
 20
162.2517629263180936
 30
0.0
  0
VERTEX
  5
2D61
  8
0
 10
39.9824591644560101
 20
162.1640994348310869
 30
0.0
  0
VERTEX
  5
2D62
  8
0
 10
39.8983758638779875
 20
162.0814255996959901
 30
0.0
  0
VERTEX
  5
2D63
  8
0
 10
39.8115958359733781
 20
162.013610306611497
 30
0.0
  0
VERTEX
  5
2D64
  8
0
 10
39.6730934856079784
 20
161.9328681029062125
 30
0.0
  0
VERTEX
  5
2D65
  8
0
 10
39.5425445078121029
 20
161.881153040272892
 30
0.0
  0
VERTEX
  5
2D66
  8
0
 10
39.3650970449178885
 20
161.8419870769218107
 30
0.0
  0
VERTEX
  5
2D67
  8
0
 10
39.2251104173947169
 20
161.8345242230992085
 30
0.0
  0
VERTEX
  5
2D68
  8
0
 10
39.1719526180630169
 20
161.8367513440892083
 30
0.0
  0
SEQEND
  5
2D69
  8
0
  0
POLYLINE
  5
289F
  8
0
 66
     1
 10
0.0
 20
0.0
 30
0.0
  0
VERTEX
  5
2D6A
  8
0
 10
39.0657075871080792
 20
161.7478995750219894
 30
0.0
  0
VERTEX
  5
2D6B
  8
0
 10
39.0664016538629184
 20
161.7530049131310932
 30
0.0
  0
VERTEX
  5
2D6C
  8
0
 10
39.0675682016634198
 20
161.759020922684897
 30
0.0
  0
VERTEX
  5
2D6D
  8
0
 10
39.0699329710453185
 20
161.7676661159075877
 30
0.0
  0
VERTEX
  5
2D6E
  8
0
 10
39.0805226828301002
 20
161.7903237357469095
 30
0.0
  0
VERTEX
  5
2D6F
  8
0
 10
39.1033103381108802
 20
161.816127777026793
 30
0.0
  0
VERTEX
  5
2D70
  8
0
 10
39.129191906348332
 20
161.8303124111137947
 30
0.0
  0
VERTEX
  5
2D71
  8
0
 10
39.1719526180630169
 20
161.8367513440892083
 30
0.0
  0
SEQEND
  5
2D72
  8
0
  0
ARC
  5
28A0
  8
0
 10
49.9999950033378866
 20
160.5473796174954089
 30
0.0
 40
10.9999949758688906
 50
173.7343594261714088
 51
174.2656403459903913
  0
POLYLINE
  5
28A1
  8
0
 66
     1
 10
0.0
 20
0.0
 30
0.0
  0
VERTEX
  5
2D73
  8
0
 10
39.1404958677685215
 20
161.5374603572419119
 30
0.0
  0
VERTEX
  5
2D74
  8
0
 10
39.0913958885100499
 20
161.5589305426366877
 30
0.0
  0
VERTEX
  5
2D75
  8
0
 10
39.0754413129853404
 20
161.575292223729889
 30
0.0
  0
VERTEX
  5
2D76
  8
0
 10
39.0662662876352229
 20
161.5894920142021078
 30
0.0
  0
VERTEX
  5
2D77
  8
0
 10
39.0609202157707784
 20
161.601335669095505
 30
0.0
  0
VERTEX
  5
2D78
  8
0
 10
39.057800171972481
 20
161.6111633399900995
 30
0.0
  0
VERTEX
  5
2D79
  8
0
 10
39.0560129193087633
 20
161.6193998136085099
 30
0.0
  0
VERTEX
  5
2D7A
  8
0
 10
39.0547358861450107
 20
161.6303000110110872
 30
0.0
  0
VERTEX
  5
2D7B
  8
0
 10
39.054546121768567
 20
161.6361031835999995
 30
0.0
  0
VERTEX
  5
2D7C
  8
0
 10
39.0547007296629474
 20
161.6420390234875128
 30
0.0
  0
VERTEX
  5
2D7D
  8
0
 10
39.055045871559571
 20
161.646460129526389
 30
0.0
  0
SEQEND
  5
2D7E
  8
0
  0
POLYLINE
  5
28A2
  8
0
 66
     1
 10
0.0
 20
0.0
 30
0.0
  0
VERTEX
  5
2D7F
  8
0
 10
39.1404958677685215
 20
161.5374603572419119
 30
0.0
  0
VERTEX
  5
2D80
  8
0
 10
39.2385052062858506
 20
161.5189533444365964
 30
0.0
  0
VERTEX
  5
2D81
  8
0
 10
39.3613440227589706
 20
161.4803156248972869
 30
0.0
  0
VERTEX
  5
2D82
  8
0
 10
39.5038591003494375
 20
161.4111649494647054
 30
0.0
  0
VERTEX
  5
2D83
  8
0
 10
39.6053272163634418
 20
161.3433646508617869
 30
0.0
  0
VERTEX
  5
2D84
  8
0
 10
39.7084631621820279
 20
161.253126885683713
 30
0.0
  0
VERTEX
  5
2D85
  8
0
 10
39.8090127106394505
 20
161.134963082254103
 30
0.0
  0
VERTEX
  5
2D86
  8
0
 10
39.8971111249140407
 20
160.9891840601054867
 30
0.0
  0
VERTEX
  5
2D87
  8
0
 10
39.9441556541514231
 20
160.8766581348698139
 30
0.0
  0
VERTEX
  5
2D88
  8
0
 10
39.9782794003450022
 20
160.7546697454195908
 30
0.0
  0
VERTEX
  5
2D89
  8
0
 10
39.9968320514347226
 20
160.6256070769757116
 30
0.0
  0
VERTEX
  5
2D8A
  8
0
 10
39.99857582303963
 20
160.4940281256926937
 30
0.0
  0
VERTEX
  5
2D8B
  8
0
 10
39.9845704745308126
 20
160.3728061761501067
 30
0.0
  0
VERTEX
  5
2D8C
  8
0
 10
39.9567204282115824
 20
160.2563704631699864
 30
0.0
  0
VERTEX
  5
2D8D
  8
0
 10
39.9159180747229811
 20
160.1461349886155006
 30
0.0
  0
VERTEX
  5
2D8E
  8
0
 10
39.8650732596762793
 20
160.0457335447586047
 30
0.0
  0
VERTEX
  5
2D8F
  8
0
 10
39.7999831770041226
 20
159.9474021639989871
 30
0.0
  0
VERTEX
  5
2D90
  8
0
 10
39.7291727114747815
 20
159.8630493787798912
 30
0.0
  0
VERTEX
  5
2D91
  8
0
 10
39.6104280821492125
 20
159.7552960576051078
 30
0.0
  0
VERTEX
  5
2D92
  8
0
 10
39.4934461492422315
 20
159.6776027430269096
 30
0.0
  0
VERTEX
  5
2D93
  8
0
 10
39.3279827344727479
 20
159.6024547306608099
 30
0.0
  0
VERTEX
  5
2D94
  8
0
 10
39.1926207165314509
 20
159.5661058074734058
 30
0.0
  0
VERTEX
  5
2D95
  8
0
 10
39.1404958677685215
 20
159.5572978274076092
 30
0.0
  0
SEQEND
  5
2D96
  8
0
  0
POLYLINE
  5
28A3
  8
0
 66
     1
 10
0.0
 20
0.0
 30
0.0
  0
VERTEX
  5
2D97
  8
0
 10
39.0550458671890013
 20
159.4482980986466885
 30
0.0
  0
VERTEX
  5
2D98
  8
0
 10
39.0546632982961128
 20
159.4534363656713083
 30
0.0
  0
VERTEX
  5
2D99
  8
0
 10
39.0545535678440672
 20
159.4595635120261079
 30
0.0
  0
VERTEX
  5
2D9A
  8
0
 10
39.0550692632991172
 20
159.4685116075451106
 30
0.0
  0
VERTEX
  5
2D9B
  8
0
 10
39.0607171796606565
 20
159.4928766179911008
 30
0.0
  0
VERTEX
  5
2D9C
  8
0
 10
39.0776431032274516
 20
159.5228553904005935
 30
0.0
  0
VERTEX
  5
2D9D
  8
0
 10
39.1000116223360976
 20
159.5421113040058003
 30
0.0
  0
VERTEX
  5
2D9E
  8
0
 10
39.1404958677685215
 20
159.5572978274076092
 30
0.0
  0
SEQEND
  5
2D9F
  8
0
  0
ARC
  5
28A4
  8
0
 10
50.0000117263546073
 20
160.5473803248139859
 30
0.0
 40
11.0000117908199702
 50
185.7343598322372884
 51
186.2656399399172074
  0
POLYLINE
  5
28A5
  8
0
 66
     1
 10
0.0
 20
0.0
 30
0.0
  0
VERTEX
  5
2DA0
  8
0
 10
39.1719526180630169
 20
159.2580068405603129
 30
0.0
  0
VERTEX
  5
2DA1
  8
0
 10
39.1194604669261707
 20
159.2688000179915946
 30
0.0
  0
VERTEX
  5
2DA2
  8
0
 10
39.1004532401117402
 20
159.2814870095774893
 30
0.0
  0
VERTEX
  5
2DA3
  8
0
 10
39.0885266967744727
 20
159.2934688143969026
 30
0.0
  0
VERTEX
  5
2DA4
  8
0
 10
39.0808351868843431
 20
159.3039420442214009
 30
0.0
  0
VERTEX
  5
2DA5
  8
0
 10
39.0757401400111277
 20
159.3129061727049134
 30
0.0
  0
VERTEX
  5
2DA6
  8
0
 10
39.0722795481049232
 20
159.320590994453795
 30
0.0
  0
VERTEX
  5
2DA7
  8
0
 10
39.0687641869888296
 20
159.330987443291491
 30
0.0
  0
VERTEX
  5
2DA8
  8
0
 10
39.067372044180587
 20
159.3366243087972975
 30
0.0
  0
VERTEX
  5
2DA9
  8
0
 10
39.0662891603286369
 20
159.3424625412901889
 30
0.0
  0
VERTEX
  5
2DAA
  8
0
 10
39.0657075823341202
 20
159.3468586531087112
 30
0.0
  0
SEQEND
  5
2DAB
  8
0
  0
POLYLINE
  5
28A6
  8
0
 66
     1
 10
0.0
 20
0.0
 30
0.0
  0
VERTEX
  5
2DAC
  8
0
 10
39.1719526180630169
 20
159.2580068405603129
 30
0.0
  0
VERTEX
  5
2DAD
  8
0
 10
39.2716684579716926
 20
159.2602815307656954
 30
0.0
  0
VERTEX
  5
2DAE
  8
0
 10
39.3998568017030379
 20
159.2480276115817901
 30
0.0
  0
VERTEX
  5
2DAF
  8
0
 10
39.5536355839439295
 20
159.2100181607887066
 30
0.0
  0
VERTEX
  5
2DB0
  8
0
 10
39.6669827721730996
 20
159.1647956513187978
 30
0.0
  0
VERTEX
  5
2DB1
  8
0
 10
39.7866262771145216
 20
159.0979727607827954
 30
0.0
  0
VERTEX
  5
2DB2
  8
0
 10
39.9095459616824328
 20
159.0032963846954033
 30
0.0
  0
VERTEX
  5
2DB3
  8
0
 10
40.0260280533249997
 20
158.8790196027445916
 30
0.0
  0
VERTEX
  5
2DB4
  8
0
 10
40.0954398380983079
 20
158.7787336431462109
 30
0.0
  0
VERTEX
  5
2DB5
  8
0
 10
40.1541805199844006
 20
158.6665056552407123
 30
0.0
  0
VERTEX
  5
2DB6
  8
0
 10
40.199161181250382
 20
158.544120619541502
 30
0.0
  0
VERTEX
  5
2DB7
  8
0
 10
40.2282234447682114
 20
158.4157795774644057
 30
0.0
  0
VERTEX
  5
2DB8
  8
0
 10
40.2397274357847721
 20
158.294294768982013
 30
0.0
  0
VERTEX
  5
2DB9
  8
0
 10
40.23669416806149
 20
158.1746131679653899
 30
0.0
  0
VERTEX
  5
2DBA
  8
0
 10
40.2197025387954383
 20
158.058303348677498
 30
0.0
  0
VERTEX
  5
2DBB
  8
0
 10
40.1908433062005486
 20
157.949524746530102
 30
0.0
  0
VERTEX
  5
2DBC
  8
0
 10
40.1476196971439379
 20
157.8398091952323909
 30
0.0
  0
VERTEX
  5
2DBD
  8
0
 10
40.0958944175672798
 20
157.7425774660227091
 30
0.0
  0
VERTEX
  5
2DBE
  8
0
 10
40.0021475809516502
 20
157.6124904513426088
 30
0.0
  0
VERTEX
  5
2DBF
  8
0
 10
39.9038751549517769
 20
157.5121731136486005
 30
0.0
  0
VERTEX
  5
2DC0
  8
0
 10
39.7576514731441719
 20
157.4042656745372142
 30
0.0
  0
VERTEX
  5
2DC1
  8
0
 10
39.6328048146958167
 20
157.340567946743505
 30
0.0
  0
VERTEX
  5
2DC2
  8
0
 10
39.5836515577348393
 20
157.3211156129399058
 30
0.0
  0
SEQEND
  5
2DC3
  8
0
  0
POLYLINE
  5
28A7
  8
0
 66
     1
 10
0.0
 20
0.0
 30
0.0
  0
VERTEX
  5
2DC4
  8
0
 10
39.5227311625906168
 20
157.1967317356707952
 30
0.0
  0
VERTEX
  5
2DC5
  8
0
 10
39.5212914736991081
 20
157.2016674723658127
 30
0.0
  0
VERTEX
  5
2DC6
  8
0
 10
39.5199102856147135
 20
157.2076341934260881
 30
0.0
  0
VERTEX
  5
2DC7
  8
0
 10
39.5185539970341893
 20
157.2164844637370038
 30
0.0
  0
VERTEX
  5
2DC8
  8
0
 10
39.5189994512388125
 20
157.241441132452195
 30
0.0
  0
VERTEX
  5
2DC9
  8
0
 10
39.5292636947888525
 20
157.2742238622388129
 30
0.0
  0
VERTEX
  5
2DCA
  8
0
 10
39.5470458230380828
 20
157.2976795270604953
 30
0.0
  0
VERTEX
  5
2DCB
  8
0
 10
39.5836515577348393
 20
157.3211156129399058
 30
0.0
  0
SEQEND
  5
2DCC
  8
0
  0
ARC
  5
28A8
  8
0
 10
50.0000142029004166
 20
160.5473837071266132
 30
0.0
 40
11.0000149336527393
 50
197.734359908133797
 51
198.2656398640214945
  0
POLYLINE
  5
28A9
  8
0
 66
     1
 10
0.0
 20
0.0
 30
0.0
  0
VERTEX
  5
2DCD
  8
0
 10
39.6766469976842302
 20
157.0349050783752887
 30
0.0
  0
VERTEX
  5
2DCE
  8
0
 10
39.623064616459402
 20
157.0345468468995875
 30
0.0
  0
VERTEX
  5
2DCF
  8
0
 10
39.6018343236862904
 20
157.0430033255487956
 30
0.0
  0
VERTEX
  5
2DD0
  8
0
 10
39.5876768853077294
 20
157.052242439804786
 30
0.0
  0
VERTEX
  5
2DD1
  8
0
 10
39.5779756166173016
 20
157.0608866456630039
 30
0.0
  0
VERTEX
  5
2DD2
  8
0
 10
39.571127839594908
 20
157.068594705195693
 30
0.0
  0
VERTEX
  5
2DD3
  8
0
 10
39.5661448036096317
 20
157.0753913233531875
 30
0.0
  0
VERTEX
  5
2DD4
  8
0
 10
39.5605454127737133
 20
157.0848263434209002
 30
0.0
  0
VERTEX
  5
2DD5
  8
0
 10
39.5580112456153188
 20
157.0900499765714073
 30
0.0
  0
VERTEX
  5
2DD6
  8
0
 10
39.5557361479462202
 20
157.0955388272170126
 30
0.0
  0
VERTEX
  5
2DD7
  8
0
 10
39.5542503403169405
 20
157.0997256806209919
 30
0.0
  0
SEQEND
  5
2DD8
  8
0
  0
POLYLINE
  5
28AA
  8
0
 66
     1
 10
0.0
 20
0.0
 30
0.0
  0
VERTEX
  5
2DD9
  8
0
 10
39.6766469976842302
 20
157.0349050783752887
 30
0.0
  0
VERTEX
  5
2DDA
  8
0
 10
39.7737088648172801
 20
157.0578617579676859
 30
0.0
  0
VERTEX
  5
2DDB
  8
0
 10
39.9016405997143693
 20
157.0725275749514935
 30
0.0
  0
VERTEX
  5
2DDC
  8
0
 10
40.0599574248620769
 20
157.067322431966403
 30
0.0
  0
VERTEX
  5
2DDD
  8
0
 10
40.1802301591281434
 20
157.0466554768233038
 30
0.0
  0
VERTEX
  5
2DDE
  8
0
 10
40.3111529820850407
 20
157.0061692626273953
 30
0.0
  0
VERTEX
  5
2DDF
  8
0
 10
40.4510719438885005
 20
156.9391192666977872
 30
0.0
  0
VERTEX
  5
2DE0
  8
0
 10
40.5908487019205992
 20
156.8417768936064931
 30
0.0
  0
VERTEX
  5
2DE1
  8
0
 10
40.6795949786683408
 20
156.7581146090136031
 30
0.0
  0
VERTEX
  5
2DE2
  8
0
 10
40.7603863993348767
 20
156.6605524452461111
 30
0.0
  0
VERTEX
  5
2DE3
  8
0
 10
40.8298303927676329
 20
156.5501940781076087
 30
0.0
  0
VERTEX
  5
2DE4
  8
0
 10
40.8849422069999093
 20
156.4306999829194069
 30
0.0
  0
VERTEX
  5
2DE5
  8
0
 10
40.9214537709903823
 20
156.3142617718974066
 30
0.0
  0
VERTEX
  5
2DE6
  8
0
 10
40.9433708132278582
 20
156.196564709926804
 30
0.0
  0
VERTEX
  5
2DE7
  8
0
 10
40.9509334118004631
 20
156.0792637794571931
 30
0.0
  0
VERTEX
  5
2DE8
  8
0
 10
40.9453218656133728
 20
155.966861922560696
 30
0.0
  0
VERTEX
  5
2DE9
  8
0
 10
40.9258546792887614
 20
155.8505571713436098
 30
0.0
  0
VERTEX
  5
2DEA
  8
0
 10
40.8954759950312621
 20
155.7446956927628037
 30
0.0
  0
VERTEX
  5
2DEB
  8
0
 10
40.8308255398571305
 20
155.5979604047402063
 30
0.0
  0
VERTEX
  5
2DEC
  8
0
 10
40.7555587073020433
 20
155.4794029414080114
 30
0.0
  0
VERTEX
  5
2DED
  8
0
 10
40.634966686125118
 20
155.3434512200743995
 30
0.0
  0
VERTEX
  5
2DEE
  8
0
 10
40.5260919231133627
 20
155.2551872453223041
 30
0.0
  0
VERTEX
  5
2DEF
  8
0
 10
40.482051657813507
 20
155.2259365938510882
 30
0.0
  0
SEQEND
  5
2DF0
  8
0
  0
POLYLINE
  5
28AB
  8
0
 66
     1
 10
0.0
 20
0.0
 30
0.0
  0
VERTEX
  5
2DF1
  8
0
 10
40.4483233817009022
 20
155.0916047403707125
 30
0.0
  0
VERTEX
  5
2DF2
  8
0
 10
40.4459002486676411
 20
155.0961109312592043
 30
0.0
  0
VERTEX
  5
2DF3
  8
0
 10
40.44331054528962
 20
155.1016519176841086
 30
0.0
  0
VERTEX
  5
2DF4
  8
0
 10
40.4401476218406799
 20
155.1100056814273955
 30
0.0
  0
VERTEX
  5
2DF5
  8
0
 10
40.4353889659606978
 20
155.1343928126308924
 30
0.0
  0
VERTEX
  5
2DF6
  8
0
 10
40.4385119886693403
 20
155.1684333566230123
 30
0.0
  0
VERTEX
  5
2DF7
  8
0
 10
40.4508368817580219
 20
155.1949627372696057
 30
0.0
  0
VERTEX
  5
2DF8
  8
0
 10
40.482051657813507
 20
155.2259365938510882
 30
0.0
  0
SEQEND
  5
2DF9
  8
0
  0
ARC
  5
28AC
  8
0
 10
49.9999927775747608
 20
160.5473749224557025
 30
0.0
 40
10.9999916603514194
 50
209.7343593461023943
 51
210.2656404260567911
  0
POLYLINE
  5
28AD
  8
0
 66
     1
 10
0.0
 20
0.0
 30
0.0
  0
VERTEX
  5
2DFA
  8
0
 10
40.6325214404503683
 20
154.9653152853202016
 30
0.0
  0
VERTEX
  5
2DFB
  8
0
 10
40.5802014042069388
 20
154.9538235444306054
 30
0.0
  0
VERTEX
  5
2DFC
  8
0
 10
40.5576756253939266
 20
154.957677540808703
 30
0.0
  0
VERTEX
  5
2DFD
  8
0
 10
40.5419060935498408
 20
154.9637684551867096
 30
0.0
  0
VERTEX
  5
2DFE
  8
0
 10
40.5306191338318271
 20
154.9702044321446976
 30
0.0
  0
VERTEX
  5
2DFF
  8
0
 10
40.5223179664997417
 20
154.9763183247796974
 30
0.0
  0
VERTEX
  5
2E00
  8
0
 10
40.5160303380400819
 20
154.981928594732608
 30
0.0
  0
VERTEX
  5
2E01
  8
0
 10
40.50859470348842
 20
154.989986231800998
 30
0.0
  0
VERTEX
  5
2E02
  8
0
 10
40.5050290651380678
 20
154.9945673013278054
 30
0.0
  0
VERTEX
  5
2E03
  8
0
 10
40.5010136840512516
 20
155.0004793021518026
 30
0.0
  0
VERTEX
  5
2E04
  8
0
 10
40.4993224826960088
 20
155.0032717059011986
 30
0.0
  0
SEQEND
  5
2E05
  8
0
  0
POLYLINE
  5
28AE
  8
0
 66
     1
 10
0.0
 20
0.0
 30
0.0
  0
VERTEX
  5
2E06
  8
0
 10
42.0005385649097889
 20
153.6452851117562091
 30
0.0
  0
VERTEX
  5
2E07
  8
0
 10
41.9215827212204317
 20
153.510084218721687
 30
0.0
  0
VERTEX
  5
2E08
  8
0
 10
41.8334392769681003
 20
153.4011101181758931
 30
0.0
  0
VERTEX
  5
2E09
  8
0
 10
41.7964317726291199
 20
153.3633301470597985
 30
0.0
  0
SEQEND
  5
2E0A
  8
0
  0
POLYLINE
  5
28AF
  8
0
 66
     1
 10
0.0
 20
0.0
 30
0.0
  0
VERTEX
  5
2E0B
  8
0
 10
40.6325214404503683
 20
154.9653152853202016
 30
0.0
  0
VERTEX
  5
2E0C
  8
0
 10
40.7226847067305826
 20
155.0079486442947996
 30
0.0
  0
VERTEX
  5
2E0D
  8
0
 10
40.8447641167879212
 20
155.04889114233751
 30
0.0
  0
VERTEX
  5
2E0E
  8
0
 10
41.0006930036286121
 20
155.0767166805898114
 30
0.0
  0
VERTEX
  5
2E0F
  8
0
 10
41.1226342141453287
 20
155.0815102395239933
 30
0.0
  0
VERTEX
  5
2E10
  8
0
 10
41.2591143595611811
 20
155.0691321714054141
 30
0.0
  0
VERTEX
  5
2E11
  8
0
 10
41.4099182008079083
 20
155.032641172022096
 30
0.0
  0
VERTEX
  5
2E12
  8
0
 10
41.5668823255761026
 20
154.9664895532933997
 30
0.0
  0
VERTEX
  5
2E13
  8
0
 10
41.671084945303221
 20
154.9031088160076877
 30
0.0
  0
VERTEX
  5
2E14
  8
0
 10
41.7703969807838291
 20
154.824477727645899
 30
0.0
  0
VERTEX
  5
2E15
  8
0
 10
41.8612704838748684
 20
154.7309702898492958
 30
0.0
  0
VERTEX
  5
2E16
  8
0
 10
41.9400246496766727
 20
154.6255463473345912
 30
0.0
  0
VERTEX
  5
2E17
  8
0
 10
41.9999492245062811
 20
154.519244320770099
 30
0.0
  0
VERTEX
  5
2E18
  8
0
 10
42.0000767216059216
 20
154.519148301834889
 30
0.0
  0
SEQEND
  5
2E19
  8
0
  0
POLYLINE
  5
28B0
  8
0
 66
     1
 10
0.0
 20
0.0
 30
0.0
  0
VERTEX
  5
2E1A
  8
0
 10
41.7913697002042497
 20
153.2249212671628129
 30
0.0
  0
VERTEX
  5
2E1B
  8
0
 10
41.7880916748688591
 20
153.2287890838705096
 30
0.0
  0
VERTEX
  5
2E1C
  8
0
 10
41.7844129900849168
 20
153.2336565395696084
 30
0.0
  0
VERTEX
  5
2E1D
  8
0
 10
41.7795972806277405
 20
153.2411336088264022
 30
0.0
  0
VERTEX
  5
2E1E
  8
0
 10
41.7699072861261911
 20
153.2637868299997024
 30
0.0
  0
VERTEX
  5
2E1F
  8
0
 10
41.7657664609102426
 20
153.2974078872269956
 30
0.0
  0
VERTEX
  5
2E20
  8
0
 10
41.772008565204878
 20
153.325647557825107
 30
0.0
  0
VERTEX
  5
2E21
  8
0
 10
41.7964317726291199
 20
153.3633301470597985
 30
0.0
  0
SEQEND
  5
2E22
  8
0
  0
ARC
  5
28B1
  8
0
 10
49.9999926797626131
 20
160.5473725011534896
 30
0.0
 40
10.9999901497549502
 50
221.7343592872734916
 51
222.2656404625359983
  0
POLYLINE
  5
28B2
  8
0
 66
     1
 10
0.0
 20
0.0
 30
0.0
  0
VERTEX
  5
2E23
  8
0
 10
41.9977996464180805
 20
153.1396884663450919
 30
0.0
  0
VERTEX
  5
2E24
  8
0
 10
41.949043658771437
 20
153.117574805682807
 30
0.0
  0
VERTEX
  5
2E25
  8
0
 10
41.9262077789802277
 20
153.1166540388746
 30
0.0
  0
VERTEX
  5
2E26
  8
0
 10
41.909516412325182
 20
153.1193279053630079
 30
0.0
  0
VERTEX
  5
2E27
  8
0
 10
41.8971379673155226
 20
153.1232722023314068
 30
0.0
  0
VERTEX
  5
2E28
  8
0
 10
41.8877469814384469
 20
153.1275228430365871
 30
0.0
  0
VERTEX
  5
2E29
  8
0
 10
41.8804302734744169
 20
153.131699881692299
 30
0.0
  0
VERTEX
  5
2E2A
  8
0
 10
41.8714900759286195
 20
153.1380239723268915
 30
0.0
  0
VERTEX
  5
2E2B
  8
0
 10
41.867049038188128
 20
153.1417605465161955
 30
0.0
  0
VERTEX
  5
2E2C
  8
0
 10
41.8618896757098398
 20
153.146705974675001
 30
0.0
  0
VERTEX
  5
2E2D
  8
0
 10
41.8596198218900497
 20
153.1491218275471056
 30
0.0
  0
SEQEND
  5
2E2E
  8
0
  0
POLYLINE
  5
28B3
  8
0
 66
     1
 10
0.0
 20
0.0
 30
0.0
  0
VERTEX
  5
2E2F
  8
0
 10
45.3501956653606726
 20
151.5475664878298119
 30
0.0
  0
VERTEX
  5
2E30
  8
0
 10
45.3669239757349985
 20
151.51954003860169
 30
0.0
  0
VERTEX
  5
2E31
  8
0
 10
45.4195466431194674
 20
151.414011026251103
 30
0.0
  0
VERTEX
  5
2E32
  8
0
 10
45.457203737319702
 20
151.3105145868360921
 30
0.0
  0
VERTEX
  5
2E33
  8
0
 10
45.4911633087306981
 20
151.1538143363621032
 30
0.0
  0
VERTEX
  5
2E34
  8
0
 10
45.4999723506143923
 20
151.013663387751393
 30
0.0
  0
VERTEX
  5
2E35
  8
0
 10
45.4823420356265729
 20
150.8327951378217051
 30
0.0
  0
VERTEX
  5
2E36
  8
0
 10
45.4461533545739087
 20
150.6973808998822051
 30
0.0
  0
VERTEX
  5
2E37
  8
0
 10
45.427683461113503
 20
150.6477320088517047
 30
0.0
  0
SEQEND
  5
2E38
  8
0
  0
POLYLINE
  5
28B4
  8
0
 66
     1
 10
0.0
 20
0.0
 30
0.0
  0
VERTEX
  5
2E39
  8
0
 10
45.4793549885901314
 20
150.5192302760767973
 30
0.0
  0
VERTEX
  5
2E3A
  8
0
 10
45.4747337437412114
 20
150.521457858426686
 30
0.0
  0
VERTEX
  5
2E3B
  8
0
 10
45.4693782613960806
 20
150.5244214526298947
 30
0.0
  0
VERTEX
  5
2E3C
  8
0
 10
45.4619006925592828
 20
150.5293288091257011
 30
0.0
  0
VERTEX
  5
2E3D
  8
0
 10
45.4436813087723976
 20
150.5463149000368048
 30
0.0
  0
VERTEX
  5
2E3E
  8
0
 10
45.4261925652264367
 20
150.5757932747320069
 30
0.0
  0
VERTEX
  5
2E3F
  8
0
 10
45.4206192198031928
 20
150.6046112591299106
 30
0.0
  0
VERTEX
  5
2E40
  8
0
 10
45.427683461113503
 20
150.6477320088517047
 30
0.0
  0
SEQEND
  5
2E41
  8
0
  0
ARC
  5
28B5
  8
0
 10
50.0000057298149088
 20
160.5473919616993896
 30
0.0
 40
11.0000140871330796
 50
245.7343598514324015
 51
246.265639884463809
  0
POLYLINE
  5
28B6
  8
0
 66
     1
 10
0.0
 20
0.0
 30
0.0
  0
VERTEX
  5
2E42
  8
0
 10
45.7026054339942505
 20
150.5253288603036026
 30
0.0
  0
VERTEX
  5
2E43
  8
0
 10
45.6670292598184631
 20
150.4852769304789035
 30
0.0
  0
VERTEX
  5
2E44
  8
0
 10
45.6465384020652891
 20
150.4751547899427067
 30
0.0
  0
VERTEX
  5
2E45
  8
0
 10
45.6301987232749298
 20
150.4708139237515923
 30
0.0
  0
VERTEX
  5
2E46
  8
0
 10
45.6172830395841729
 20
150.4693872328518012
 30
0.0
  0
VERTEX
  5
2E47
  8
0
 10
45.6069725293350814
 20
150.4694550528776062
 30
0.0
  0
VERTEX
  5
2E48
  8
0
 10
45.5985872282131197
 20
150.4702989724790996
 30
0.0
  0
VERTEX
  5
2E49
  8
0
 10
45.5878314127872315
 20
150.4724493647794077
 30
0.0
  0
VERTEX
  5
2E4A
  8
0
 10
45.5822537097363281
 20
150.4740606912081944
 30
0.0
  0
VERTEX
  5
2E4B
  8
0
 10
45.576648521344417
 20
150.4760434253043115
 30
0.0
  0
VERTEX
  5
2E4C
  8
0
 10
45.5725349892905669
 20
150.4777438666106093
 30
0.0
  0
SEQEND
  5
2E4D
  8
0
  0
POLYLINE
  5
28B7
  8
0
 66
     1
 10
0.0
 20
0.0
 30
0.0
  0
VERTEX
  5
2E4E
  8
0
 10
45.7026054339942505
 20
150.5253288603036026
 30
0.0
  0
VERTEX
  5
2E4F
  8
0
 10
45.7504577255523373
 20
150.6127631410942058
 30
0.0
  0
VERTEX
  5
2E50
  8
0
 10
45.8250907126035472
 20
150.7175742573838022
 30
0.0
  0
VERTEX
  5
2E51
  8
0
 10
45.9347706588810922
 20
150.8316712937730131
 30
0.0
  0
VERTEX
  5
2E52
  8
0
 10
46.0305834124004889
 20
150.9072513732853054
 30
0.0
  0
VERTEX
  5
2E53
  8
0
 10
46.1482590501490506
 20
150.9774944070792912
 30
0.0
  0
VERTEX
  5
2E54
  8
0
 10
46.2917086154221522
 20
151.0366575414743124
 30
0.0
  0
VERTEX
  5
2E55
  8
0
 10
46.4575932077466902
 20
151.0754483109768955
 30
0.0
  0
VERTEX
  5
2E56
  8
0
 10
46.5791480239229472
 20
151.0854499836451907
 30
0.0
  0
VERTEX
  5
2E57
  8
0
 10
46.7057174315970585
 20
151.0802397272562985
 30
0.0
  0
VERTEX
  5
2E58
  8
0
 10
46.8342122595515207
 20
151.0580323237662128
 30
0.0
  0
VERTEX
  5
2E59
  8
0
 10
46.9599132446721228
 20
151.0190564319971998
 30
0.0
  0
VERTEX
  5
2E5A
  8
0
 10
47.0708922499213074
 20
150.9682993243287967
 30
0.0
  0
VERTEX
  5
2E5B
  8
0
 10
47.1730450798166316
 20
150.9058491869930947
 30
0.0
  0
VERTEX
  5
2E5C
  8
0
 10
47.2652935488614503
 20
150.8329979325802128
 30
0.0
  0
VERTEX
  5
2E5D
  8
0
 10
47.3450887848139814
 20
150.7536298921071136
 30
0.0
  0
VERTEX
  5
2E5E
  8
0
 10
47.4185115337645584
 20
150.6613567229152864
 30
0.0
  0
VERTEX
  5
2E5F
  8
0
 10
47.4768742117093723
 20
150.5679574356327919
 30
0.0
  0
VERTEX
  5
2E60
  8
0
 10
47.5426842228961206
 20
150.4217581831935888
 30
0.0
  0
VERTEX
  5
2E61
  8
0
 10
47.5804550128438777
 20
150.2865101164294117
 30
0.0
  0
VERTEX
  5
2E62
  8
0
 10
47.6008365918237004
 20
150.1059348086504031
 30
0.0
  0
VERTEX
  5
2E63
  8
0
 10
47.5936096317491533
 20
149.9659451814522981
 30
0.0
  0
VERTEX
  5
2E64
  8
0
 10
47.5858519113166665
 20
149.9134249869603082
 30
0.0
  0
SEQEND
  5
2E65
  8
0
  0
POLYLINE
  5
28B8
  8
0
 66
     1
 10
0.0
 20
0.0
 30
0.0
  0
VERTEX
  5
2E66
  8
0
 10
47.6631113008189899
 20
149.7984744407968094
 30
0.0
  0
VERTEX
  5
2E67
  8
0
 10
47.6581105601852002
 20
149.7996972492551038
 30
0.0
  0
VERTEX
  5
2E68
  8
0
 10
47.65225068099911
 20
149.8014855588332068
 30
0.0
  0
VERTEX
  5
2E69
  8
0
 10
47.6439031127942201
 20
149.8047391314806873
 30
0.0
  0
VERTEX
  5
2E6A
  8
0
 10
47.6224905709124471
 20
149.8176252508974073
 30
0.0
  0
VERTEX
  5
2E6B
  8
0
 10
47.5992184301854024
 20
149.8429544412404937
 30
0.0
  0
VERTEX
  5
2E6C
  8
0
 10
47.5878088515114186
 20
149.870140113697687
 30
0.0
  0
VERTEX
  5
2E6D
  8
0
 10
47.5858519113166665
 20
149.9134249869603082
 30
0.0
  0
SEQEND
  5
2E6E
  8
0
  0
ARC
  5
28B9
  8
0
 10
50.0000034514432912
 20
160.547395330088591
 30
0.0
 40
11.0000166003467399
 50
257.7343598926195227
 51
258.265639823772517
  0
POLYLINE
  5
28BA
  8
0
 66
     1
 10
0.0
 20
0.0
 30
0.0
  0
VERTEX
  5
2E6F
  8
0
 10
47.8802152250550179
 20
149.8508561331103124
 30
0.0
  0
VERTEX
  5
2E70
  8
0
 10
47.8537330289147107
 20
149.8042720777810928
 30
0.0
  0
VERTEX
  5
2E71
  8
0
 10
47.8357934684772701
 20
149.7901142628481068
 30
0.0
  0
VERTEX
  5
2E72
  8
0
 10
47.8207125630527372
 20
149.7824732187208951
 30
0.0
  0
VERTEX
  5
2E73
  8
0
 10
47.8083750905811868
 20
149.7783940201825033
 30
0.0
  0
VERTEX
  5
2E74
  8
0
 10
47.798275227234079
 20
149.7763180129840919
 30
0.0
  0
VERTEX
  5
2E75
  8
0
 10
47.7898971608959968
 20
149.7754012235454866
 30
0.0
  0
VERTEX
  5
2E76
  8
0
 10
47.7789243311966914
 20
149.7752701450322945
 30
0.0
  0
VERTEX
  5
2E77
  8
0
 10
47.7731331782488269
 20
149.7756877456066888
 30
0.0
  0
VERTEX
  5
2E78
  8
0
 10
47.7672445417293829
 20
149.776461931469612
 30
0.0
  0
VERTEX
  5
2E79
  8
0
 10
47.7628806081380333
 20
149.7772678196147069
 30
0.0
  0
SEQEND
  5
2E7A
  8
0
  0
POLYLINE
  5
28BB
  8
0
 66
     1
 10
0.0
 20
0.0
 30
0.0
  0
VERTEX
  5
2E7B
  8
0
 10
47.8802152250550179
 20
149.8508561331103124
 30
0.0
  0
VERTEX
  5
2E7C
  8
0
 10
47.9088105591298188
 20
149.9462336719473967
 30
0.0
  0
VERTEX
  5
2E7D
  8
0
 10
47.9599401631508613
 20
150.0641412028313084
 30
0.0
  0
VERTEX
  5
2E7E
  8
0
 10
48.0433443422373898
 20
150.1984047626690142
 30
0.0
  0
VERTEX
  5
2E7F
  8
0
 10
48.1213054185648232
 20
150.2922886297988043
 30
0.0
  0
VERTEX
  5
2E80
  8
0
 10
48.2217698335379126
 20
150.3855148308387015
 30
0.0
  0
VERTEX
  5
2E81
  8
0
 10
48.3497655889382827
 20
150.4732797791731116
 30
0.0
  0
VERTEX
  5
2E82
  8
0
 10
48.5039680060714602
 20
150.5457920018224058
 30
0.0
  0
VERTEX
  5
2E83
  8
0
 10
48.6207755663114085
 20
150.5808931329721077
 30
0.0
  0
VERTEX
  5
2E84
  8
0
 10
48.7456621096410103
 20
150.6021605242470969
 30
0.0
  0
VERTEX
  5
2E85
  8
0
 10
48.8759795279798865
 20
150.6072023120277095
 30
0.0
  0
VERTEX
  5
2E86
  8
0
 10
49.0070623017349192
 20
150.5952566461010065
 30
0.0
  0
VERTEX
  5
2E87
  8
0
 10
49.126187967862279
 20
150.5687199265163088
 30
0.0
  0
VERTEX
  5
2E88
  8
0
 10
49.2391187328946387
 20
150.528904780447391
 30
0.0
  0
VERTEX
  5
2E89
  8
0
 10
49.3445164218635668
 20
150.4768568480398017
 30
0.0
  0
VERTEX
  5
2E8A
  8
0
 10
49.439093315240541
 20
150.4158394798884046
 30
0.0
  0
VERTEX
  5
2E8B
  8
0
 10
49.5301166803512771
 20
150.3408781734021034
 30
0.0
  0
VERTEX
  5
2E8C
  8
0
 10
49.6066477564856427
 20
150.2616772166850865
 30
0.0
  0
VERTEX
  5
2E8D
  8
0
 10
49.701441808927278
 20
150.1324073662686089
 30
0.0
  0
VERTEX
  5
2E8E
  8
0
 10
49.7665437132856709
 20
150.0080008266627942
 30
0.0
  0
VERTEX
  5
2E8F
  8
0
 10
49.8240807083384993
 20
149.8356388268101966
 30
0.0
  0
VERTEX
  5
2E90
  8
0
 10
49.846169365028878
 20
149.6971867632719864
 30
0.0
  0
VERTEX
  5
2E91
  8
0
 10
49.8495302173630819
 20
149.6438727868464866
 30
0.0
  0
SEQEND
  5
2E92
  8
0
  0
POLYLINE
  5
28BC
  8
0
 66
     1
 10
0.0
 20
0.0
 30
0.0
  0
VERTEX
  5
2E93
  8
0
 10
49.94900086625222
 20
149.5474973162166066
 30
0.0
  0
VERTEX
  5
2E94
  8
0
 10
49.9485557467309604
 20
149.5475003708909014
 30
0.0
  0
VERTEX
  5
2E95
  8
0
 10
49.9435421179158183
 20
149.5476717711891865
 30
0.0
  0
VERTEX
  5
2E96
  8
0
 10
49.9353035860613303
 20
149.5485039832371967
 30
0.0
  0
VERTEX
  5
2E97
  8
0
 10
49.9289280069198682
 20
149.5496277046254932
 30
0.0
  0
VERTEX
  5
2E98
  8
0
 10
49.9178093228656223
 20
149.5526387339743906
 30
0.0
  0
VERTEX
  5
2E99
  8
0
 10
49.9084872562182227
 20
149.556277484901301
 30
0.0
  0
VERTEX
  5
2E9A
  8
0
 10
49.8657513735963391
 20
149.5927961103529071
 30
0.0
  0
VERTEX
  5
2E9B
  8
0
 10
49.8495302173630819
 20
149.6438727868464866
 30
0.0
  0
SEQEND
  5
2E9C
  8
0
  0
ARC
  5
28BD
  8
0
 10
50.0000000000000284
 20
160.5473754938975048
 30
0.0
 40
10.9999964016114298
 50
269.7343594048348905
 51
270.2656403115570924
  0
POLYLINE
  5
28BE
  8
0
 66
     1
 10
0.0
 20
0.0
 30
0.0
  0
VERTEX
  5
2E9D
  8
0
 10
50.1504697826367973
 20
149.6438727868464866
 30
0.0
  0
VERTEX
  5
2E9E
  8
0
 10
50.1342486264035188
 20
149.5927961103529071
 30
0.0
  0
VERTEX
  5
2E9F
  8
0
 10
50.0915127437816565
 20
149.556277484901301
 30
0.0
  0
VERTEX
  5
2EA0
  8
0
 10
50.0821906771342285
 20
149.5526387339743906
 30
0.0
  0
VERTEX
  5
2EA1
  8
0
 10
50.0710719930799826
 20
149.5496277046254932
 30
0.0
  0
VERTEX
  5
2EA2
  8
0
 10
50.0646964139385204
 20
149.5485039832371967
 30
0.0
  0
VERTEX
  5
2EA3
  8
0
 10
50.0564578820840325
 20
149.5476717711893002
 30
0.0
  0
VERTEX
  5
2EA4
  8
0
 10
50.0514442532688903
 20
149.5475003708909014
 30
0.0
  0
VERTEX
  5
2EA5
  8
0
 10
50.0509990792996788
 20
149.5474973159641081
 30
0.0
  0
SEQEND
  5
2EA6
  8
0
  0
POLYLINE
  5
28BF
  8
0
 66
     1
 10
0.0
 20
0.0
 30
0.0
  0
VERTEX
  5
2EA7
  8
0
 10
50.1504697826367973
 20
149.6438727868464866
 30
0.0
  0
VERTEX
  5
2EA8
  8
0
 10
50.1586307081479887
 20
149.7432802348251073
 30
0.0
  0
VERTEX
  5
2EA9
  8
0
 10
50.1842168777820916
 20
149.8694855990077883
 30
0.0
  0
VERTEX
  5
2EAA
  8
0
 10
50.2380924826228465
 20
150.0184490552603052
 30
0.0
  0
VERTEX
  5
2EAB
  8
0
 10
50.2949153121611516
 20
150.1264482533761111
 30
0.0
  0
VERTEX
  5
2EAC
  8
0
 10
50.3738783335043578
 20
150.2384514045486128
 30
0.0
  0
VERTEX
  5
2EAD
  8
0
 10
50.4808846982314208
 20
150.3508012867436889
 30
0.0
  0
VERTEX
  5
2EAE
  8
0
 10
50.6166563812917403
 20
150.453654742889114
 30
0.0
  0
VERTEX
  5
2EAF
  8
0
 10
50.7236484901882179
 20
150.5122035066800095
 30
0.0
  0
VERTEX
  5
2EB0
  8
0
 10
50.8414017641962701
 20
150.5588913381172915
 30
0.0
  0
VERTEX
  5
2EB1
  8
0
 10
50.9678181184879122
 20
150.5908328247477073
 30
0.0
  0
VERTEX
  5
2EB2
  8
0
 10
51.0984939143844414
 20
150.6063205459126095
 30
0.0
  0
VERTEX
  5
2EB3
  8
0
 10
51.2205157010631069
 20
150.6050628591767975
 30
0.0
  0
VERTEX
  5
2EB4
  8
0
 10
51.3392245934267422
 20
150.5895360407157
 30
0.0
  0
VERTEX
  5
2EB5
  8
0
 10
51.4531211359142375
 20
150.5604797744539098
 30
0.0
  0
VERTEX
  5
2EB6
  8
0
 10
51.5582872097275526
 20
150.5204081476684905
 30
0.0
  0
VERTEX
  5
2EB7
  8
0
 10
51.6628836176594177
 20
150.4659528930770023
 30
0.0
  0
VERTEX
  5
2EB8
  8
0
 10
51.7541759191875599
 20
150.4043474611702038
 30
0.0
  0
VERTEX
  5
2EB9
  8
0
 10
51.8737510776435613
 20
150.2975163320105025
 30
0.0
  0
VERTEX
  5
2EBA
  8
0
 10
51.9632465738563667
 20
150.1892961986148975
 30
0.0
  0
VERTEX
  5
2EBB
  8
0
 10
52.0552783021012928
 20
150.0325941089500077
 30
0.0
  0
VERTEX
  5
2EBC
  8
0
 10
52.1055770069491189
 20
149.9017731552112025
 30
0.0
  0
VERTEX
  5
2EBD
  8
0
 10
52.1197847749448329
 20
149.8508561331103124
 30
0.0
  0
SEQEND
  5
2EBE
  8
0
  0
POLYLINE
  5
28C0
  8
0
 66
     1
 10
0.0
 20
0.0
 30
0.0
  0
VERTEX
  5
2EBF
  8
0
 10
52.2371194000177397
 20
149.7772678213088113
 30
0.0
  0
VERTEX
  5
2EC0
  8
0
 10
52.2320532687586976
 20
149.7763508680812095
 30
0.0
  0
VERTEX
  5
2EC1
  8
0
 10
52.2259725285178078
 20
149.7756011520326922
 30
0.0
  0
VERTEX
  5
2EC2
  8
0
 10
52.2170230356804765
 20
149.7751782127230911
 30
0.0
  0
VERTEX
  5
2EC3
  8
0
 10
52.1922190963208195
 20
149.7782415173161041
 30
0.0
  0
VERTEX
  5
2EC4
  8
0
 10
52.1606551357530819
 20
149.7919170588384077
 30
0.0
  0
VERTEX
  5
2EC5
  8
0
 10
52.1391739971331631
 20
149.8121144083764023
 30
0.0
  0
VERTEX
  5
2EC6
  8
0
 10
52.1197847749448329
 20
149.8508561331103124
 30
0.0
  0
SEQEND
  5
2EC7
  8
0
  0
ARC
  5
28C1
  8
0
 10
49.9999982051992333
 20
160.5473875361984142
 30
0.0
 40
11.0000086324220092
 50
281.7343600271962032
 51
282.2656400161920942
  0
POLYLINE
  5
28C2
  8
0
 66
     1
 10
0.0
 20
0.0
 30
0.0
  0
VERTEX
  5
2EC8
  8
0
 10
52.4141480886831914
 20
149.9134249869603082
 30
0.0
  0
VERTEX
  5
2EC9
  8
0
 10
52.4089018223217025
 20
149.8600944234466112
 30
0.0
  0
VERTEX
  5
2ECA
  8
0
 10
52.3982716251753686
 20
149.8398649369937061
 30
0.0
  0
VERTEX
  5
2ECB
  8
0
 10
52.38760254926936
 20
149.8267511473713114
 30
0.0
  0
VERTEX
  5
2ECC
  8
0
 10
52.3779910381090019
 20
149.8180068849187023
 30
0.0
  0
VERTEX
  5
2ECD
  8
0
 10
52.3696089047268387
 20
149.8120026058132908
 30
0.0
  0
VERTEX
  5
2ECE
  8
0
 10
52.36232819034214
 20
149.8077575575493086
 30
0.0
  0
VERTEX
  5
2ECF
  8
0
 10
52.352357403670652
 20
149.8031748590491929
 30
0.0
  0
VERTEX
  5
2ED0
  8
0
 10
52.346897144842039
 20
149.8012009359910053
 30
0.0
  0
VERTEX
  5
2ED1
  8
0
 10
52.3412027962729027
 20
149.7995131099575872
 30
0.0
  0
VERTEX
  5
2ED2
  8
0
 10
52.3368886459752218
 20
149.7984744292294863
 30
0.0
  0
SEQEND
  5
2ED3
  8
0
  0
POLYLINE
  5
28C3
  8
0
 66
     1
 10
0.0
 20
0.0
 30
0.0
  0
VERTEX
  5
2ED4
  8
0
 10
52.4141480886831914
 20
149.9134249869603082
 30
0.0
  0
VERTEX
  5
2ED5
  8
0
 10
52.4014627775266888
 20
150.0123561063522004
 30
0.0
  0
VERTEX
  5
2ED6
  8
0
 10
52.4002500912389735
 20
150.1411220471885883
 30
0.0
  0
VERTEX
  5
2ED7
  8
0
 10
52.421976471511357
 20
150.2980301243293866
 30
0.0
  0
VERTEX
  5
2ED8
  8
0
 10
52.4551028620826898
 20
150.4154835208925931
 30
0.0
  0
VERTEX
  5
2ED9
  8
0
 10
52.50905316603248
 20
150.5414567303712943
 30
0.0
  0
VERTEX
  5
2EDA
  8
0
 10
52.5903619746216506
 20
150.6735998154535991
 30
0.0
  0
VERTEX
  5
2EDB
  8
0
 10
52.7017820849989604
 20
150.802434795752788
 30
0.0
  0
VERTEX
  5
2EDC
  8
0
 10
52.7942629587791075
 20
150.8819493286553097
 30
0.0
  0
VERTEX
  5
2EDD
  8
0
 10
52.8997359376461134
 20
150.9520995499507876
 30
0.0
  0
VERTEX
  5
2EDE
  8
0
 10
53.0167487239718298
 20
151.0096268672884037
 30
0.0
  0
VERTEX
  5
2EDF
  8
0
 10
53.1413489024201269
 20
151.0519455662573876
 30
0.0
  0
VERTEX
  5
2EE0
  8
0
 10
53.2609657237603002
 20
151.076085448658489
 30
0.0
  0
VERTEX
  5
2EE1
  8
0
 10
53.3803088359955211
 20
151.0855792058291911
 30
0.0
  0
VERTEX
  5
2EE2
  8
0
 10
53.4977576340685914
 20
151.0808385997696064
 30
0.0
  0
VERTEX
  5
2EE3
  8
0
 10
53.6089570250771033
 20
151.063508153614606
 30
0.0
  0
VERTEX
  5
2EE4
  8
0
 10
53.722589685366188
 20
151.0319899748294006
 30
0.0
  0
VERTEX
  5
2EE5
  8
0
 10
53.8246956265172116
 20
150.9907117523140982
 30
0.0
  0
VERTEX
  5
2EE6
  8
0
 10
53.9638692397139508
 20
150.9110766694363122
 30
0.0
  0
VERTEX
  5
2EE7
  8
0
 10
54.0739094352063319
 20
150.8238289217622992
 30
0.0
  0
VERTEX
  5
2EE8
  8
0
 10
54.196510562326381
 20
150.6896860176883877
 30
0.0
  0
VERTEX
  5
2EE9
  8
0
 10
54.2729097629037867
 20
150.5721815340459955
 30
0.0
  0
VERTEX
  5
2EEA
  8
0
 10
54.2973945660056074
 20
150.5253288603036026
 30
0.0
  0
SEQEND
  5
2EEB
  8
0
  0
POLYLINE
  5
28C4
  8
0
 66
     1
 10
0.0
 20
0.0
 30
0.0
  0
VERTEX
  5
2EEC
  8
0
 10
54.4274650304473013
 20
150.4777438752890077
 30
0.0
  0
VERTEX
  5
2EED
  8
0
 10
54.4227166229217119
 20
150.4757998663999103
 30
0.0
  0
VERTEX
  5
2EEE
  8
0
 10
54.4169304738847472
 20
150.4738029690824135
 30
0.0
  0
VERTEX
  5
2EEF
  8
0
 10
54.4082794793207185
 20
150.4715296673155933
 30
0.0
  0
VERTEX
  5
2EF0
  8
0
 10
54.3834617078149378
 20
150.4693564782077999
 30
0.0
  0
VERTEX
  5
2EF1
  8
0
 10
54.3498482592457606
 20
150.4760882403967059
 30
0.0
  0
VERTEX
  5
2EF2
  8
0
 10
54.324700298896488
 20
150.4912355659693901
 30
0.0
  0
VERTEX
  5
2EF3
  8
0
 10
54.2973945660056074
 20
150.5253288603036026
 30
0.0
  0
SEQEND
  5
2EF4
  8
0
  0
ARC
  5
28C5
  8
0
 10
50.0000094415048935
 20
160.5473578863575881
 30
0.0
 40
10.9999767874285208
 50
293.7343593270809947
 51
294.2656407852264806
  0
POLYLINE
  5
28C6
  8
0
 66
     1
 10
0.0
 20
0.0
 30
0.0
  0
VERTEX
  5
2EF5
  8
0
 10
54.5723165360189384
 20
150.647732015976203
 30
0.0
  0
VERTEX
  5
2EF6
  8
0
 10
54.5782748127438211
 20
150.5944875575463868
 30
0.0
  0
VERTEX
  5
2EF7
  8
0
 10
54.572085295255512
 20
150.5724889831197117
 30
0.0
  0
VERTEX
  5
2EF8
  8
0
 10
54.5643777949131277
 20
150.5574430152421996
 30
0.0
  0
VERTEX
  5
2EF9
  8
0
 10
54.5567959528315498
 20
150.5468910434971974
 30
0.0
  0
VERTEX
  5
2EFA
  8
0
 10
54.5498467208829823
 20
150.5392748049480929
 30
0.0
  0
VERTEX
  5
2EFB
  8
0
 10
54.5436089371572734
 20
150.5336083901335087
 30
0.0
  0
VERTEX
  5
2EFC
  8
0
 10
54.5348139563427594
 20
150.5270544060749103
 30
0.0
  0
VERTEX
  5
2EFD
  8
0
 10
54.5298844359994916
 20
150.5239877066971985
 30
0.0
  0
VERTEX
  5
2EFE
  8
0
 10
54.5246605301026293
 20
150.521149084969295
 30
0.0
  0
VERTEX
  5
2EFF
  8
0
 10
54.5206449651857668
 20
150.5192302552391936
 30
0.0
  0
SEQEND
  5
2F00
  8
0
  0
POLYLINE
  5
28C7
  8
0
 66
     1
 10
0.0
 20
0.0
 30
0.0
  0
VERTEX
  5
2F01
  8
0
 10
54.5723165360189384
 20
150.647732015976203
 30
0.0
  0
VERTEX
  5
2F02
  8
0
 10
54.5393404957466714
 20
150.7418605616097125
 30
0.0
  0
VERTEX
  5
2F03
  8
0
 10
54.5113827392124506
 20
150.8675553250558039
 30
0.0
  0
VERTEX
  5
2F04
  8
0
 10
54.5000098791007588
 20
151.0255446595878084
 30
0.0
  0
VERTEX
  5
2F05
  8
0
 10
54.5079905410653609
 20
151.1473188596463899
 30
0.0
  0
VERTEX
  5
2F06
  8
0
 10
54.5345685872956309
 20
151.2817568726632942
 30
0.0
  0
VERTEX
  5
2F07
  8
0
 10
54.5866246105565196
 20
151.4279189159960879
 30
0.0
  0
VERTEX
  5
2F08
  8
0
 10
54.6498540492250413
 20
151.5476467638638098
 30
0.0
  0
SEQEND
  5
2F09
  8
0
  0
POLYLINE
  5
28C8
  8
0
 66
     1
 10
0.0
 20
0.0
 30
0.0
  0
VERTEX
  5
2F0A
  8
0
 10
54.6498043346391782
 20
169.5471916968197093
 30
0.0
  0
VERTEX
  5
2F0B
  8
0
 10
54.6330760242648523
 20
169.5752181460478027
 30
0.0
  0
VERTEX
  5
2F0C
  8
0
 10
54.5804533568804118
 20
169.6807471583983897
 30
0.0
  0
VERTEX
  5
2F0D
  8
0
 10
54.5427962626801488
 20
169.7842435978134006
 30
0.0
  0
VERTEX
  5
2F0E
  8
0
 10
54.5088366912691811
 20
169.9409438482875032
 30
0.0
  0
VERTEX
  5
2F0F
  8
0
 10
54.5000276493854869
 20
170.0810947968982134
 30
0.0
  0
VERTEX
  5
2F10
  8
0
 10
54.5176579643733206
 20
170.2619630468277876
 30
0.0
  0
VERTEX
  5
2F11
  8
0
 10
54.5538466454259492
 20
170.3973772847674013
 30
0.0
  0
VERTEX
  5
2F12
  8
0
 10
54.5723165388863478
 20
170.447026175797788
 30
0.0
  0
SEQEND
  5
2F13
  8
0
  0
POLYLINE
  5
28C9
  8
0
 66
     1
 10
0.0
 20
0.0
 30
0.0
  0
VERTEX
  5
2F14
  8
0
 10
54.5206449919002125
 20
170.5755279173675092
 30
0.0
  0
VERTEX
  5
2F15
  8
0
 10
54.5252662329423572
 20
170.5733003382084974
 30
0.0
  0
VERTEX
  5
2F16
  8
0
 10
54.5306217086834408
 20
170.5703367497939951
 30
0.0
  0
VERTEX
  5
2F17
  8
0
 10
54.5380992613072806
 20
170.5654294088440963
 30
0.0
  0
VERTEX
  5
2F18
  8
0
 10
54.556318577974757
 20
170.5484434202932107
 30
0.0
  0
VERTEX
  5
2F19
  8
0
 10
54.5738073087347573
 20
170.5189652431685943
 30
0.0
  0
VERTEX
  5
2F1A
  8
0
 10
54.5793807486045566
 20
170.490147470778993
 30
0.0
  0
VERTEX
  5
2F1B
  8
0
 10
54.5723165388863478
 20
170.447026175797788
 30
0.0
  0
SEQEND
  5
2F1C
  8
0
  0
ARC
  5
28CA
  8
0
 10
49.9999957002156918
 20
160.5473694348509923
 30
0.0
 40
11.0000105713074507
 50
65.7343598779976332
 51
66.2656399693707101
  0
POLYLINE
  5
28CB
  8
0
 66
     1
 10
0.0
 20
0.0
 30
0.0
  0
VERTEX
  5
2F1D
  8
0
 10
54.297394566005643
 20
170.5694293243458901
 30
0.0
  0
VERTEX
  5
2F1E
  8
0
 10
54.3329707401813877
 20
170.6094812541705892
 30
0.0
  0
VERTEX
  5
2F1F
  8
0
 10
54.3534615979345688
 20
170.619603394706786
 30
0.0
  0
VERTEX
  5
2F20
  8
0
 10
54.3698012767249281
 20
170.6239442608979004
 30
0.0
  0
VERTEX
  5
2F21
  8
0
 10
54.3827169604156708
 20
170.6253709517976915
 30
0.0
  0
VERTEX
  5
2F22
  8
0
 10
54.393027470664812
 20
170.6253031317718865
 30
0.0
  0
VERTEX
  5
2F23
  8
0
 10
54.4014127717867666
 20
170.6244592121703931
 30
0.0
  0
VERTEX
  5
2F24
  8
0
 10
54.4121685872126477
 20
170.6223088198701134
 30
0.0
  0
VERTEX
  5
2F25
  8
0
 10
54.4177462902635511
 20
170.6206974934412983
 30
0.0
  0
VERTEX
  5
2F26
  8
0
 10
54.4233514786554622
 20
170.6187147593452096
 30
0.0
  0
VERTEX
  5
2F27
  8
0
 10
54.4274650107092768
 20
170.6170143180389971
 30
0.0
  0
SEQEND
  5
2F28
  8
0
  0
POLYLINE
  5
28CC
  8
0
 66
     1
 10
0.0
 20
0.0
 30
0.0
  0
VERTEX
  5
2F29
  8
0
 10
54.297394566005643
 20
170.5694293243458901
 30
0.0
  0
VERTEX
  5
2F2A
  8
0
 10
54.2495422744475491
 20
170.4819950435552869
 30
0.0
  0
VERTEX
  5
2F2B
  8
0
 10
54.1749092873962965
 20
170.3771839272656905
 30
0.0
  0
VERTEX
  5
2F2C
  8
0
 10
54.0652293411188012
 20
170.2630868908765081
 30
0.0
  0
VERTEX
  5
2F2D
  8
0
 10
53.969416587599369
 20
170.1875068113641873
 30
0.0
  0
VERTEX
  5
2F2E
  8
0
 10
53.8517409498508286
 20
170.1172637775702015
 30
0.0
  0
VERTEX
  5
2F2F
  8
0
 10
53.7082913845777128
 20
170.0581006431752087
 30
0.0
  0
VERTEX
  5
2F30
  8
0
 10
53.5424067922531606
 20
170.0193098736727109
 30
0.0
  0
VERTEX
  5
2F31
  8
0
 10
53.420851976076932
 20
170.009308201004302
 30
0.0
  0
VERTEX
  5
2F32
  8
0
 10
53.2942825684027923
 20
170.0145184573931942
 30
0.0
  0
VERTEX
  5
2F33
  8
0
 10
53.1657877404483372
 20
170.0367258608831946
 30
0.0
  0
VERTEX
  5
2F34
  8
0
 10
53.0400867553277422
 20
170.075701752652293
 30
0.0
  0
VERTEX
  5
2F35
  8
0
 10
52.9291077500785434
 20
170.126458860320696
 30
0.0
  0
VERTEX
  5
2F36
  8
0
 10
52.8269549201832618
 20
170.1889089976565117
 30
0.0
  0
VERTEX
  5
2F37
  8
0
 10
52.7347064511384289
 20
170.2617602520693083
 30
0.0
  0
VERTEX
  5
2F38
  8
0
 10
52.6549112151858978
 20
170.3411282925424075
 30
0.0
  0
VERTEX
  5
2F39
  8
0
 10
52.5814884662352995
 20
170.4334014617342064
 30
0.0
  0
VERTEX
  5
2F3A
  8
0
 10
52.5231257882905211
 20
170.5268007490167008
 30
0.0
  0
VERTEX
  5
2F3B
  8
0
 10
52.4573157771037586
 20
170.6730000014559039
 30
0.0
  0
VERTEX
  5
2F3C
  8
0
 10
52.4195449871559731
 20
170.8082480682201094
 30
0.0
  0
VERTEX
  5
2F3D
  8
0
 10
52.3991634081761788
 20
170.9888233759992033
 30
0.0
  0
VERTEX
  5
2F3E
  8
0
 10
52.4063903682507188
 20
171.1288130031973083
 30
0.0
  0
VERTEX
  5
2F3F
  8
0
 10
52.4141480886832198
 20
171.181333197689213
 30
0.0
  0
SEQEND
  5
2F40
  8
0
  0
POLYLINE
  5
28CD
  8
0
 66
     1
 10
0.0
 20
0.0
 30
0.0
  0
VERTEX
  5
2F41
  8
0
 10
52.3368886805576423
 20
171.2962837479016116
 30
0.0
  0
VERTEX
  5
2F42
  8
0
 10
52.34188941725467
 20
171.2950609415304939
 30
0.0
  0
VERTEX
  5
2F43
  8
0
 10
52.34774928958808
 20
171.2932726357871047
 30
0.0
  0
VERTEX
  5
2F44
  8
0
 10
52.3560968407243692
 20
171.2900190737290984
 30
0.0
  0
VERTEX
  5
2F45
  8
0
 10
52.3775093048544989
 20
171.2771330315761134
 30
0.0
  0
VERTEX
  5
2F46
  8
0
 10
52.4007813979721391
 20
171.2518040123264882
 30
0.0
  0
VERTEX
  5
2F47
  8
0
 10
52.4121910209076418
 20
171.2246185437597887
 30
0.0
  0
VERTEX
  5
2F48
  8
0
 10
52.4141480886832198
 20
171.181333197689213
 30
0.0
  0
SEQEND
  5
2F49
  8
0
  0
ARC
  5
28CE
  8
0
 10
49.9999956736077067
 20
160.5473587382496987
 30
0.0
 40
11.0000208085735203
 50
77.7343600935142547
 51
78.2656397221474265
  0
POLYLINE
  5
28CF
  8
0
 66
     1
 10
0.0
 20
0.0
 30
0.0
  0
VERTEX
  5
2F4A
  8
0
 10
52.1197847749448613
 20
171.2439020515392087
 30
0.0
  0
VERTEX
  5
2F4B
  8
0
 10
52.1462669710851401
 20
171.2904861068683999
 30
0.0
  0
VERTEX
  5
2F4C
  8
0
 10
52.1642065315226091
 20
171.3046439218013859
 30
0.0
  0
VERTEX
  5
2F4D
  8
0
 10
52.1792874369470994
 20
171.3122849659285976
 30
0.0
  0
VERTEX
  5
2F4E
  8
0
 10
52.1916249094186284
 20
171.3163641644669895
 30
0.0
  0
VERTEX
  5
2F4F
  8
0
 10
52.2017247727657718
 20
171.3184401716654008
 30
0.0
  0
VERTEX
  5
2F50
  8
0
 10
52.2101028391038469
 20
171.3193569611040061
 30
0.0
  0
VERTEX
  5
2F51
  8
0
 10
52.2210756688031381
 20
171.3194880396171982
 30
0.0
  0
VERTEX
  5
2F52
  8
0
 10
52.226866821751031
 20
171.3190704390426902
 30
0.0
  0
VERTEX
  5
2F53
  8
0
 10
52.2327554582704678
 20
171.3182962531799092
 30
0.0
  0
VERTEX
  5
2F54
  8
0
 10
52.237119391861853
 20
171.3174903650348142
 30
0.0
  0
SEQEND
  5
2F55
  8
0
  0
POLYLINE
  5
28D0
  8
0
 66
     1
 10
0.0
 20
0.0
 30
0.0
  0
VERTEX
  5
2F56
  8
0
 10
52.1197847749448613
 20
171.2439020515392087
 30
0.0
  0
VERTEX
  5
2F57
  8
0
 10
52.0911894408700604
 20
171.148524512702096
 30
0.0
  0
VERTEX
  5
2F58
  8
0
 10
52.0400598368489966
 20
171.0306169818182127
 30
0.0
  0
VERTEX
  5
2F59
  8
0
 10
51.9566556577624894
 20
170.8963534219805069
 30
0.0
  0
VERTEX
  5
2F5A
  8
0
 10
51.8786945814350418
 20
170.8024695548506884
 30
0.0
  0
VERTEX
  5
2F5B
  8
0
 10
51.7782301664619808
 20
170.7092433538107059
 30
0.0
  0
VERTEX
  5
2F5C
  8
0
 10
51.6502344110616107
 20
170.6214784054764948
 30
0.0
  0
VERTEX
  5
2F5D
  8
0
 10
51.496031993928419
 20
170.5489661828270869
 30
0.0
  0
VERTEX
  5
2F5E
  8
0
 10
51.3792244336884494
 20
170.5138650516774135
 30
0.0
  0
VERTEX
  5
2F5F
  8
0
 10
51.2543378903588405
 20
170.4925976604023106
 30
0.0
  0
VERTEX
  5
2F60
  8
0
 10
51.1240204720199571
 20
170.4875558726218117
 30
0.0
  0
VERTEX
  5
2F61
  8
0
 10
50.9929376982649387
 20
170.4995015385485999
 30
0.0
  0
VERTEX
  5
2F62
  8
0
 10
50.8738120321376073
 20
170.5260382581332124
 30
0.0
  0
VERTEX
  5
2F63
  8
0
 10
50.7608812671052476
 20
170.565853404201988
 30
0.0
  0
VERTEX
  5
2F64
  8
0
 10
50.6554835781363124
 20
170.617901336609691
 30
0.0
  0
VERTEX
  5
2F65
  8
0
 10
50.5609066847593525
 20
170.6789187047610881
 30
0.0
  0
VERTEX
  5
2F66
  8
0
 10
50.4698833196486021
 20
170.7538800112473041
 30
0.0
  0
VERTEX
  5
2F67
  8
0
 10
50.3933522435142223
 20
170.8330809679644062
 30
0.0
  0
VERTEX
  5
2F68
  8
0
 10
50.2985581910725728
 20
170.9623508183809975
 30
0.0
  0
VERTEX
  5
2F69
  8
0
 10
50.2334562867142083
 20
171.0867573579866985
 30
0.0
  0
VERTEX
  5
2F6A
  8
0
 10
50.175919291661387
 20
171.2591193578392961
 30
0.0
  0
VERTEX
  5
2F6B
  8
0
 10
50.1538306349709728
 20
171.3975714213775063
 30
0.0
  0
VERTEX
  5
2F6C
  8
0
 10
50.1504697826367973
 20
171.4508853978030061
 30
0.0
  0
SEQEND
  5
2F6D
  8
0
  0
ARC
  5
28D1
  8
0
 10
49.9999999999999432
 20
160.5473790923246895
 30
0.0
 40
9.2800000000000509
 50
75.8895545221810863
 51
104.1104454778188995
  0
ARC
  5
28D2
  8
0
 10
49.9999999999999432
 20
160.5473790923246895
 30
0.0
 40
9.2800000000000047
 50
149.5496859786443054
 51
210.4503140213556946
  0
ARC
  5
28D3
  8
0
 10
49.9999999999999432
 20
160.5473790923248032
 30
0.0
 40
9.2800000000000438
 50
255.8895545221809869
 51
284.1104454778189279
  0
ARC
  5
28D4
  8
0
 10
49.9999999999999432
 20
160.5473790923246895
 30
0.0
 40
8.0000000000000036
 50
331.0449756281406053
 51
28.9550243718594196
  0
ARC
  5
28D5
  8
0
 10
49.9999999999999218
 20
160.5473790923246895
 30
0.0
 40
7.9999999999999893
 50
151.0449756281406053
 51
208.9550243718593947
  0
LINE
  5
28DC
  8
0
 10
42.9999999999999432
 20
164.4473790923248089
 30
0.0
 11
42.9999999999999432
 21
156.6473790923247975
 31
0.0
  0
LINE
  5
28DD
  8
0
 10
56.9999999999999432
 20
156.6473790923247975
 30
0.0
 11
56.9999999999999432
 21
164.4473790923248089
 31
0.0
  0
CIRCLE
  5
28E0
  8
3
 10
49.9999999999999716
 20
160.5473790923246895
 30
0.0
 40
2.5
  0
CIRCLE
  5
28E1
  8
0
 10
49.9999999999999432
 20
160.5473790923246895
 30
0.0
 40
2.0095000000000018
  0
ENDSEC
  0
EOF
