  0
SECTION
  2
HEADER
  9
$ACADVER
  1
AC1009
  9
$INSBASE
 10
0.0
 20
0.0
 30
0.0
  9
$EXTMIN
 10
0.0
 20
-2.960436562073669
 30
0.0
  9
$EXTMAX
 10
97.9454545454545666
 20
141.5473790923248032
 30
0.0
  9
$LIMMIN
 10
0.0
 20
0.0
  9
$LIMMAX
 10
187.5
 20
135.0
  9
$ORTHOMODE
 70
     0
  9
$REGENMODE
 70
     1
  9
$FILLMODE
 70
     1
  9
$QTEXTMODE
 70
     0
  9
$MIRRTEXT
 70
     0
  9
$DRAGMODE
 70
     2
  9
$LTSCALE
 40
5.0
  9
$OSMODE
 70
    37
  9
$ATTMODE
 70
     1
  9
$TEXTSIZE
 40
0.2
  9
$TRACEWID
 40
0.05
  9
$TEXTSTYLE
  7
STANDARD
  9
$CLAYER
  8
0
  9
$CELTYPE
  6
BYLAYER
  9
$CECOLOR
 62
   256
  9
$DIMSCALE
 40
0.5
  9
$DIMASZ
 40
3.0
  9
$DIMEXO
 40
2.0
  9
$DIMDLI
 40
0.38
  9
$DIMRND
 40
0.0
  9
$DIMDLE
 40
0.0
  9
$DIMEXE
 40
2.0
  9
$DIMTP
 40
0.0
  9
$DIMTM
 40
0.0
  9
$DIMTXT
 40
3.0
  9
$DIMCEN
 40
0.0
  9
$DIMTSZ
 40
0.0
  9
$DIMTOL
 70
     0
  9
$DIMLIM
 70
     0
  9
$DIMTIH
 70
     0
  9
$DIMTOH
 70
     0
  9
$DIMSE1
 70
     0
  9
$DIMSE2
 70
     0
  9
$DIMTAD
 70
     1
  9
$DIMZIN
 70
     0
  9
$DIMBLK
  1

  9
$DIMASO
 70
     0
  9
$DIMSHO
 70
     0
  9
$DIMPOST
  1

  9
$DIMAPOST
  1

  9
$DIMALT
 70
     0
  9
$DIMALTD
 70
     2
  9
$DIMALTF
 40
25.3999999999999986
  9
$DIMLFAC
 40
1.0
  9
$DIMTOFL
 70
     1
  9
$DIMTVP
 40
1.6000000000000001
  9
$DIMTIX
 70
     1
  9
$DIMSOXD
 70
     0
  9
$DIMSAH
 70
     0
  9
$DIMBLK1
  1

  9
$DIMBLK2
  1

  9
$DIMSTYLE
  2
STANDARD
  9
$DIMCLRD
 70
     0
  9
$DIMCLRE
 70
     0
  9
$DIMCLRT
 70
     0
  9
$DIMTFAC
 40
1.0
  9
$DIMGAP
 40
0.09
  9
$LUNITS
 70
     2
  9
$LUPREC
 70
     4
  9
$SKETCHINC
 40
0.1
  9
$FILLETRAD
 40
3.0
  9
$AUNITS
 70
     0
  9
$AUPREC
 70
     4
  9
$MENU
  1
E:\r13\win\SUPPORT\ACAD
  9
$ELEVATION
 40
0.0
  9
$PELEVATION
 40
0.0
  9
$THICKNESS
 40
0.0
  9
$LIMCHECK
 70
     0
  9
$BLIPMODE
 70
     0
  9
$CHAMFERA
 40
0.0
  9
$CHAMFERB
 40
0.0
  9
$SKPOLY
 70
     0
  9
$TDCREATE
 40
2451584.6354745370335877
  9
$TDUPDATE
 40
2460095.5803819447755814
  9
$TDINDWG
 40
0.1977327431
  9
$TDUSRTIMER
 40
2456689.2272117817774415
  9
$USRTIMER
 70
     1
  9
$ANGBASE
 50
0.0
  9
$ANGDIR
 70
     0
  9
$PDMODE
 70
     0
  9
$PDSIZE
 40
0.0
  9
$PLINEWID
 40
0.0
  9
$COORDS
 70
     1
  9
$SPLFRAME
 70
     0
  9
$SPLINETYPE
 70
     6
  9
$SPLINESEGS
 70
     8
  9
$ATTDIA
 70
     1
  9
$ATTREQ
 70
     1
  9
$HANDLING
 70
     1
  9
$HANDSEED
  5
2734
  9
$SURFTAB1
 70
     6
  9
$SURFTAB2
 70
     6
  9
$SURFTYPE
 70
     6
  9
$SURFU
 70
     6
  9
$SURFV
 70
     6
  9
$UCSNAME
  2

  9
$UCSORG
 10
0.0
 20
0.0
 30
0.0
  9
$UCSXDIR
 10
1.0
 20
0.0
 30
0.0
  9
$UCSYDIR
 10
0.0
 20
1.0
 30
0.0
  9
$PUCSNAME
  2

  9
$PUCSORG
 10
0.0
 20
0.0
 30
0.0
  9
$PUCSXDIR
 10
1.0
 20
0.0
 30
0.0
  9
$PUCSYDIR
 10
0.0
 20
1.0
 30
0.0
  9
$USERI1
 70
     0
  9
$USERI2
 70
     1
  9
$USERI3
 70
     1
  9
$USERI4
 70
     0
  9
$USERI5
 70
     0
  9
$USERR1
 40
0.0
  9
$USERR2
 40
0.0
  9
$USERR3
 40
0.0
  9
$USERR4
 40
0.0
  9
$USERR5
 40
0.0
  9
$WORLDVIEW
 70
     1
  9
$SHADEDGE
 70
     3
  9
$SHADEDIF
 70
    70
  9
$TILEMODE
 70
     1
  9
$MAXACTVP
 70
    16
  9
$PLIMCHECK
 70
     0
  9
$PEXTMIN
 10
1.0000000000000000E+20
 20
1.0000000000000000E+20
 30
1.0000000000000000E+20
  9
$PEXTMAX
 10
-1.0000000000000000E+20
 20
-1.0000000000000000E+20
 30
-1.0000000000000000E+20
  9
$PLIMMIN
 10
0.0
 20
0.0
  9
$PLIMMAX
 10
0.0
 20
0.0
  9
$UNITMODE
 70
     0
  9
$VISRETAIN
 70
     0
  9
$PLINEGEN
 70
     0
  9
$PSLTSCALE
 70
     0
  0
ENDSEC
  0
SECTION
  2
TABLES
  0
TABLE
  2
VPORT
 70
     1
  0
VPORT
  2
*ACTIVE
 70
     0
 10
0.0
 20
0.0
 11
1.0
 21
1.0
 12
232.5609756097560989
 22
100.0
 13
0.0
 23
0.0
 14
5.0
 24
5.0
 15
5.0
 25
5.0
 16
0.0
 26
0.0
 36
1.0
 17
0.0
 27
0.0
 37
0.0
 40
200.0
 41
2.325609756097561
 42
50.0
 43
0.0
 44
0.0
 50
0.0
 51
0.0
 71
    16
 72
   500
 73
     1
 74
     0
 75
     0
 76
     0
 77
     0
 78
     2
  0
ENDTAB
  0
TABLE
  2
LTYPE
 70
     3
  0
LTYPE
  2
CONTINUOUS
 70
     0
  3
Solid Line
 72
    65
 73
     0
 40
0.0
  0
LTYPE
  2
CENTER
 70
     0
  3
____ _ ____ _ ____ _ ____ _ ____ _ ____ _ ____
 72
    65
 73
     4
 40
2.0
 49
1.25
 49
-0.25
 49
0.25
 49
-0.25
  0
LTYPE
  2
PHANTOM2
 70
     0
  3
___ _ _ ___ _ _ ___ _ _ ___ _ _
 72
    65
 73
     6
 40
1.25
 49
0.625
 49
-0.125
 49
0.125
 49
-0.125
 49
0.125
 49
-0.125
  0
ENDTAB
  0
TABLE
  2
LAYER
 70
     4
  0
LAYER
  2
0
 70
     0
 62
     7
  6
CONTINUOUS
  0
LAYER
  2
1
 70
     0
 62
     1
  6
CENTER
  0
LAYER
  2
3
 70
     0
 62
     3
  6
CONTINUOUS
  0
LAYER
  2
DEFPOINTS
 70
     0
 62
     7
  6
CONTINUOUS
  0
ENDTAB
  0
TABLE
  2
STYLE
 70
     2
  0
STYLE
  2
STANDARD
 70
     0
 40
0.0
 41
1.0
 50
0.0
 71
     0
 42
0.2
  3
TXT
  4
BIGFONT
  0
STYLE
  2
STANDARD1
 70
     0
 40
0.0
 41
1.0
 50
0.0
 71
     0
 42
3.0
  3
txt
  4

  0
ENDTAB
  0
TABLE
  2
VIEW
 70
     1
  0
VIEW
  2
ALL
 70
     0
 40
175.0
 10
142.7371014838101075
 20
87.5
 41
0.0
 11
0.0
 21
0.0
 31
1.0
 12
0.0
 22
0.0
 32
0.0
 42
50.0
 43
0.0
 44
0.0
 50
0.0
 71
     0
  0
ENDTAB
  0
TABLE
  2
UCS
 70
     0
  0
ENDTAB
  0
TABLE
  2
APPID
 70
     9
  0
APPID
  2
ACAD
 70
     0
  0
APPID
  2
GENIUS_GENODEF_13
 70
     0
  0
APPID
  2
GENIUS_GENOBJ-N-FIL_13
 70
     0
  0
APPID
  2
GENIUS_GENOREF_13
 70
     0
  0
APPID
  2
GENIUS_GENFIL_13
 70
     0
  0
APPID
  2
GENIUS_GENOBJ-N-CHA_13
 70
     0
  0
APPID
  2
ACAD_MLEADERVER
 70
     0
  0
APPID
  2
ACAD_EXEMPT_FROM_CAD_STANDARDS
 70
     0
  0
APPID
  2
ACAD_NAV_VCDISPLAY
 70
     0
  0
ENDTAB
  0
TABLE
  2
DIMSTYLE
 70
     1
  0
DIMSTYLE
  2
STANDARD
 70
     0
  3

  4

  5

  6

  7

 40
1.0
 41
0.18
 42
0.0625
 43
0.38
 44
0.18
 45
0.0
 46
0.0
 47
0.0
 48
0.0
140
0.18
141
0.09
142
0.0
143
25.3999999999999986
144
1.0
145
0.0
146
1.0
147
0.09
 71
     0
 72
     0
 73
     1
 74
     1
 75
     0
 76
     0
 77
     0
 78
     0
170
     0
171
     2
172
     0
173
     0
174
     0
175
     0
176
     0
177
     0
178
     0
  0
ENDTAB
  0
ENDSEC
  0
SECTION
  2
BLOCKS
  0
BLOCK
  8
0
  2
$MODEL_SPACE
 70
     0
 10
0.0
 20
0.0
 30
0.0
  3
$MODEL_SPACE
  1

  0
ENDBLK
  5
49C
  8
0
  0
BLOCK
 67
     1
  8
0
  2
$PAPER_SPACE
 70
     0
 10
0.0
 20
0.0
 30
0.0
  3
$PAPER_SPACE
  1

  0
ENDBLK
  5
49A
 67
     1
  8
0
  0
ENDSEC
  0
SECTION
  2
ENTITIES
  0
TEXT
  5
11FF
  8
0
 62
     3
 10
0.0
 20
0.0
 30
0.0
 40
10.0
  1
ECL05
  7
STANDARD1
  0
LINE
  5
1D4D
  8
1
 10
43.4454545454545595
 20
62.4999999999999716
 30
0.0
 11
58.4454545454545666
 21
62.4999999999999716
 31
0.0
  0
LINE
  5
1D4E
  8
1
 10
43.4454545454545595
 20
61.9999999999999574
 30
0.0
 11
58.4454545454545311
 21
61.9999999999999716
 31
0.0
  0
POLYLINE
  5
1D4F
  8
0
 66
     1
 10
0.0
 20
0.0
 30
0.0
  0
VERTEX
  5
2123
  8
0
 10
85.9454545454545666
 20
60.3606678358366011
 30
0.0
  0
VERTEX
  5
2124
  8
0
 10
86.6186308716435178
 20
59.8353287772976117
 30
0.0
  0
VERTEX
  5
2125
  8
0
 10
87.2689715462039715
 20
59.286048041962367
 30
0.0
  0
VERTEX
  5
2126
  8
0
 10
87.9045640935678279
 20
58.7053120802638873
 30
0.0
  0
VERTEX
  5
2127
  8
0
 10
88.5125270089957326
 20
58.1047513930277404
 30
0.0
  0
SEQEND
  5
2128
  8
0
  0
POLYLINE
  5
1D50
  8
0
 66
     1
 10
0.0
 20
0.0
 30
0.0
  0
VERTEX
  5
2129
  8
0
 10
85.9454545454545666
 20
68.2640263746295943
 30
0.0
  0
VERTEX
  5
212A
  8
0
 10
86.7164867877724816
 20
68.0766402181751431
 30
0.0
  0
VERTEX
  5
212B
  8
0
 10
87.4807744218859682
 20
67.8847486326244649
 30
0.0
  0
VERTEX
  5
212C
  8
0
 10
88.2547387700976458
 20
67.6841139243169039
 30
0.0
  0
VERTEX
  5
212D
  8
0
 10
89.0105025584015834
 20
67.4820727910694131
 30
0.0
  0
VERTEX
  5
212E
  8
0
 10
89.7222042487060349
 20
67.2862071050742259
 30
0.0
  0
VERTEX
  5
212F
  8
0
 10
90.4068391886216602
 20
67.0926637293390797
 30
0.0
  0
VERTEX
  5
2130
  8
0
 10
91.0781562065943717
 20
66.8979446098035169
 30
0.0
  0
VERTEX
  5
2131
  8
0
 10
91.7108494914520946
 20
66.7099519728800345
 30
0.0
  0
VERTEX
  5
2132
  8
0
 10
92.2982853765787041
 20
66.5314772997303407
 30
0.0
  0
VERTEX
  5
2133
  8
0
 10
92.8416960335313775
 20
66.3629968905064942
 30
0.0
  0
SEQEND
  5
2134
  8
0
  0
POLYLINE
  5
1D51
  8
0
 66
     1
 10
0.0
 20
0.0
 30
0.0
  0
VERTEX
  5
2135
  8
0
 10
91.4293558524808674
 20
58.159091013153521
 30
0.0
  0
VERTEX
  5
2136
  8
0
 10
91.2115291513239299
 20
57.951931302046269
 30
0.0
  0
VERTEX
  5
2137
  8
0
 10
90.9674325039310645
 20
57.7809887117901511
 30
0.0
  0
VERTEX
  5
2138
  8
0
 10
90.7029207915743143
 20
57.6489881453677029
 30
0.0
  0
VERTEX
  5
2139
  8
0
 10
90.3378006615369031
 20
57.5390445363045586
 30
0.0
  0
VERTEX
  5
213A
  8
0
 10
89.9522720410049033
 20
57.5000116195951421
 30
0.0
  0
VERTEX
  5
213B
  8
0
 10
89.5629068386581366
 20
57.5372828269429704
 30
0.0
  0
VERTEX
  5
213C
  8
0
 10
89.1789429120998847
 20
57.6527155292343423
 30
0.0
  0
VERTEX
  5
213D
  8
0
 10
88.88844441678728
 20
57.8023918960597598
 30
0.0
  0
VERTEX
  5
213E
  8
0
 10
88.6219411911903592
 20
58.0005626384925819
 30
0.0
  0
VERTEX
  5
213F
  8
0
 10
88.5125270089957326
 20
58.1047513930277404
 30
0.0
  0
SEQEND
  5
2140
  8
0
  0
POLYLINE
  5
1D52
  8
0
 66
     1
 10
0.0
 20
0.0
 30
0.0
  0
VERTEX
  5
2141
  8
0
 10
94.3463246328139746
 20
61.7011607010010721
 30
0.0
  0
VERTEX
  5
2142
  8
0
 10
94.1424444758550152
 20
61.4309851840454826
 30
0.0
  0
VERTEX
  5
2143
  8
0
 10
93.9162639141860609
 20
61.1356169926847031
 30
0.0
  0
VERTEX
  5
2144
  8
0
 10
93.6705677166961834
 20
60.8198135129294499
 30
0.0
  0
VERTEX
  5
2145
  8
0
 10
93.2544417667623691
 20
60.2966678025901501
 30
0.0
  0
VERTEX
  5
2146
  8
0
 10
92.800847226732742
 20
59.7422761032961276
 30
0.0
  0
VERTEX
  5
2147
  8
0
 10
92.479296576576445
 20
59.3589147243212878
 30
0.0
  0
VERTEX
  5
2148
  8
0
 10
92.1439310388830961
 20
58.9672241535020802
 30
0.0
  0
VERTEX
  5
2149
  8
0
 10
91.7928886057018474
 20
58.5658333965412226
 30
0.0
  0
VERTEX
  5
214A
  8
0
 10
91.4293558524808674
 20
58.159091013153521
 30
0.0
  0
SEQEND
  5
214B
  8
0
  0
POLYLINE
  5
1D53
  8
0
 66
     1
 10
0.0
 20
0.0
 30
0.0
  0
VERTEX
  5
214C
  8
0
 10
94.9454545454545666
 20
63.5
 30
0.0
  0
VERTEX
  5
214D
  8
0
 10
94.9454395454358178
 20
63.4905131729415331
 30
0.0
  0
VERTEX
  5
214E
  8
0
 10
94.908655913888154
 20
63.0315582745812009
 30
0.0
  0
VERTEX
  5
214F
  8
0
 10
94.7999144054416547
 20
62.5769296301350266
 30
0.0
  0
VERTEX
  5
2150
  8
0
 10
94.613509980089944
 20
62.1283294135570472
 30
0.0
  0
VERTEX
  5
2151
  8
0
 10
94.3463246328139746
 20
61.7011607010010721
 30
0.0
  0
SEQEND
  5
2152
  8
0
  0
POLYLINE
  5
1D54
  8
0
 66
     1
 10
0.0
 20
0.0
 30
0.0
  0
VERTEX
  5
2153
  8
0
 10
92.8416960335313775
 20
66.3629968905064942
 30
0.0
  0
VERTEX
  5
2154
  8
0
 10
93.1924745006274549
 20
66.2285506358970935
 30
0.0
  0
VERTEX
  5
2155
  8
0
 10
93.5095903001375461
 20
66.0599764336654118
 30
0.0
  0
VERTEX
  5
2156
  8
0
 10
93.8000595031209059
 20
65.8580705416411973
 30
0.0
  0
VERTEX
  5
2157
  8
0
 10
94.0558101220143215
 20
65.6322287261181003
 30
0.0
  0
VERTEX
  5
2158
  8
0
 10
94.3620571255217158
 20
65.2776823518014027
 30
0.0
  0
VERTEX
  5
2159
  8
0
 10
94.6018651089457165
 20
64.8940885618150389
 30
0.0
  0
VERTEX
  5
215A
  8
0
 10
94.7813473323479343
 20
64.4786459690421339
 30
0.0
  0
VERTEX
  5
215B
  8
0
 10
94.8947867209630544
 20
64.0490352616275374
 30
0.0
  0
VERTEX
  5
215C
  8
0
 10
94.9454395454358178
 20
63.5094868270568611
 30
0.0
  0
VERTEX
  5
215D
  8
0
 10
94.9454545454545666
 20
63.5
 30
0.0
  0
SEQEND
  5
215E
  8
0
  0
ARC
  5
1D55
  8
0
 10
72.7503241079486145
 20
42.7570167163328705
 30
0.0
 40
22.0000000000000107
 50
53.1459532882686503
 51
111.6479274262791961
  0
ARC
  5
1D56
  8
0
 10
61.7719803653505366
 20
-32.8875586157407298
 30
0.0
 40
104.0000000000012932
 50
76.5593944675817255
 51
96.4753826053448051
  0
ARC
  5
1D57
  8
0
 10
50.9454545454545666
 20
62.4999999999999929
 30
0.0
 40
8.0000000000000018
 50
96.4753826053448051
 51
324.1992133584327007
  0
ARC
  5
1D58
  8
0
 10
69.5997374631061803
 20
49.0457170823483821
 30
0.0
 40
15.0000000000000195
 50
110.2533127853150035
 51
144.1992120493137008
  0
ARC
  5
1D59
  8
0
 10
60.9454545454627521
 20
72.4999999999779163
 30
0.0
 40
9.9999999999764526
 50
290.2533150620437823
 51
291.6479274262827062
  0
LINE
  5
1D7F
  8
1
 10
50.9454545454545666
 20
73.5473790923247748
 30
0.0
 11
50.9454545454545666
 21
37.0
 31
0.0
  0
LINE
  5
1D80
  8
0
 10
40.0
 20
48.956171578357619
 30
0.0
 11
40.0
 21
40.0
 31
0.0
  0
LINE
  5
1D81
  8
0
 10
61.890909090909112
 20
40.0
 30
0.0
 11
61.890909090909112
 21
48.9560330715042014
 31
0.0
  0
LINE
  5
1D82
  8
0
 10
40.0005004126436106
 20
48.9525562890667416
 30
0.0
 11
40.0005004126436106
 21
40.0
 31
0.0
  0
LINE
  5
1D83
  8
0
 10
61.8904086738949317
 20
48.9525562882540797
 30
0.0
 11
61.8904086738949317
 21
40.0
 31
0.0
  0
LINE
  5
1D84
  8
0
 10
40.0111621277887366
 20
48.9525562899413273
 30
0.0
 11
40.0111621277887366
 21
40.0
 31
0.0
  0
LINE
  5
1D85
  8
0
 10
61.8797469607671928
 20
48.9525562890667416
 30
0.0
 11
61.8797469607671928
 21
40.0
 31
0.0
  0
LINE
  5
1D86
  8
0
 10
40.1174071635176404
 20
49.3842024012019181
 30
0.0
 11
40.1174071635176404
 21
40.0
 31
0.0
  0
POLYLINE
  5
1D87
  8
0
 66
     1
 10
0.0
 20
0.0
 30
0.0
  0
VERTEX
  5
215F
  8
0
 10
41.1858297622496821
 20
50.7643553184463769
 30
0.0
  0
VERTEX
  5
2160
  8
0
 10
41.1821487135161135
 20
50.7435700154006568
 30
0.0
  0
VERTEX
  5
2161
  8
0
 10
41.1362978516551721
 20
50.6486606776980466
 30
0.0
  0
VERTEX
  5
2162
  8
0
 10
41.0413489630219033
 20
50.492300436767799
 30
0.0
  0
VERTEX
  5
2163
  8
0
 10
40.9476021264062808
 20
50.3371327393517518
 30
0.0
  0
VERTEX
  5
2164
  8
0
 10
40.8493297004064004
 20
50.1632194141589309
 30
0.0
  0
VERTEX
  5
2165
  8
0
 10
40.7031060185987883
 20
49.8645790040703574
 30
0.0
  0
VERTEX
  5
2166
  8
0
 10
40.5782593601504402
 20
49.5435882123584008
 30
0.0
  0
VERTEX
  5
2167
  8
0
 10
40.5291061031894628
 20
49.3842024012019607
 30
0.0
  0
SEQEND
  5
2168
  8
0
  0
LINE
  5
1D88
  8
0
 10
61.7735019273914574
 20
49.3842024012254228
 30
0.0
 11
61.7735019273914574
 21
40.0
 31
0.0
  0
POLYLINE
  5
1D89
  8
0
 66
     1
 10
0.0
 20
0.0
 30
0.0
  0
VERTEX
  5
2169
  8
0
 10
60.7050781535292927
 20
50.7646668779698729
 30
0.0
  0
VERTEX
  5
216A
  8
0
 10
60.7050781843119012
 20
50.7647176582618229
 30
0.0
  0
VERTEX
  5
216B
  8
0
 10
60.7393252226240676
 20
50.7844330799435397
 30
0.0
  0
VERTEX
  5
216C
  8
0
 10
60.8296118117689488
 20
50.7436640597045425
 30
0.0
  0
VERTEX
  5
216D
  8
0
 10
60.9629953809985068
 20
50.6488319817039496
 30
0.0
  0
VERTEX
  5
216E
  8
0
 10
61.1338587094811317
 20
50.4925685442044099
 30
0.0
  0
VERTEX
  5
216F
  8
0
 10
61.2723610598465314
 20
50.3375147470689299
 30
0.0
  0
VERTEX
  5
2170
  8
0
 10
61.4029100376424068
 20
50.1637190279797309
 30
0.0
  0
VERTEX
  5
2171
  8
0
 10
61.5803575005366213
 20
49.865296786454401
 30
0.0
  0
VERTEX
  5
2172
  8
0
 10
61.7203441280597929
 20
49.5445276983124998
 30
0.0
  0
VERTEX
  5
2173
  8
0
 10
61.7735019273850128
 20
49.3842024012234901
 30
0.0
  0
SEQEND
  5
2174
  8
0
  0
LINE
  5
1D8A
  8
0
 10
40.463433619770143
 20
48.9878125337698833
 30
0.0
 11
40.463433619770143
 21
40.0
 31
0.0
  0
POLYLINE
  5
1D8B
  8
0
 66
     1
 10
0.0
 20
0.0
 30
0.0
  0
VERTEX
  5
2175
  8
0
 10
40.463446142000258
 20
48.987028812453687
 30
0.0
  0
VERTEX
  5
2176
  8
0
 10
40.4644539966934431
 20
49.0165409370847769
 30
0.0
  0
VERTEX
  5
2177
  8
0
 10
40.4925003684926992
 20
49.2295893644312272
 30
0.0
  0
VERTEX
  5
2178
  8
0
 10
40.5291061031894628
 20
49.3842024012019607
 30
0.0
  0
SEQEND
  5
2179
  8
0
  0
LINE
  5
1D8C
  8
0
 10
61.4274754711389619
 20
40.0
 30
0.0
 11
61.4274754711389619
 21
48.9843521703777682
 31
0.0
  0
POLYLINE
  5
1D8D
  8
0
 66
     1
 10
0.0
 20
0.0
 30
0.0
  0
VERTEX
  5
217A
  8
0
 10
61.4274752978399974
 20
48.9842565451855307
 30
0.0
  0
VERTEX
  5
217B
  8
0
 10
61.4274039578175177
 20
48.976941600343082
 30
0.0
  0
VERTEX
  5
217C
  8
0
 10
61.4263882696514827
 20
48.9614103132360086
 30
0.0
  0
VERTEX
  5
217D
  8
0
 10
61.4253680933625787
 20
48.9562256852998772
 30
0.0
  0
VERTEX
  5
217E
  8
0
 10
61.4239824190713932
 20
48.9532307911882825
 30
0.0
  0
VERTEX
  5
217F
  8
0
 10
61.4227233695397388
 20
48.9525562890667416
 30
0.0
  0
SEQEND
  5
2180
  8
0
  0
LINE
  5
1D8E
  8
0
 10
40.4681857080452403
 20
48.9525562890667629
 30
0.0
 11
40.4681857080452403
 21
40.0
 31
0.0
  0
LINE
  5
1D8F
  8
0
 10
61.4227233695397388
 20
48.9525562879645406
 30
0.0
 11
61.4227233695397388
 21
40.0
 31
0.0
  0
LINE
  5
1D90
  8
0
 10
40.4997048857715569
 20
48.9525562901744493
 30
0.0
 11
40.4997048857715569
 21
40.0
 31
0.0
  0
LINE
  5
1D91
  8
0
 10
61.3912041983796186
 20
48.9525562890667487
 30
0.0
 11
61.3912041983796186
 21
40.0
 31
0.0
  0
LINE
  5
1D92
  8
0
 10
47.0454545454545467
 20
55.5150161059598375
 30
0.0
 11
47.0454545454545467
 21
53.5
 31
0.0
  0
LINE
  5
1D93
  8
0
 10
54.8454545454545723
 20
53.5
 30
0.0
 11
54.8454545454545723
 21
55.5150161059598588
 31
0.0
  0
LINE
  5
1D94
  8
0
 10
40.6221015431388466
 20
49.3842024012019181
 30
0.0
 11
40.6221015431388466
 21
40.0
 31
0.0
  0
POLYLINE
  5
1D95
  8
0
 66
     1
 10
0.0
 20
0.0
 30
0.0
  0
VERTEX
  5
2181
  8
0
 10
41.8964509902241318
 20
50.6987095083474486
 30
0.0
  0
VERTEX
  5
2182
  8
0
 10
41.8907764110680034
 20
50.6486640413386198
 30
0.0
  0
VERTEX
  5
2183
  8
0
 10
41.8409305404858785
 20
50.4923057009635912
 30
0.0
  0
VERTEX
  5
2184
  8
0
 10
41.7762800853117469
 20
50.337140240051923
 30
0.0
  0
VERTEX
  5
2185
  8
0
 10
41.7010132527566597
 20
50.1632292241241018
 30
0.0
  0
VERTEX
  5
2186
  8
0
 10
41.5804212315797486
 20
49.8645930974044731
 30
0.0
  0
VERTEX
  5
2187
  8
0
 10
41.4715464685679933
 20
49.5436066583675014
 30
0.0
  0
VERTEX
  5
2188
  8
0
 10
41.4275062032681376
 20
49.3842024012019465
 30
0.0
  0
SEQEND
  5
2189
  8
0
  0
LINE
  5
1D96
  8
0
 10
61.2688075477702512
 20
49.3842024012269292
 30
0.0
 11
61.2688075477702512
 21
40.0
 31
0.0
  0
POLYLINE
  5
1D97
  8
0
 66
     1
 10
0.0
 20
0.0
 30
0.0
  0
VERTEX
  5
218A
  8
0
 10
59.9944563301294522
 20
50.6990401739210199
 30
0.0
  0
VERTEX
  5
218B
  8
0
 10
60.0164022280242122
 20
50.7647600683842626
 30
0.0
  0
VERTEX
  5
218C
  8
0
 10
60.1038371665140971
 20
50.7844234558019068
 30
0.0
  0
VERTEX
  5
218D
  8
0
 10
60.2387135878259912
 20
50.7436133339561266
 30
0.0
  0
VERTEX
  5
218E
  8
0
 10
60.4080913787804192
 20
50.6487395748288165
 30
0.0
  0
VERTEX
  5
218F
  8
0
 10
60.6065297880262506
 20
50.4924239154969783
 30
0.0
  0
VERTEX
  5
2190
  8
0
 10
60.7588159899498521
 20
50.337308677088771
 30
0.0
  0
VERTEX
  5
2191
  8
0
 10
60.8972755387367215
 20
50.1634495176213235
 30
0.0
  0
VERTEX
  5
2192
  8
0
 10
61.0789943433540472
 20
49.8649095827720075
 30
0.0
  0
VERTEX
  5
2193
  8
0
 10
61.217454380311068
 20
49.5440208930477581
 30
0.0
  0
VERTEX
  5
2194
  8
0
 10
61.2688075477636502
 20
49.3842024012248686
 30
0.0
  0
SEQEND
  5
2195
  8
0
  0
LINE
  5
1D98
  8
0
 10
41.3806113724563716
 20
49.0382445380369276
 30
0.0
 11
41.3806113724563716
 21
40.0
 31
0.0
  0
POLYLINE
  5
1D99
  8
0
 66
     1
 10
0.0
 20
0.0
 30
0.0
  0
VERTEX
  5
2196
  8
0
 10
41.3806172027196908
 20
49.0377119266375701
 30
0.0
  0
VERTEX
  5
2197
  8
0
 10
41.3962914272126383
 20
49.2276888960464731
 30
0.0
  0
VERTEX
  5
2198
  8
0
 10
41.4275062032681376
 20
49.3842024012019465
 30
0.0
  0
SEQEND
  5
2199
  8
0
  0
LINE
  5
1D9A
  8
0
 10
60.5102977184527617
 20
40.0
 30
0.0
 11
60.5102977184527617
 21
49.0353252427250297
 31
0.0
  0
POLYLINE
  5
1D9B
  8
0
 66
     1
 10
0.0
 20
0.0
 30
0.0
  0
VERTEX
  5
219A
  8
0
 10
60.5102974793463417
 20
49.0352481850596078
 30
0.0
  0
VERTEX
  5
219B
  8
0
 10
60.5101201075303265
 20
49.0183296616335014
 30
0.0
  0
VERTEX
  5
219C
  8
0
 10
60.5089761027756978
 20
48.9935032474800209
 30
0.0
  0
VERTEX
  5
219D
  8
0
 10
60.5072613351577502
 20
48.9769768289561895
 30
0.0
  0
VERTEX
  5
219E
  8
0
 10
60.5040011102263904
 20
48.9614399112843515
 30
0.0
  0
VERTEX
  5
219F
  8
0
 10
60.5018165767046696
 20
48.9562453738383283
 30
0.0
  0
VERTEX
  5
21A0
  8
0
 10
60.4987041821896696
 20
48.9529207260796611
 30
0.0
  0
VERTEX
  5
21A1
  8
0
 10
60.4971311420822033
 20
48.952556288926381
 30
0.0
  0
SEQEND
  5
21A2
  8
0
  0
LINE
  5
1D9C
  8
0
 10
41.3937779271555186
 20
48.9525562890667416
 30
0.0
 11
41.3937779271555186
 21
40.0
 31
0.0
  0
LINE
  5
1D9D
  8
0
 10
60.4971311420582367
 20
48.9525562882245922
 30
0.0
 11
60.4971311420582367
 21
40.0
 31
0.0
  0
LINE
  5
1D9E
  8
0
 10
41.4447770281506394
 20
48.9525562884481786
 30
0.0
 11
41.4447770281506394
 21
40.0
 31
0.0
  0
LINE
  5
1D9F
  8
0
 10
60.4461320518911904
 20
48.9525562890667487
 30
0.0
 11
60.4461320518911904
 21
40.0
 31
0.0
  0
LINE
  5
1DA0
  8
0
 10
60.3129331050040989
 20
49.3842024012314127
 30
0.0
 11
60.3129331050040989
 21
40.0
 31
0.0
  0
POLYLINE
  5
1DA1
  8
0
 66
     1
 10
0.0
 20
0.0
 30
0.0
  0
VERTEX
  5
21A3
  8
0
 10
58.8446414879481878
 20
50.5865281497376102
 30
0.0
  0
VERTEX
  5
21A4
  8
0
 10
58.8447632201043902
 20
50.5864141211456371
 30
0.0
  0
VERTEX
  5
21A5
  8
0
 10
58.8591617696306386
 20
50.682689048048239
 30
0.0
  0
VERTEX
  5
21A6
  8
0
 10
58.9313190990366707
 20
50.7647783711624712
 30
0.0
  0
VERTEX
  5
21A7
  8
0
 10
59.0680862162434366
 20
50.7844192886057471
 30
0.0
  0
VERTEX
  5
21A8
  8
0
 10
59.2416309829465604
 20
50.7435914154607275
 30
0.0
  0
VERTEX
  5
21A9
  8
0
 10
59.4395776834747096
 20
50.6486996522928834
 30
0.0
  0
VERTEX
  5
21AA
  8
0
 10
59.6568971996550204
 20
50.4923614337095472
 30
0.0
  0
VERTEX
  5
21AB
  8
0
 10
59.8162919811236904
 20
50.3372196506937399
 30
0.0
  0
VERTEX
  5
21AC
  8
0
 10
59.956596979349861
 20
50.163333082992871
 30
0.0
  0
VERTEX
  5
21AD
  8
0
 10
60.1346312573874897
 20
49.8647423055989805
 30
0.0
  0
VERTEX
  5
21AE
  8
0
 10
60.2655166794151
 20
49.543801949892412
 30
0.0
  0
VERTEX
  5
21AF
  8
0
 10
60.3129331049969508
 20
49.3842024012289826
 30
0.0
  0
SEQEND
  5
21B0
  8
0
  0
LINE
  5
1DA2
  8
0
 10
41.5779759859049989
 20
49.3842024012019181
 30
0.0
 11
41.5779759859049989
 21
40.0
 31
0.0
  0
POLYLINE
  5
1DA3
  8
0
 66
     1
 10
0.0
 20
0.0
 30
0.0
  0
VERTEX
  5
21B1
  8
0
 10
43.0462602059040975
 20
50.5840110636693083
 30
0.0
  0
VERTEX
  5
21B2
  8
0
 10
43.0384221767427206
 20
50.4923185760167286
 30
0.0
  0
VERTEX
  5
21B3
  8
0
 10
43.0056952477309835
 20
50.337158585078889
 30
0.0
  0
VERTEX
  5
21B4
  8
0
 10
42.9567251098919414
 20
50.1632532170815111
 30
0.0
  0
VERTEX
  5
21B5
  8
0
 10
42.8670372666750481
 20
49.8646275665803387
 30
0.0
  0
VERTEX
  5
21B6
  8
0
 10
42.7788938224227309
 20
49.5436517732863635
 30
0.0
  0
VERTEX
  5
21B7
  8
0
 10
42.7418863180837434
 20
49.3842024012019394
 30
0.0
  0
SEQEND
  5
21B8
  8
0
  0
LINE
  5
1DA4
  8
0
 10
42.7114481891591069
 20
49.1082980853596922
 30
0.0
 11
42.7114481891591069
 21
40.0
 31
0.0
  0
POLYLINE
  5
1DA5
  8
0
 66
     1
 10
0.0
 20
0.0
 30
0.0
  0
VERTEX
  5
21B9
  8
0
 10
42.7114721850726582
 20
49.1076375834738883
 30
0.0
  0
VERTEX
  5
21BA
  8
0
 10
42.7174631106595086
 20
49.2242107874800112
 30
0.0
  0
VERTEX
  5
21BB
  8
0
 10
42.7418863180837434
 20
49.3842024012019394
 30
0.0
  0
SEQEND
  5
21BC
  8
0
  0
LINE
  5
1DA6
  8
0
 10
59.1794609017499909
 20
40.0
 30
0.0
 11
59.1794609017499909
 21
49.1006567733065111
 31
0.0
  0
POLYLINE
  5
1DA7
  8
0
 66
     1
 10
0.0
 20
0.0
 30
0.0
  0
VERTEX
  5
21BD
  8
0
 10
59.1794608289538928
 20
49.1006244442736914
 30
0.0
  0
VERTEX
  5
21BE
  8
0
 10
59.1785010066136508
 20
49.0555129514849568
 30
0.0
  0
VERTEX
  5
21BF
  8
0
 10
59.1758726785864368
 20
49.0184221190703369
 30
0.0
  0
VERTEX
  5
21C0
  8
0
 10
59.172626991769107
 20
48.9935816952890306
 30
0.0
  0
VERTEX
  5
21C1
  8
0
 10
59.1692375144686196
 20
48.9770415218904631
 30
0.0
  0
VERTEX
  5
21C2
  8
0
 10
59.1638826011428591
 20
48.9614945115483167
 30
0.0
  0
VERTEX
  5
21C3
  8
0
 10
59.1606305592910928
 20
48.9562817507886265
 30
0.0
  0
VERTEX
  5
21C4
  8
0
 10
59.1562511088123415
 20
48.952932197644742
 30
0.0
  0
VERTEX
  5
21C5
  8
0
 10
59.1540848133036832
 20
48.9525562889036223
 30
0.0
  0
SEQEND
  5
21C6
  8
0
  0
LINE
  5
1DA8
  8
0
 10
59.1540848132756309
 20
48.9525562892582329
 30
0.0
 11
59.1540848132756309
 21
40.0
 31
0.0
  0
LINE
  5
1DA9
  8
0
 10
42.7368242456588803
 20
48.9525562890667416
 30
0.0
 11
42.7368242456588803
 21
40.0
 31
0.0
  0
LINE
  5
1DAA
  8
0
 10
42.8050743673446732
 20
48.9525562883360834
 30
0.0
 11
42.8050743673446732
 21
40.0
 31
0.0
  0
LINE
  5
1DAB
  8
0
 10
59.0858347380661826
 20
48.9525562890667416
 30
0.0
 11
59.0858347380661826
 21
40.0
 31
0.0
  0
LINE
  5
1DAC
  8
0
 10
58.9454545454545666
 20
53.5
 30
0.0
 11
42.9454545454545595
 21
53.5
 31
0.0
  0
LINE
  5
1DAD
  8
0
 10
42.9454545454545595
 20
53.5
 30
0.0
 11
42.9454545454545595
 21
51.25
 31
0.0
  0
LINE
  5
1DAE
  8
0
 10
58.9454545454545666
 20
51.25
 30
0.0
 11
58.9454545454545666
 21
53.5
 31
0.0
  0
LINE
  5
1DAF
  8
0
 10
42.9432541918727111
 20
49.3842024012019181
 30
0.0
 11
42.9432541918727111
 21
40.0
 31
0.0
  0
POLYLINE
  5
1DB0
  8
0
 66
     1
 10
0.0
 20
0.0
 30
0.0
  0
VERTEX
  5
21C7
  8
0
 10
44.5850143239229766
 20
50.4137422596541214
 30
0.0
  0
VERTEX
  5
21C8
  8
0
 10
44.5821104478938182
 20
50.337192971264102
 30
0.0
  0
VERTEX
  5
21C9
  8
0
 10
44.5615794891228418
 20
50.1632981897807397
 30
0.0
  0
VERTEX
  5
21CA
  8
0
 10
44.5067188533152702
 20
49.8646921762875266
 30
0.0
  0
VERTEX
  5
21CB
  8
0
 10
44.4431614379576629
 20
49.5437363378277098
 30
0.0
  0
VERTEX
  5
21CC
  8
0
 10
44.4148017295207467
 20
49.3842024011866627
 30
0.0
  0
SEQEND
  5
21CD
  8
0
  0
LINE
  5
1DB1
  8
0
 10
58.9476548990363867
 20
49.3842024012323293
 30
0.0
 11
58.9476548990363867
 21
40.0
 31
0.0
  0
POLYLINE
  5
1DB2
  8
0
 66
     1
 10
0.0
 20
0.0
 30
0.0
  0
VERTEX
  5
21CE
  8
0
 10
57.3058929301632816
 20
50.4145337259673383
 30
0.0
  0
VERTEX
  5
21CF
  8
0
 10
57.3073614309847983
 20
50.4665767633804592
 30
0.0
  0
VERTEX
  5
21D0
  8
0
 10
57.3278866836687584
 20
50.5864499294779719
 30
0.0
  0
VERTEX
  5
21D1
  8
0
 10
57.3772665496044567
 20
50.6827114662122966
 30
0.0
  0
VERTEX
  5
21D2
  8
0
 10
57.4972242569130927
 20
50.7647879087878522
 30
0.0
  0
VERTEX
  5
21D3
  8
0
 10
57.6773332519587996
 20
50.7844171137797318
 30
0.0
  0
VERTEX
  5
21D4
  8
0
 10
57.8819518018284498
 20
50.7435799872189719
 30
0.0
  0
VERTEX
  5
21D5
  8
0
 10
58.0998079169673431
 20
50.6486788382992685
 30
0.0
  0
VERTEX
  5
21D6
  8
0
 10
58.3265029655153384
 20
50.4923288587481309
 30
0.0
  0
VERTEX
  5
21D7
  8
0
 10
58.4860326862101374
 20
50.3371732364153885
 30
0.0
  0
VERTEX
  5
21D8
  8
0
 10
58.6220462757243013
 20
50.1632723791494683
 30
0.0
  0
VERTEX
  5
21D9
  8
0
 10
58.7886104813356098
 20
49.8646550955880699
 30
0.0
  0
VERTEX
  5
21DA
  8
0
 10
58.9062030636777365
 20
49.543687804643227
 30
0.0
  0
VERTEX
  5
21DB
  8
0
 10
58.9476548990299705
 20
49.3842024012298211
 30
0.0
  0
SEQEND
  5
21DC
  8
0
  0
LINE
  5
1DB3
  8
0
 10
44.3977801149249203
 20
49.178791697173267
 30
0.0
 11
44.3977801149249203
 21
40.0
 31
0.0
  0
POLYLINE
  5
1DB4
  8
0
 66
     1
 10
0.0
 20
0.0
 30
0.0
  0
VERTEX
  5
21DD
  8
0
 10
44.3977893914093826
 20
49.178592875634962
 30
0.0
  0
VERTEX
  5
21DE
  8
0
 10
44.3988196708060627
 20
49.2260881550157734
 30
0.0
  0
VERTEX
  5
21DF
  8
0
 10
44.4148017295207467
 20
49.3842024011866627
 30
0.0
  0
SEQEND
  5
21E0
  8
0
  0
LINE
  5
1DB5
  8
0
 10
57.4931289759841775
 20
40.0
 30
0.0
 11
57.4931289759841775
 21
49.1740675626953987
 31
0.0
  0
POLYLINE
  5
1DB6
  8
0
 66
     1
 10
0.0
 20
0.0
 30
0.0
  0
VERTEX
  5
21E1
  8
0
 10
57.4931289231710423
 20
49.1740471813264435
 30
0.0
  0
VERTEX
  5
21E2
  8
0
 10
57.4915291029492366
 20
49.1105083377288878
 30
0.0
  0
VERTEX
  5
21E3
  8
0
 10
57.4871221608535521
 20
49.0554339147356728
 30
0.0
  0
VERTEX
  5
21E4
  8
0
 10
57.4819030978953478
 20
49.0183577297233271
 30
0.0
  0
VERTEX
  5
21E5
  8
0
 10
57.4766919929727393
 20
48.9935296646905911
 30
0.0
  0
VERTEX
  5
21E6
  8
0
 10
57.4717711201605468
 20
48.9770001661446273
 30
0.0
  0
VERTEX
  5
21E7
  8
0
 10
57.4645401082921694
 20
48.9614609807285674
 30
0.0
  0
VERTEX
  5
21E8
  8
0
 10
57.4603581027368975
 20
48.9562596940739709
 30
0.0
  0
VERTEX
  5
21E9
  8
0
 10
57.4548991699412781
 20
48.9529253653133765
 30
0.0
  0
VERTEX
  5
21EA
  8
0
 10
57.4522819524348805
 20
48.9525562889174992
 30
0.0
  0
SEQEND
  5
21EB
  8
0
  0
LINE
  5
1DB7
  8
0
 10
57.4522819524110488
 20
48.9525562890764476
 30
0.0
 11
57.4522819524110488
 21
40.0
 31
0.0
  0
LINE
  5
1DB8
  8
0
 10
44.4386270997697679
 20
48.9525562890667416
 30
0.0
 11
44.4386270997697679
 21
40.0
 31
0.0
  0
LINE
  5
1DB9
  8
0
 10
44.5211453822000109
 20
48.9525562909950978
 30
0.0
 11
44.5211453822000109
 21
40.0
 31
0.0
  0
LINE
  5
1DBA
  8
0
 10
57.3697637154708389
 20
48.9525562890667416
 30
0.0
 11
57.3697637154708389
 21
40.0
 31
0.0
  0
CIRCLE
  5
1DBB
  8
0
 10
50.9454545454545666
 20
62.5
 30
0.0
 40
4.5
  0
LINE
  5
1DBC
  8
0
 10
57.232642138799541
 20
49.384202401201982
 30
0.0
 11
57.232642138799541
 21
40.0
 31
0.0
  0
POLYLINE
  5
1DBD
  8
0
 66
     1
 10
0.0
 20
0.0
 30
0.0
  0
VERTEX
  5
21EC
  8
0
 10
55.4454546330745188
 20
50.1730697261164167
 30
0.0
  0
VERTEX
  5
21ED
  8
0
 10
55.4454644245553823
 20
50.1797175487538922
 30
0.0
  0
VERTEX
  5
21EE
  8
0
 10
55.4534450865199915
 20
50.3300854668881783
 30
0.0
  0
VERTEX
  5
21EF
  8
0
 10
55.4800231327502615
 20
50.4666041762290689
 30
0.0
  0
VERTEX
  5
21F0
  8
0
 10
55.5320791560111502
 20
50.5864695256822188
 30
0.0
  0
VERTEX
  5
21F1
  8
0
 10
55.6142767919441496
 20
50.6827237348930026
 30
0.0
  0
VERTEX
  5
21F2
  8
0
 10
55.7767856253021534
 20
50.7647931279455733
 30
0.0
  0
VERTEX
  5
21F3
  8
0
 10
55.9923588302718827
 20
50.7844159227215215
 30
0.0
  0
VERTEX
  5
21F4
  8
0
 10
56.219103947532119
 20
50.7435737316080875
 30
0.0
  0
VERTEX
  5
21F5
  8
0
 10
56.4473444640353605
 20
50.6486674455356578
 30
0.0
  0
VERTEX
  5
21F6
  8
0
 10
56.6735040699425099
 20
50.492311028640728
 30
0.0
  0
VERTEX
  5
21F7
  8
0
 10
56.8261931378323766
 20
50.3371478311990472
 30
0.0
  0
VERTEX
  5
21F8
  8
0
 10
56.9519688719284929
 20
50.1632391523793402
 30
0.0
  0
VERTEX
  5
21F9
  8
0
 10
57.0997817276627586
 20
49.8646073606941727
 30
0.0
  0
VERTEX
  5
21FA
  8
0
 10
57.1989437967956675
 20
49.5436253268376703
 30
0.0
  0
VERTEX
  5
21FB
  8
0
 10
57.232642138799541
 20
49.384202401201982
 30
0.0
  0
SEQEND
  5
21FC
  8
0
  0
LINE
  5
1DBE
  8
0
 10
44.6582669521095568
 20
49.3842024012019181
 30
0.0
 11
44.6582669521095568
 21
40.0
 31
0.0
  0
POLYLINE
  5
1DBF
  8
0
 66
     1
 10
0.0
 20
0.0
 30
0.0
  0
VERTEX
  5
21FD
  8
0
 10
46.44545440872227
 20
50.1729265382560001
 30
0.0
  0
VERTEX
  5
21FE
  8
0
 10
46.4454268960690229
 20
50.163381155343103
 30
0.0
  0
VERTEX
  5
21FF
  8
0
 10
46.4277965810811892
 20
49.8648113690362393
 30
0.0
  0
VERTEX
  5
2200
  8
0
 10
46.3916079000285322
 20
49.5438923443181096
 30
0.0
  0
VERTEX
  5
2201
  8
0
 10
46.3731380065708834
 20
49.3842024012264815
 30
0.0
  0
SEQEND
  5
2202
  8
0
  0
LINE
  5
1DC0
  8
0
 10
46.3659063526795023
 20
49.2489426612317232
 30
0.0
 11
46.3659063526795023
 21
40.0
 31
0.0
  0
LINE
  5
1DC1
  8
0
 10
46.3659066167192577
 20
49.2489562592106722
 30
0.0
 11
46.3731380065708834
 21
49.3842024012264815
 31
0.0
  0
LINE
  5
1DC2
  8
0
 10
55.5250027382296309
 20
40.0
 30
0.0
 11
55.5250027382296309
 21
49.2479593769562385
 31
0.0
  0
POLYLINE
  5
1DC3
  8
0
 66
     1
 10
0.0
 20
0.0
 30
0.0
  0
VERTEX
  5
2203
  8
0
 10
55.5250015210878303
 20
49.2479981792396728
 30
0.0
  0
VERTEX
  5
2204
  8
0
 10
55.5237293581984304
 20
49.1916521283512722
 30
0.0
  0
VERTEX
  5
2205
  8
0
 10
55.5175398407101213
 20
49.1104311188724409
 30
0.0
  0
VERTEX
  5
2206
  8
0
 10
55.5098323403677512
 20
49.0553630047344882
 30
0.0
  0
VERTEX
  5
2207
  8
0
 10
55.5022504982861733
 20
49.0182942347563184
 30
0.0
  0
VERTEX
  5
2208
  8
0
 10
55.4953012663376128
 20
48.9934746193793487
 30
0.0
  0
VERTEX
  5
2209
  8
0
 10
55.4890634826118969
 20
48.9769540812611481
 30
0.0
  0
VERTEX
  5
220A
  8
0
 10
55.4802685017973829
 20
48.9614215446630894
 30
0.0
  0
VERTEX
  5
220B
  8
0
 10
55.4753389814540867
 20
48.9562333100764207
 30
0.0
  0
VERTEX
  5
220C
  8
0
 10
55.4701150755572598
 20
48.9532330153985029
 30
0.0
  0
VERTEX
  5
220D
  8
0
 10
55.4660995106404116
 20
48.9525562890667416
 30
0.0
  0
SEQEND
  5
220E
  8
0
  0
LINE
  5
1DC4
  8
0
 10
55.4660995106404116
 20
48.9525562873449616
 30
0.0
 11
55.4660995106404116
 21
40.0
 31
0.0
  0
LINE
  5
1DC5
  8
0
 10
46.4248095340447193
 20
48.9525562890667274
 30
0.0
 11
46.4248095340447193
 21
40.0
 31
0.0
  0
LINE
  5
1DC6
  8
0
 10
46.5179895347451975
 20
48.9525562901116587
 30
0.0
 11
46.5179895347451975
 21
40.0
 31
0.0
  0
LINE
  5
1DC7
  8
0
 10
55.3729195759019319
 20
48.9525562890667629
 30
0.0
 11
55.3729195759019319
 21
40.0
 31
0.0
  0
LINE
  5
1DC8
  8
0
 10
55.2428491114602309
 20
49.3842024012019891
 30
0.0
 11
55.2428491114602309
 21
40.0
 31
0.0
  0
POLYLINE
  5
1DC9
  8
0
 66
     1
 10
0.0
 20
0.0
 30
0.0
  0
VERTEX
  5
220F
  8
0
 10
53.3446490884381603
 20
49.8175691824386035
 30
0.0
  0
VERTEX
  5
2210
  8
0
 10
53.345704636693597
 20
49.9306758268872528
 30
0.0
  0
VERTEX
  5
2211
  8
0
 10
53.3674310169659805
 20
50.1797387216371575
 30
0.0
  0
VERTEX
  5
2212
  8
0
 10
53.4005574075373204
 20
50.3301028198064486
 30
0.0
  0
VERTEX
  5
2213
  8
0
 10
53.4545077114871106
 20
50.4666176914612521
 30
0.0
  0
VERTEX
  5
2214
  8
0
 10
53.5358165200762812
 20
50.5864791871957209
 30
0.0
  0
VERTEX
  5
2215
  8
0
 10
53.647236630453591
 20
50.6827297837919275
 30
0.0
  0
VERTEX
  5
2216
  8
0
 10
53.8451904831007369
 20
50.7647957010593487
 30
0.0
  0
VERTEX
  5
2217
  8
0
 10
54.0868034478747575
 20
50.7844153352653933
 30
0.0
  0
VERTEX
  5
2218
  8
0
 10
54.3257633814501517
 20
50.7435706470210306
 30
0.0
  0
VERTEX
  5
2219
  8
0
 10
54.5544115705317196
 20
50.6486618279770795
 30
0.0
  0
VERTEX
  5
221A
  8
0
 10
54.770150171971828
 20
50.4923022369870793
 30
0.0
  0
VERTEX
  5
221B
  8
0
 10
54.9093237851685601
 20
50.3371353043983873
 30
0.0
  0
VERTEX
  5
221C
  8
0
 10
55.0193639806609625
 20
50.1632227689151833
 30
0.0
  0
VERTEX
  5
221D
  8
0
 10
55.1419651077809974
 20
49.8645838236270507
 30
0.0
  0
VERTEX
  5
221E
  8
0
 10
55.2183643083584172
 20
49.543594520415958
 30
0.0
  0
VERTEX
  5
221F
  8
0
 10
55.2428491114602309
 20
49.384202401201982
 30
0.0
  0
SEQEND
  5
2220
  8
0
  0
LINE
  5
1DCA
  8
0
 10
46.6480599794488668
 20
49.384202401201911
 30
0.0
 11
46.6480599794488668
 21
40.0
 31
0.0
  0
POLYLINE
  5
1DCB
  8
0
 66
     1
 10
0.0
 20
0.0
 30
0.0
  0
VERTEX
  5
2221
  8
0
 10
48.5462642488107008
 20
49.8202318969830031
 30
0.0
  0
VERTEX
  5
2222
  8
0
 10
48.5390641772037768
 20
49.5442135944742219
 30
0.0
  0
VERTEX
  5
2223
  8
0
 10
48.5313064567724268
 20
49.3842024012238667
 30
0.0
  0
SEQEND
  5
2224
  8
0
  0
LINE
  5
1DCC
  8
0
 10
48.5298103417153968
 20
49.3232132813379991
 30
0.0
 11
48.5298103417153968
 21
40.0
 31
0.0
  0
LINE
  5
1DCD
  8
0
 10
48.5298112400024593
 20
49.3233602687607799
 30
0.0
 11
48.5313064567724268
 21
49.3842024012238667
 31
0.0
  0
LINE
  5
1DCE
  8
0
 10
53.361098749193701
 20
40.0
 30
0.0
 11
53.361098749193701
 21
49.3230909507556774
 31
0.0
  0
POLYLINE
  5
1DCF
  8
0
 66
     1
 10
0.0
 20
0.0
 30
0.0
  0
VERTEX
  5
2225
  8
0
 10
53.3610977777313735
 20
49.323300745836292
 30
0.0
  0
VERTEX
  5
2226
  8
0
 10
53.3543563677763117
 20
49.191609966367551
 30
0.0
  0
VERTEX
  5
2227
  8
0
 10
53.3437261706299921
 20
49.110392471886847
 30
0.0
  0
VERTEX
  5
2228
  8
0
 10
53.3330570947239835
 20
49.0553272005130623
 30
0.0
  0
VERTEX
  5
2229
  8
0
 10
53.3234455835636183
 20
49.0182619949069434
 30
0.0
  0
VERTEX
  5
222A
  8
0
 10
53.3150634501814693
 20
48.9934465719579535
 30
0.0
  0
VERTEX
  5
222B
  8
0
 10
53.3077827357967635
 20
48.9769305483749875
 30
0.0
  0
VERTEX
  5
222C
  8
0
 10
53.2978119491252684
 20
48.9614014103060597
 30
0.0
  0
VERTEX
  5
222D
  8
0
 10
53.2923516902966696
 20
48.9562198423366794
 30
0.0
  0
VERTEX
  5
222E
  8
0
 10
53.2866573417275333
 20
48.9532290579917913
 30
0.0
  0
VERTEX
  5
222F
  8
0
 10
53.2823431914298524
 20
48.9525562890667416
 30
0.0
  0
SEQEND
  5
2230
  8
0
  0
LINE
  5
1DD0
  8
0
 10
53.2823431914298524
 20
48.9525562897070827
 30
0.0
 11
53.2823431914298524
 21
40.0
 31
0.0
  0
LINE
  5
1DD1
  8
0
 10
48.6085658462736205
 20
48.9525562890667416
 30
0.0
 11
48.6085658462736205
 21
40.0
 31
0.0
  0
LINE
  5
1DD2
  8
0
 10
48.7083351535926283
 20
48.9525562902980766
 30
0.0
 11
48.7083351535926283
 21
40.0
 31
0.0
  0
LINE
  5
1DD3
  8
0
 10
53.1825739454723703
 20
48.9525562890667416
 30
0.0
 11
53.1825739454723703
 21
40.0
 31
0.0
  0
LINE
  5
1DD4
  8
0
 10
53.0652393203994492
 20
49.3842024012019891
 30
0.0
 11
53.0652393203994492
 21
40.0
 31
0.0
  0
LINE
  5
1DD5
  8
0
 10
48.8256697705096485
 20
49.384202401201911
 30
0.0
 11
48.8256697705096485
 21
40.0
 31
0.0
  0
LINE
  5
1DD6
  8
0
 10
50.7949847628176983
 20
49.3842024012256005
 30
0.0
 11
50.7949847628176983
 21
40.0
 31
0.0
  0
LINE
  5
1DD7
  8
0
 10
40.0005004126436106
 20
40.0
 30
0.0
 11
61.8904086738949317
 21
40.0
 31
0.0
  0
LINE
  5
1DD8
  8
0
 10
51.0959243280914279
 20
49.384202401201982
 30
0.0
 11
51.0959243280914279
 21
40.0
 31
0.0
  0
LINE
  5
1DD9
  8
0
 10
50.8944554117068435
 20
48.9525562890667629
 30
0.0
 11
50.8944554117068435
 21
40.0
 31
0.0
  0
LINE
  5
1DDA
  8
0
 10
50.9964536247543094
 20
48.9525562887998476
 30
0.0
 11
50.9964536247543094
 21
40.0
 31
0.0
  0
LINE
  5
1DDB
  8
0
 10
60.2254545454545678
 20
51.25
 30
0.0
 11
41.6654545454545584
 21
51.25
 31
0.0
  0
POLYLINE
  5
1DDC
  8
0
 66
     1
 10
0.0
 20
0.0
 30
0.0
  0
VERTEX
  5
2231
  8
0
 10
40.0005004126436106
 20
48.9525562890667416
 30
0.0
  0
VERTEX
  5
2232
  8
0
 10
40.0001178437507292
 20
48.953463118043878
 30
0.0
  0
VERTEX
  5
2233
  8
0
 10
40.0000081132986907
 20
48.9568820534642697
 30
0.0
  0
VERTEX
  5
2234
  8
0
 10
40.0005238087537407
 20
48.9663043479418931
 30
0.0
  0
VERTEX
  5
2235
  8
0
 10
40.0061717251152729
 20
49.0167354599690981
 30
0.0
  0
VERTEX
  5
2236
  8
0
 10
40.0454661677907211
 20
49.2304339756926268
 30
0.0
  0
VERTEX
  5
2237
  8
0
 10
40.0859504132231521
 20
49.3842024012252807
 30
0.0
  0
SEQEND
  5
2238
  8
0
  0
LINE
  5
1DDD
  8
0
 10
40.0111621277887366
 20
48.9525562899413273
 30
0.0
 11
40.0005004126436106
 21
48.9525562890667416
 31
0.0
  0
POLYLINE
  5
1DDE
  8
0
 66
     1
 10
0.0
 20
0.0
 30
0.0
  0
VERTEX
  5
2239
  8
0
 10
40.1174071635176404
 20
49.3842024012019181
 30
0.0
  0
VERTEX
  5
223A
  8
0
 10
40.0649150123807871
 20
49.1916013116614721
 30
0.0
  0
VERTEX
  5
223B
  8
0
 10
40.0459077855663494
 20
49.1103842283317107
 30
0.0
  0
VERTEX
  5
223C
  8
0
 10
40.033981242229089
 20
49.0553193416042674
 30
0.0
  0
VERTEX
  5
223D
  8
0
 10
40.0262897323389595
 20
49.01825478339574
 30
0.0
  0
VERTEX
  5
223E
  8
0
 10
40.0211946854657583
 20
48.9934402192086367
 30
0.0
  0
VERTEX
  5
223F
  8
0
 10
40.0177340935595396
 20
48.9769251727959727
 30
0.0
  0
VERTEX
  5
2240
  8
0
 10
40.0142187324434175
 20
48.9613967756038804
 30
0.0
  0
VERTEX
  5
2241
  8
0
 10
40.0128265896352033
 20
48.9562167352602629
 30
0.0
  0
VERTEX
  5
2242
  8
0
 10
40.0117437057832319
 20
48.9532281458348706
 30
0.0
  0
VERTEX
  5
2243
  8
0
 10
40.0111621277887366
 20
48.9525562899413273
 30
0.0
  0
SEQEND
  5
2244
  8
0
  0
POLYLINE
  5
1DDF
  8
0
 66
     1
 10
0.0
 20
0.0
 30
0.0
  0
VERTEX
  5
2245
  8
0
 10
40.1174071635176404
 20
49.3842024012019181
 30
0.0
  0
VERTEX
  5
2246
  8
0
 10
40.2171230034263019
 20
49.6630840731597516
 30
0.0
  0
VERTEX
  5
2247
  8
0
 10
40.3453113471576472
 20
49.9306789810096916
 30
0.0
  0
VERTEX
  5
2248
  8
0
 10
40.499090129398553
 20
50.1797430568855489
 30
0.0
  0
VERTEX
  5
2249
  8
0
 10
40.6124373176277231
 20
50.3301063729064424
 30
0.0
  0
VERTEX
  5
224A
  8
0
 10
40.732080822569138
 20
50.4666204587822804
 30
0.0
  0
VERTEX
  5
224B
  8
0
 10
40.8550005071370421
 20
50.5864811654528523
 30
0.0
  0
VERTEX
  5
224C
  8
0
 10
40.9714825987796303
 20
50.6827310223488965
 30
0.0
  0
VERTEX
  5
224D
  8
0
 10
41.0996350654390312
 20
50.764796227913898
 30
0.0
  0
VERTEX
  5
224E
  8
0
 10
41.173677990222842
 20
50.7844152149613066
 30
0.0
  0
VERTEX
  5
224F
  8
0
 10
41.1858297622496821
 20
50.7643553184463769
 30
0.0
  0
SEQEND
  5
2250
  8
0
  0
POLYLINE
  5
1DE0
  8
0
 66
     1
 10
0.0
 20
0.0
 30
0.0
  0
VERTEX
  5
2251
  8
0
 10
40.4681857080444871
 20
48.9525562890694417
 30
0.0
  0
VERTEX
  5
2252
  8
0
 10
40.4667460191537174
 20
48.953459230054321
 30
0.0
  0
VERTEX
  5
2253
  8
0
 10
40.4653648310693299
 20
48.9568708506901729
 30
0.0
  0
VERTEX
  5
2254
  8
0
 10
40.4640085424888127
 20
48.9662723042195367
 30
0.0
  0
VERTEX
  5
2255
  8
0
 10
40.463446142000258
 20
48.987028812453687
 30
0.0
  0
SEQEND
  5
2256
  8
0
  0
LINE
  5
1DE1
  8
0
 10
40.4997048857715569
 20
48.9525562901744493
 30
0.0
 11
40.4681857080452403
 21
48.9525562890667629
 31
0.0
  0
POLYLINE
  5
1DE2
  8
0
 66
     1
 10
0.0
 20
0.0
 30
0.0
  0
VERTEX
  5
2257
  8
0
 10
40.6221015431388466
 20
49.3842024012019181
 30
0.0
  0
VERTEX
  5
2258
  8
0
 10
40.5685191619140184
 20
49.1916265676300668
 30
0.0
  0
VERTEX
  5
2259
  8
0
 10
40.5472888691408784
 20
49.1104077972137034
 30
0.0
  0
VERTEX
  5
225A
  8
0
 10
40.5331314307623529
 20
49.0553414739431872
 30
0.0
  0
VERTEX
  5
225B
  8
0
 10
40.5234301620719108
 20
49.0182748925071934
 30
0.0
  0
VERTEX
  5
225C
  8
0
 10
40.5165823850495315
 20
48.9934578183359477
 30
0.0
  0
VERTEX
  5
225D
  8
0
 10
40.5115993490642481
 20
48.9769399991351975
 30
0.0
  0
VERTEX
  5
225E
  8
0
 10
40.5059999582283297
 20
48.9614095051736911
 30
0.0
  0
VERTEX
  5
225F
  8
0
 10
40.5034657910699423
 20
48.9562252585763389
 30
0.0
  0
VERTEX
  5
2260
  8
0
 10
40.5011906934008366
 20
48.9532306494192326
 30
0.0
  0
VERTEX
  5
2261
  8
0
 10
40.4997048857715569
 20
48.9525562901744493
 30
0.0
  0
SEQEND
  5
2262
  8
0
  0
POLYLINE
  5
1DE3
  8
0
 66
     1
 10
0.0
 20
0.0
 30
0.0
  0
VERTEX
  5
2263
  8
0
 10
40.6221015431388466
 20
49.3842024012019181
 30
0.0
  0
VERTEX
  5
2264
  8
0
 10
40.7191634102718965
 20
49.663079232126627
 30
0.0
  0
VERTEX
  5
2265
  8
0
 10
40.8470951451689928
 20
49.9306697576000502
 30
0.0
  0
VERTEX
  5
2266
  8
0
 10
41.0054119703167075
 20
50.1797303795661804
 30
0.0
  0
VERTEX
  5
2267
  8
0
 10
41.1256847045827669
 20
50.33009598278624
 30
0.0
  0
VERTEX
  5
2268
  8
0
 10
41.2566075275396713
 20
50.4666123664758715
 30
0.0
  0
VERTEX
  5
2269
  8
0
 10
41.3965264893431311
 20
50.5864753805641314
 30
0.0
  0
VERTEX
  5
226A
  8
0
 10
41.5363032473752227
 20
50.6827274005229285
 30
0.0
  0
VERTEX
  5
226B
  8
0
 10
41.7058409447895073
 20
50.7647946872606184
 30
0.0
  0
VERTEX
  5
226C
  8
0
 10
41.8303967524545328
 20
50.7844155667408614
 30
0.0
  0
VERTEX
  5
226D
  8
0
 10
41.8888253586824675
 20
50.7435718623771166
 30
0.0
  0
VERTEX
  5
226E
  8
0
 10
41.8964509902241318
 20
50.6987095083474486
 30
0.0
  0
SEQEND
  5
226F
  8
0
  0
POLYLINE
  5
1DE4
  8
0
 66
     1
 10
0.0
 20
0.0
 30
0.0
  0
VERTEX
  5
2270
  8
0
 10
41.3937779271536215
 20
48.9525562890706425
 30
0.0
  0
VERTEX
  5
2271
  8
0
 10
41.3913547941222575
 20
48.9534504651601665
 30
0.0
  0
VERTEX
  5
2272
  8
0
 10
41.3887650907442435
 20
48.9568455770479716
 30
0.0
  0
VERTEX
  5
2273
  8
0
 10
41.3856021672953034
 20
48.9662000515959335
 30
0.0
  0
VERTEX
  5
2274
  8
0
 10
41.380843511415307
 20
49.0161031285505828
 30
0.0
  0
VERTEX
  5
2275
  8
0
 10
41.3806172027196908
 20
49.0377119266375701
 30
0.0
  0
SEQEND
  5
2276
  8
0
  0
LINE
  5
1DE5
  8
0
 10
41.4447770281506394
 20
48.9525562884481786
 30
0.0
 11
41.3937779271555186
 21
48.9525562890667416
 31
0.0
  0
POLYLINE
  5
1DE6
  8
0
 66
     1
 10
0.0
 20
0.0
 30
0.0
  0
VERTEX
  5
2277
  8
0
 10
41.5779759859049989
 20
49.3842024012019181
 30
0.0
  0
VERTEX
  5
2278
  8
0
 10
41.5256559496615694
 20
49.1916882041735377
 30
0.0
  0
VERTEX
  5
2279
  8
0
 10
41.5031301708485501
 20
49.1104638530425319
 30
0.0
  0
VERTEX
  5
227A
  8
0
 10
41.4873606390044571
 20
49.0553931081709109
 30
0.0
  0
VERTEX
  5
227B
  8
0
 10
41.4760736792864506
 20
49.0183212123563194
 30
0.0
  0
VERTEX
  5
227C
  8
0
 10
41.4677725119543723
 20
48.9934980171734367
 30
0.0
  0
VERTEX
  5
227D
  8
0
 10
41.4614848834946983
 20
48.97697367436691
 30
0.0
  0
VERTEX
  5
227E
  8
0
 10
41.4540492489430505
 20
48.961438299216141
 30
0.0
  0
VERTEX
  5
227F
  8
0
 10
41.4504836105926628
 20
48.9562445163603996
 30
0.0
  0
VERTEX
  5
2280
  8
0
 10
41.4464682295058822
 20
48.9529205598807096
 30
0.0
  0
VERTEX
  5
2281
  8
0
 10
41.4447770281506394
 20
48.9525562884481786
 30
0.0
  0
SEQEND
  5
2282
  8
0
  0
POLYLINE
  5
1DE7
  8
0
 66
     1
 10
0.0
 20
0.0
 30
0.0
  0
VERTEX
  5
2283
  8
0
 10
41.5779759859049989
 20
49.3842024012019181
 30
0.0
  0
VERTEX
  5
2284
  8
0
 10
41.6681392521851919
 20
49.6630673911593874
 30
0.0
  0
VERTEX
  5
2285
  8
0
 10
41.7902186622425518
 20
49.9306471974699306
 30
0.0
  0
VERTEX
  5
2286
  8
0
 10
41.9461475490832285
 20
50.179699371109848
 30
0.0
  0
VERTEX
  5
2287
  8
0
 10
42.0680887595999309
 20
50.330070568863583
 30
0.0
  0
VERTEX
  5
2288
  8
0
 10
42.2045689050157975
 20
50.4665925730248119
 30
0.0
  0
VERTEX
  5
2289
  8
0
 10
42.3553727462625318
 20
50.5864612310483608
 30
0.0
  0
VERTEX
  5
228A
  8
0
 10
42.5123368710307332
 20
50.682718541811262
 30
0.0
  0
VERTEX
  5
228B
  8
0
 10
42.7158515262384526
 20
50.7647909188218804
 30
0.0
  0
VERTEX
  5
228C
  8
0
 10
42.885479195131289
 20
50.78441642694564
 30
0.0
  0
VERTEX
  5
228D
  8
0
 10
42.9913145041916991
 20
50.7435763795953108
 30
0.0
  0
VERTEX
  5
228E
  8
0
 10
43.0409843622029697
 20
50.6486722680313974
 30
0.0
  0
VERTEX
  5
228F
  8
0
 10
43.0462602059040975
 20
50.5840110636693083
 30
0.0
  0
SEQEND
  5
2290
  8
0
  0
POLYLINE
  5
1DE8
  8
0
 66
     1
 10
0.0
 20
0.0
 30
0.0
  0
VERTEX
  5
2291
  8
0
 10
42.7368242456534233
 20
48.9525562890738684
 30
0.0
  0
VERTEX
  5
2292
  8
0
 10
42.7335462203234897
 20
48.9534343649873733
 30
0.0
  0
VERTEX
  5
2293
  8
0
 10
42.7298675355395332
 20
48.9567990830461213
 30
0.0
  0
VERTEX
  5
2294
  8
0
 10
42.7250518260823569
 20
48.9660672730681981
 30
0.0
  0
VERTEX
  5
2295
  8
0
 10
42.7153618315808217
 20
49.0153014807029592
 30
0.0
  0
VERTEX
  5
2296
  8
0
 10
42.7114721850726582
 20
49.1076375834738883
 30
0.0
  0
SEQEND
  5
2297
  8
0
  0
LINE
  5
1DE9
  8
0
 10
42.8050743673446732
 20
48.9525562883360834
 30
0.0
 11
42.7368242456588803
 21
48.9525562890667416
 31
0.0
  0
POLYLINE
  5
1DEA
  8
0
 66
     1
 10
0.0
 20
0.0
 30
0.0
  0
VERTEX
  5
2298
  8
0
 10
42.9432541918727111
 20
49.3842024012019181
 30
0.0
  0
VERTEX
  5
2299
  8
0
 10
42.8944982042260605
 20
49.1918037508828689
 30
0.0
  0
VERTEX
  5
229A
  8
0
 10
42.8716623244348369
 20
49.1105680971098835
 30
0.0
  0
VERTEX
  5
229B
  8
0
 10
42.8549709577797771
 20
49.055488653199248
 30
0.0
  0
VERTEX
  5
229C
  8
0
 10
42.8425925127701532
 20
49.0184066867161974
 30
0.0
  0
VERTEX
  5
229D
  8
0
 10
42.8332015268930775
 20
48.9935720886330586
 30
0.0
  0
VERTEX
  5
229E
  8
0
 10
42.8258848189290333
 20
48.9770356844681487
 30
0.0
  0
VERTEX
  5
229F
  8
0
 10
42.816944621383243
 20
48.96149146098697
 30
0.0
  0
VERTEX
  5
22A0
  8
0
 10
42.8125035836427514
 20
48.9562801075686522
 30
0.0
  0
VERTEX
  5
22A1
  8
0
 10
42.8073442211644704
 20
48.9529318647890079
 30
0.0
  0
VERTEX
  5
22A2
  8
0
 10
42.8050743673446732
 20
48.9525562883360834
 30
0.0
  0
SEQEND
  5
22A3
  8
0
  0
POLYLINE
  5
1DEB
  8
0
 66
     1
 10
0.0
 20
0.0
 30
0.0
  0
VERTEX
  5
22A4
  8
0
 10
42.9432541918727111
 20
49.3842024012019181
 30
0.0
  0
VERTEX
  5
22A5
  8
0
 10
43.0225755217595065
 20
49.6630451928808725
 30
0.0
  0
VERTEX
  5
22A6
  8
0
 10
43.1334615224128584
 20
49.9306049037670405
 30
0.0
  0
VERTEX
  5
22A7
  8
0
 10
43.2801780003572105
 20
50.1796412385311896
 30
0.0
  0
VERTEX
  5
22A8
  8
0
 10
43.3984564554186321
 20
50.3300229248966318
 30
0.0
  0
VERTEX
  5
22A9
  8
0
 10
43.5345279052057705
 20
50.4665554662000488
 30
0.0
  0
VERTEX
  5
22AA
  8
0
 10
43.689625660917919
 20
50.5864347052493102
 30
0.0
  0
VERTEX
  5
22AB
  8
0
 10
43.8569183958690303
 20
50.6827019348506767
 30
0.0
  0
VERTEX
  5
22AC
  8
0
 10
44.0855159476326435
 20
50.7647838538782565
 30
0.0
  0
VERTEX
  5
22AD
  8
0
 10
44.2928049633396128
 20
50.7844180386798669
 30
0.0
  0
VERTEX
  5
22AE
  8
0
 10
44.4414245479149983
 20
50.7435848464626815
 30
0.0
  0
VERTEX
  5
22AF
  8
0
 10
44.5366452188728985
 20
50.6486876882020098
 30
0.0
  0
VERTEX
  5
22B0
  8
0
 10
44.5814816190290628
 20
50.4923427092543307
 30
0.0
  0
VERTEX
  5
22B1
  8
0
 10
44.5850143239229766
 20
50.4137422596541214
 30
0.0
  0
SEQEND
  5
22B2
  8
0
  0
POLYLINE
  5
1DEC
  8
0
 66
     1
 10
0.0
 20
0.0
 30
0.0
  0
VERTEX
  5
22B3
  8
0
 10
44.4386270997653128
 20
48.9525562890719286
 30
0.0
  0
VERTEX
  5
22B4
  8
0
 10
44.4345970939617914
 20
48.9534430648562733
 30
0.0
  0
VERTEX
  5
22B5
  8
0
 10
44.4299818033232086
 20
48.9568242177413566
 30
0.0
  0
VERTEX
  5
22B6
  8
0
 10
44.4237047477431304
 20
48.9661390308938209
 30
0.0
  0
VERTEX
  5
22B7
  8
0
 10
44.4094742726271292
 20
49.0157342482385587
 30
0.0
  0
VERTEX
  5
22B8
  8
0
 10
44.3977893914093826
 20
49.178592875634962
 30
0.0
  0
SEQEND
  5
22B9
  8
0
  0
LINE
  5
1DED
  8
0
 10
44.5211453822000109
 20
48.9525562909950978
 30
0.0
 11
44.4386270997697679
 21
48.9525562890667416
 31
0.0
  0
POLYLINE
  5
1DEE
  8
0
 66
     1
 10
0.0
 20
0.0
 30
0.0
  0
VERTEX
  5
22BA
  8
0
 10
44.6582669521095568
 20
49.3842024012019181
 30
0.0
  0
VERTEX
  5
22BB
  8
0
 10
44.6151678446708999
 20
49.1917795040057868
 30
0.0
  0
VERTEX
  5
22BC
  8
0
 10
44.5930194140249796
 20
49.1105361792710227
 30
0.0
  0
VERTEX
  5
22BD
  8
0
 10
44.5761341008219105
 20
49.055451912175208
 30
0.0
  0
VERTEX
  5
22BE
  8
0
 10
44.5632039870066308
 20
49.0183691325977833
 30
0.0
  0
VERTEX
  5
22BF
  8
0
 10
44.5531329044382005
 20
48.9935367402223179
 30
0.0
  0
VERTEX
  5
22C0
  8
0
 10
44.5451064261044323
 20
48.9770044472617627
 30
0.0
  0
VERTEX
  5
22C1
  8
0
 10
44.53504025837114
 20
48.9614631896348413
 30
0.0
  0
VERTEX
  5
22C2
  8
0
 10
44.5299191353842332
 20
48.9562608754562234
 30
0.0
  0
VERTEX
  5
22C3
  8
0
 10
44.5238448411095575
 20
48.9529255987483225
 30
0.0
  0
VERTEX
  5
22C4
  8
0
 10
44.5211453822000109
 20
48.9525562909950978
 30
0.0
  0
SEQEND
  5
22C5
  8
0
  0
POLYLINE
  5
1DEF
  8
0
 66
     1
 10
0.0
 20
0.0
 30
0.0
  0
VERTEX
  5
22C6
  8
0
 10
44.6582669521095212
 20
49.3842024012019323
 30
0.0
  0
VERTEX
  5
22C7
  8
0
 10
44.7232764607833175
 20
49.6630042298173322
 30
0.0
  0
VERTEX
  5
22C8
  8
0
 10
44.8181150273115634
 20
49.9305268574271182
 30
0.0
  0
VERTEX
  5
22C9
  8
0
 10
44.9491918978812279
 20
50.1795339616078593
 30
0.0
  0
VERTEX
  5
22CA
  8
0
 10
45.0586341168491273
 20
50.3299350047021292
 30
0.0
  0
VERTEX
  5
22CB
  8
0
 10
45.1883465751079072
 20
50.4664869919623769
 30
0.0
  0
VERTEX
  5
22CC
  8
0
 10
45.3409580301410813
 20
50.5863857575921898
 30
0.0
  0
VERTEX
  5
22CD
  8
0
 10
45.5112686731717133
 20
50.6826712912343922
 30
0.0
  0
VERTEX
  5
22CE
  8
0
 10
45.7549572566276765
 20
50.7647708159120725
 30
0.0
  0
VERTEX
  5
22CF
  8
0
 10
45.9908518062445921
 20
50.7844210097986988
 30
0.0
  0
VERTEX
  5
22D0
  8
0
 10
46.1757645867549229
 20
50.7436004652258816
 30
0.0
  0
VERTEX
  5
22D1
  8
0
 10
46.3123785211896291
 20
50.6487161351531086
 30
0.0
  0
VERTEX
  5
22D2
  8
0
 10
46.4026582827743184
 20
50.4923872304755292
 30
0.0
  0
VERTEX
  5
22D3
  8
0
 10
46.4366178541853216
 20
50.3372564069705319
 30
0.0
  0
VERTEX
  5
22D4
  8
0
 10
46.44545440872227
 20
50.1729265382560001
 30
0.0
  0
SEQEND
  5
22D5
  8
0
  0
POLYLINE
  5
1DF0
  8
0
 66
     1
 10
0.0
 20
0.0
 30
0.0
  0
VERTEX
  5
22D6
  8
0
 10
46.4248095340420193
 20
48.9525562890699106
 30
0.0
  0
VERTEX
  5
22D7
  8
0
 10
46.4201882891958277
 20
48.9534552684557198
 30
0.0
  0
VERTEX
  5
22D8
  8
0
 10
46.4148328068507112
 20
48.956859430611388
 30
0.0
  0
VERTEX
  5
22D9
  8
0
 10
46.4073552380138992
 20
48.9662396497374814
 30
0.0
  0
VERTEX
  5
22DA
  8
0
 10
46.3891358542270069
 20
49.0163429319713089
 30
0.0
  0
VERTEX
  5
22DB
  8
0
 10
46.3660737652578234
 20
49.2287297681179581
 30
0.0
  0
VERTEX
  5
22DC
  8
0
 10
46.3659066167192577
 20
49.2489562592106722
 30
0.0
  0
SEQEND
  5
22DD
  8
0
  0
LINE
  5
1DF1
  8
0
 10
46.5179895347451975
 20
48.9525562901116587
 30
0.0
 11
46.4248095340447193
 21
48.9525562890667274
 31
0.0
  0
POLYLINE
  5
1DF2
  8
0
 66
     1
 10
0.0
 20
0.0
 30
0.0
  0
VERTEX
  5
22DE
  8
0
 10
46.6480599794488668
 20
49.384202401201911
 30
0.0
  0
VERTEX
  5
22DF
  8
0
 10
46.6124838052730794
 20
49.1916750237001068
 30
0.0
  0
VERTEX
  5
22E0
  8
0
 10
46.5919929475199126
 20
49.1104462443325929
 30
0.0
  0
VERTEX
  5
22E1
  8
0
 10
46.5756532687295532
 20
49.0553727590557074
 30
0.0
  0
VERTEX
  5
22E2
  8
0
 10
46.5627375850388034
 20
49.0183003951291383
 30
0.0
  0
VERTEX
  5
22E3
  8
0
 10
46.5524270747896978
 20
48.9934784256235716
 30
0.0
  0
VERTEX
  5
22E4
  8
0
 10
46.5440417736677432
 20
48.9769563711636025
 30
0.0
  0
VERTEX
  5
22E5
  8
0
 10
46.5332859582418621
 20
48.9614227060135576
 30
0.0
  0
VERTEX
  5
22E6
  8
0
 10
46.5277082551909587
 20
48.956233925111917
 30
0.0
  0
VERTEX
  5
22E7
  8
0
 10
46.5221030667990405
 20
48.9532332194650195
 30
0.0
  0
VERTEX
  5
22E8
  8
0
 10
46.5179895347451975
 20
48.9525562901116587
 30
0.0
  0
SEQEND
  5
22E9
  8
0
  0
POLYLINE
  5
1DF3
  8
0
 66
     1
 10
0.0
 20
0.0
 30
0.0
  0
VERTEX
  5
22EA
  8
0
 10
46.6480599794487887
 20
49.3842024012019394
 30
0.0
  0
VERTEX
  5
22EB
  8
0
 10
46.6959122710069607
 20
49.6629198324566516
 30
0.0
  0
VERTEX
  5
22EC
  8
0
 10
46.7705452580581706
 20
49.9303660536240699
 30
0.0
  0
VERTEX
  5
22ED
  8
0
 10
46.8802252043357086
 20
50.1793129222004097
 30
0.0
  0
VERTEX
  5
22EE
  8
0
 10
46.9760379578551124
 20
50.3297538539554381
 30
0.0
  0
VERTEX
  5
22EF
  8
0
 10
47.093713595603667
 20
50.4663459123796088
 30
0.0
  0
VERTEX
  5
22F0
  8
0
 10
47.2371631608767686
 20
50.5862849138298571
 30
0.0
  0
VERTEX
  5
22F1
  8
0
 10
47.4030477532013208
 20
50.6826081620528583
 30
0.0
  0
VERTEX
  5
22F2
  8
0
 10
47.6511719770516819
 20
50.7647439499926918
 30
0.0
  0
VERTEX
  5
22F3
  8
0
 10
47.9053677901267534
 20
50.7844271187892815
 30
0.0
  0
VERTEX
  5
22F4
  8
0
 10
48.1184996252712622
 20
50.7436326230625809
 30
0.0
  0
VERTEX
  5
22F5
  8
0
 10
48.2905433302685978
 20
50.6487747113127114
 30
0.0
  0
VERTEX
  5
22F6
  8
0
 10
48.4223287571639887
 20
50.492478907820562
 30
0.0
  0
VERTEX
  5
22F7
  8
0
 10
48.4881387683507512
 20
50.3373870316909091
 30
0.0
  0
VERTEX
  5
22F8
  8
0
 10
48.5259095582985083
 20
50.1635519946171229
 30
0.0
  0
VERTEX
  5
22F9
  8
0
 10
48.546291137278331
 20
49.8650568093761493
 30
0.0
  0
VERTEX
  5
22FA
  8
0
 10
48.5462642488107008
 20
49.8202318969830031
 30
0.0
  0
SEQEND
  5
22FB
  8
0
  0
POLYLINE
  5
1DF4
  8
0
 66
     1
 10
0.0
 20
0.0
 30
0.0
  0
VERTEX
  5
22FC
  8
0
 10
48.6085658462715671
 20
48.9525562890691575
 30
0.0
  0
VERTEX
  5
22FD
  8
0
 10
48.6035651056398308
 20
48.9534615699867999
 30
0.0
  0
VERTEX
  5
22FE
  8
0
 10
48.5977052264537406
 20
48.9568775935276719
 30
0.0
  0
VERTEX
  5
22FF
  8
0
 10
48.5893576582488507
 20
48.966291589756743
 30
0.0
  0
VERTEX
  5
2300
  8
0
 10
48.5679451163670706
 20
49.0166579845823804
 30
0.0
  0
VERTEX
  5
2301
  8
0
 10
48.5332633969660492
 20
49.2300975647083234
 30
0.0
  0
VERTEX
  5
2302
  8
0
 10
48.5298112400024593
 20
49.3233602687607799
 30
0.0
  0
SEQEND
  5
2303
  8
0
  0
LINE
  5
1DF5
  8
0
 10
48.7083351535926283
 20
48.9525562902980766
 30
0.0
 11
48.6085658462736205
 21
48.9525562890667416
 31
0.0
  0
POLYLINE
  5
1DF6
  8
0
 66
     1
 10
0.0
 20
0.0
 30
0.0
  0
VERTEX
  5
2304
  8
0
 10
48.8256697705096485
 20
49.384202401201911
 30
0.0
  0
VERTEX
  5
2305
  8
0
 10
48.7991875743693413
 20
49.191620206251649
 30
0.0
  0
VERTEX
  5
2306
  8
0
 10
48.7812480139319007
 20
49.1103992314669284
 30
0.0
  0
VERTEX
  5
2307
  8
0
 10
48.7661671085073678
 20
49.0553315547418691
 30
0.0
  0
VERTEX
  5
2308
  8
0
 10
48.7538296360358103
 20
49.0182647405798306
 30
0.0
  0
VERTEX
  5
2309
  8
0
 10
48.7437297726887095
 20
48.99344826489898
 30
0.0
  0
VERTEX
  5
230A
  8
0
 10
48.7353517063506203
 20
48.9769315640603224
 30
0.0
  0
VERTEX
  5
230B
  8
0
 10
48.7243788766513219
 20
48.9614019210334916
 30
0.0
  0
VERTEX
  5
230C
  8
0
 10
48.7185877237034504
 20
48.956220111476199
 30
0.0
  0
VERTEX
  5
230D
  8
0
 10
48.7126990871839993
 20
48.9532291474939072
 30
0.0
  0
VERTEX
  5
230E
  8
0
 10
48.7083351535926283
 20
48.9525562902980766
 30
0.0
  0
SEQEND
  5
230F
  8
0
  0
POLYLINE
  5
1DF7
  8
0
 66
     1
 10
0.0
 20
0.0
 30
0.0
  0
VERTEX
  5
2310
  8
0
 10
48.8256697705096485
 20
49.384202401201911
 30
0.0
  0
VERTEX
  5
2311
  8
0
 10
48.8542651045844423
 20
49.6626816889816425
 30
0.0
  0
VERTEX
  5
2312
  8
0
 10
48.9053947086054919
 20
49.9299122948766581
 30
0.0
  0
VERTEX
  5
2313
  8
0
 10
48.9887988876920133
 20
50.1786891172090179
 30
0.0
  0
VERTEX
  5
2314
  8
0
 10
49.0667599640194325
 20
50.329242656632708
 30
0.0
  0
VERTEX
  5
2315
  8
0
 10
49.1672243789925218
 20
50.4659478279930624
 30
0.0
  0
VERTEX
  5
2316
  8
0
 10
49.2952201343928991
 20
50.5860003964232234
 30
0.0
  0
VERTEX
  5
2317
  8
0
 10
49.4494225515260766
 20
50.6824300799699614
 30
0.0
  0
VERTEX
  5
2318
  8
0
 10
49.6911166550956409
 20
50.7646681179181698
 30
0.0
  0
VERTEX
  5
2319
  8
0
 10
49.9525168471895427
 20
50.7844442659711603
 30
0.0
  0
VERTEX
  5
231A
  8
0
 10
50.1845732783492622
 20
50.7437232034709211
 30
0.0
  0
VERTEX
  5
231B
  8
0
 10
50.3845478606951573
 20
50.648939749367031
 30
0.0
  0
VERTEX
  5
231C
  8
0
 10
50.5521023019402733
 20
50.492737223295542
 30
0.0
  0
VERTEX
  5
231D
  8
0
 10
50.6468963543819086
 20
50.3377550802504814
 30
0.0
  0
VERTEX
  5
231E
  8
0
 10
50.7119982587402873
 20
50.1640333468628796
 30
0.0
  0
VERTEX
  5
231F
  8
0
 10
50.7695352537931228
 20
49.8657483811389213
 30
0.0
  0
VERTEX
  5
2320
  8
0
 10
50.7916239104835086
 20
49.5451187982931316
 30
0.0
  0
VERTEX
  5
2321
  8
0
 10
50.7949847628176983
 20
49.3842024012256005
 30
0.0
  0
SEQEND
  5
2322
  8
0
  0
POLYLINE
  5
1DF8
  8
0
 66
     1
 10
0.0
 20
0.0
 30
0.0
  0
VERTEX
  5
2323
  8
0
 10
50.8944554117068435
 20
48.9525562890667629
 30
0.0
  0
VERTEX
  5
2324
  8
0
 10
50.8940102921855768
 20
48.9525630658525728
 30
0.0
  0
VERTEX
  5
2325
  8
0
 10
50.8889966633704489
 20
48.9535750321107272
 30
0.0
  0
VERTEX
  5
2326
  8
0
 10
50.8807581315159609
 20
48.958957920041712
 30
0.0
  0
VERTEX
  5
2327
  8
0
 10
50.8743825523744988
 20
48.9662669945141715
 30
0.0
  0
VERTEX
  5
2328
  8
0
 10
50.8632638683202387
 20
48.9854495898276525
 30
0.0
  0
VERTEX
  5
2329
  8
0
 10
50.8539418016728391
 20
49.0077185166390379
 30
0.0
  0
VERTEX
  5
232A
  8
0
 10
50.8112059190509626
 20
49.1916001105768572
 30
0.0
  0
VERTEX
  5
232B
  8
0
 10
50.7949847628176983
 20
49.3842024012256005
 30
0.0
  0
SEQEND
  5
232C
  8
0
  0
LINE
  5
1DF9
  8
0
 10
50.9964536247543094
 20
48.9525562887998476
 30
0.0
 11
50.8944554117068435
 21
48.9525562890667629
 31
0.0
  0
POLYLINE
  5
1DFA
  8
0
 66
     1
 10
0.0
 20
0.0
 30
0.0
  0
VERTEX
  5
232D
  8
0
 10
51.0959243280914279
 20
49.384202401201982
 30
0.0
  0
VERTEX
  5
232E
  8
0
 10
51.0797031718581422
 20
49.1916001105769212
 30
0.0
  0
VERTEX
  5
232F
  8
0
 10
51.0369672892362871
 20
49.0077185166391516
 30
0.0
  0
VERTEX
  5
2330
  8
0
 10
51.027645222588859
 20
48.985449589827752
 30
0.0
  0
VERTEX
  5
2331
  8
0
 10
51.016526538534599
 20
48.9662669945142568
 30
0.0
  0
VERTEX
  5
2332
  8
0
 10
51.0101509593931368
 20
48.9589579200417901
 30
0.0
  0
VERTEX
  5
2333
  8
0
 10
51.0019124275386488
 20
48.9535750321108196
 30
0.0
  0
VERTEX
  5
2334
  8
0
 10
50.9968987987235209
 20
48.9525630658526723
 30
0.0
  0
VERTEX
  5
2335
  8
0
 10
50.9964536247543094
 20
48.9525562887998476
 30
0.0
  0
SEQEND
  5
2336
  8
0
  0
POLYLINE
  5
1DFB
  8
0
 66
     1
 10
0.0
 20
0.0
 30
0.0
  0
VERTEX
  5
2337
  8
0
 10
51.0959243280914279
 20
49.384202401201982
 30
0.0
  0
VERTEX
  5
2338
  8
0
 10
51.1040852536026193
 20
49.6630842924946023
 30
0.0
  0
VERTEX
  5
2339
  8
0
 10
51.1296714232367222
 20
49.9306793988984978
 30
0.0
  0
VERTEX
  5
233A
  8
0
 10
51.18354702807747
 20
50.1797436312609904
 30
0.0
  0
VERTEX
  5
233B
  8
0
 10
51.240369857615768
 20
50.330106843655507
 30
0.0
  0
VERTEX
  5
233C
  8
0
 10
51.3193328789589884
 20
50.4666208254239521
 30
0.0
  0
VERTEX
  5
233D
  8
0
 10
51.4263392436860372
 20
50.5864814275518029
 30
0.0
  0
VERTEX
  5
233E
  8
0
 10
51.5621109267463495
 20
50.6827311864452597
 30
0.0
  0
VERTEX
  5
233F
  8
0
 10
51.7868563096508794
 20
50.7647962977166074
 30
0.0
  0
VERTEX
  5
2340
  8
0
 10
52.043948459839072
 20
50.7844151990217725
 30
0.0
  0
VERTEX
  5
2341
  8
0
 10
52.2846791388813585
 20
50.7435699317165927
 30
0.0
  0
VERTEX
  5
2342
  8
0
 10
52.503741755182169
 20
50.6486605252965489
 30
0.0
  0
VERTEX
  5
2343
  8
0
 10
52.6996304646421834
 20
50.4923001982552222
 30
0.0
  0
VERTEX
  5
2344
  8
0
 10
52.8192056230981777
 20
50.3371323995065083
 30
0.0
  0
VERTEX
  5
2345
  8
0
 10
52.9087011193109902
 20
50.1632189696843511
 30
0.0
  0
VERTEX
  5
2346
  8
0
 10
53.0007328475559234
 20
49.8645783655232293
 30
0.0
  0
VERTEX
  5
2347
  8
0
 10
53.0510315524037424
 20
49.5435873765986585
 30
0.0
  0
VERTEX
  5
2348
  8
0
 10
53.0652393203994492
 20
49.3842024012019891
 30
0.0
  0
SEQEND
  5
2349
  8
0
  0
POLYLINE
  5
1DFC
  8
0
 66
     1
 10
0.0
 20
0.0
 30
0.0
  0
VERTEX
  5
234A
  8
0
 10
53.1825739454723703
 20
48.9525562890667416
 30
0.0
  0
VERTEX
  5
234B
  8
0
 10
53.1775078142133282
 20
48.9534616783404672
 30
0.0
  0
VERTEX
  5
234C
  8
0
 10
53.1714270739724384
 20
48.9568779057192316
 30
0.0
  0
VERTEX
  5
234D
  8
0
 10
53.1624775811351071
 20
48.966292482763798
 30
0.0
  0
VERTEX
  5
234E
  8
0
 10
53.1376736417754501
 20
49.0166634063290303
 30
0.0
  0
VERTEX
  5
234F
  8
0
 10
53.0846285425877724
 20
49.2301211061563322
 30
0.0
  0
VERTEX
  5
2350
  8
0
 10
53.0652393203994492
 20
49.3842024012019891
 30
0.0
  0
SEQEND
  5
2351
  8
0
  0
LINE
  5
1DFD
  8
0
 10
53.2823431914298524
 20
48.9525562897070827
 30
0.0
 11
53.1825739454723703
 21
48.9525562890667416
 31
0.0
  0
LINE
  5
1DFE
  8
0
 10
53.3596026341378504
 20
49.3842024012020104
 30
0.0
 11
53.3610977777313735
 21
49.323300745836292
 31
0.0
  0
POLYLINE
  5
1DFF
  8
0
 66
     1
 10
0.0
 20
0.0
 30
0.0
  0
VERTEX
  5
2352
  8
0
 10
53.3596026341378078
 20
49.384202401201982
 30
0.0
  0
VERTEX
  5
2353
  8
0
 10
53.3469173229813123
 20
49.6630824176746088
 30
0.0
  0
VERTEX
  5
2354
  8
0
 10
53.3446490884381603
 20
49.8175691824386035
 30
0.0
  0
SEQEND
  5
2355
  8
0
  0
POLYLINE
  5
1E00
  8
0
 66
     1
 10
0.0
 20
0.0
 30
0.0
  0
VERTEX
  5
2356
  8
0
 10
55.3729195759019319
 20
48.9525562890667629
 30
0.0
  0
VERTEX
  5
2357
  8
0
 10
55.3681711683763282
 20
48.9534555337931607
 30
0.0
  0
VERTEX
  5
2358
  8
0
 10
55.3623850193393707
 20
48.9568601956633671
 30
0.0
  0
VERTEX
  5
2359
  8
0
 10
55.3537340247753491
 20
48.9662418369801387
 30
0.0
  0
VERTEX
  5
235A
  8
0
 10
55.3289162532695684
 20
49.0163561875146172
 30
0.0
  0
VERTEX
  5
235B
  8
0
 10
55.2701548443511115
 20
49.2287873099359103
 30
0.0
  0
VERTEX
  5
235C
  8
0
 10
55.2428491114602309
 20
49.3842024012019891
 30
0.0
  0
SEQEND
  5
235D
  8
0
  0
LINE
  5
1E01
  8
0
 10
55.4660995106404116
 20
48.9525562873449616
 30
0.0
 11
55.3729195759019319
 21
48.9525562890667629
 31
0.0
  0
LINE
  5
1E02
  8
0
 10
55.5177710814735903
 20
49.3842024267761488
 30
0.0
 11
55.5250015210878303
 21
49.2479981792396728
 31
0.0
  0
POLYLINE
  5
1E03
  8
0
 66
     1
 10
0.0
 20
0.0
 30
0.0
  0
VERTEX
  5
235E
  8
0
 10
55.517771081473569
 20
49.3842024267761133
 30
0.0
  0
VERTEX
  5
235F
  8
0
 10
55.484795041201302
 20
49.6630743489458482
 30
0.0
  0
VERTEX
  5
2360
  8
0
 10
55.4568372846670528
 20
49.9306604302841777
 30
0.0
  0
VERTEX
  5
2361
  8
0
 10
55.4454546330745188
 20
50.1730697261164167
 30
0.0
  0
SEQEND
  5
2362
  8
0
  0
POLYLINE
  5
1E04
  8
0
 66
     1
 10
0.0
 20
0.0
 30
0.0
  0
VERTEX
  5
2363
  8
0
 10
57.3697637154708389
 20
48.9525562890667416
 30
0.0
  0
VERTEX
  5
2364
  8
0
 10
57.3655521114404507
 20
48.9534435607940495
 30
0.0
  0
VERTEX
  5
2365
  8
0
 10
57.3603184408737192
 20
48.9568256497475289
 30
0.0
  0
VERTEX
  5
2366
  8
0
 10
57.3523572997579834
 20
48.9661431207559517
 30
0.0
  0
VERTEX
  5
2367
  8
0
 10
57.3286930490238831
 20
49.015758947215609
 30
0.0
  0
VERTEX
  5
2368
  8
0
 10
57.267076347214072
 20
49.2261953203204996
 30
0.0
  0
VERTEX
  5
2369
  8
0
 10
57.232642138799541
 20
49.384202401201982
 30
0.0
  0
SEQEND
  5
236A
  8
0
  0
LINE
  5
1E05
  8
0
 10
57.4522819524110488
 20
48.9525562890764476
 30
0.0
 11
57.3697637154708389
 21
48.9525562890667416
 31
0.0
  0
POLYLINE
  5
1E06
  8
0
 66
     1
 10
0.0
 20
0.0
 30
0.0
  0
VERTEX
  5
236B
  8
0
 10
57.4761073613858215
 20
49.3842024012020531
 30
0.0
  0
VERTEX
  5
236C
  8
0
 10
57.4930044063308898
 20
49.191737427566693
 30
0.0
  0
VERTEX
  5
236D
  8
0
 10
57.4931289231710423
 20
49.1740471813264435
 30
0.0
  0
SEQEND
  5
236E
  8
0
  0
POLYLINE
  5
1E07
  8
0
 66
     1
 10
0.0
 20
0.0
 30
0.0
  0
VERTEX
  5
236F
  8
0
 10
57.4761073613858002
 20
49.384202401201982
 30
0.0
  0
VERTEX
  5
2370
  8
0
 10
57.4242848652670475
 20
49.663057933413107
 30
0.0
  0
VERTEX
  5
2371
  8
0
 10
57.3708075724414925
 20
49.9306291779453488
 30
0.0
  0
VERTEX
  5
2372
  8
0
 10
57.3268355308932982
 20
50.17967460343651
 30
0.0
  0
VERTEX
  5
2373
  8
0
 10
57.3093197076384229
 20
50.330050269858738
 30
0.0
  0
VERTEX
  5
2374
  8
0
 10
57.3058929301632816
 20
50.4145337259673383
 30
0.0
  0
SEQEND
  5
2375
  8
0
  0
POLYLINE
  5
1E08
  8
0
 66
     1
 10
0.0
 20
0.0
 30
0.0
  0
VERTEX
  5
2376
  8
0
 10
59.0858347380661826
 20
48.9525562890667416
 30
0.0
  0
VERTEX
  5
2377
  8
0
 10
59.0823321532849874
 20
48.9534336610927028
 30
0.0
  0
VERTEX
  5
2378
  8
0
 10
59.0778764699008718
 20
48.9567970482576271
 30
0.0
  0
VERTEX
  5
2379
  8
0
 10
59.0709452609807499
 20
48.9660614661854083
 30
0.0
  0
VERTEX
  5
237A
  8
0
 10
59.0494380454753909
 20
49.0152665080112726
 30
0.0
  0
VERTEX
  5
237B
  8
0
 10
58.9877243821804313
 20
49.2240591030430181
 30
0.0
  0
VERTEX
  5
237C
  8
0
 10
58.9476548990363867
 20
49.3842024012323293
 30
0.0
  0
SEQEND
  5
237D
  8
0
  0
LINE
  5
1E09
  8
0
 10
59.1540848132756309
 20
48.9525562892582329
 30
0.0
 11
59.0858347380661826
 21
48.9525562890667416
 31
0.0
  0
POLYLINE
  5
1E0A
  8
0
 66
     1
 10
0.0
 20
0.0
 30
0.0
  0
VERTEX
  5
237E
  8
0
 10
59.1490227651383407
 20
49.3842024368335331
 30
0.0
  0
VERTEX
  5
237F
  8
0
 10
59.1761076742137888
 20
49.1918603880689815
 30
0.0
  0
VERTEX
  5
2380
  8
0
 10
59.1794140679202201
 20
49.1106056185326807
 30
0.0
  0
VERTEX
  5
2381
  8
0
 10
59.1794608289538928
 20
49.1006244442736914
 30
0.0
  0
SEQEND
  5
2382
  8
0
  0
POLYLINE
  5
1E0B
  8
0
 66
     1
 10
0.0
 20
0.0
 30
0.0
  0
VERTEX
  5
2383
  8
0
 10
59.1490227651382767
 20
49.3842024368333909
 30
0.0
  0
VERTEX
  5
2384
  8
0
 10
59.0806249913391071
 20
49.6630279896154221
 30
0.0
  0
VERTEX
  5
2385
  8
0
 10
59.0039737239263502
 20
49.9305720938657913
 30
0.0
  0
VERTEX
  5
2386
  8
0
 10
58.9293330217296329
 20
50.1795961259572465
 30
0.0
  0
VERTEX
  5
2387
  8
0
 10
58.8870835374318915
 20
50.3299859521094106
 30
0.0
  0
VERTEX
  5
2388
  8
0
 10
58.8566707062311707
 20
50.4665266707741722
 30
0.0
  0
VERTEX
  5
2389
  8
0
 10
58.8446414879481878
 20
50.5865281497376102
 30
0.0
  0
SEQEND
  5
238A
  8
0
  0
POLYLINE
  5
1E0C
  8
0
 66
     1
 10
0.0
 20
0.0
 30
0.0
  0
VERTEX
  5
238B
  8
0
 10
60.4461320518911904
 20
48.9525562890667487
 30
0.0
  0
VERTEX
  5
238C
  8
0
 10
60.4434417693415469
 20
48.9534500585416126
 30
0.0
  0
VERTEX
  5
238D
  8
0
 10
60.4399382719506306
 20
48.9568444039256931
 30
0.0
  0
VERTEX
  5
238E
  8
0
 10
60.4342859225886926
 20
48.9661966991538407
 30
0.0
  0
VERTEX
  5
238F
  8
0
 10
60.4155501926233569
 20
49.016082841797683
 30
0.0
  0
VERTEX
  5
2390
  8
0
 10
60.3553887840676495
 20
49.2276008501423519
 30
0.0
  0
VERTEX
  5
2391
  8
0
 10
60.3129331050040989
 20
49.3842024012314127
 30
0.0
  0
SEQEND
  5
2392
  8
0
  0
LINE
  5
1E0D
  8
0
 10
60.4971311420582367
 20
48.9525562882245922
 30
0.0
 11
60.4461320518911904
 21
48.9525562890667487
 31
0.0
  0
POLYLINE
  5
1E0E
  8
0
 66
     1
 10
0.0
 20
0.0
 30
0.0
  0
VERTEX
  5
2393
  8
0
 10
60.4634028876409602
 20
49.3842024012020389
 30
0.0
  0
VERTEX
  5
2394
  8
0
 10
60.4995111482795878
 20
49.1917195074861127
 30
0.0
  0
VERTEX
  5
2395
  8
0
 10
60.5074388388398532
 20
49.1104845475871983
 30
0.0
  0
VERTEX
  5
2396
  8
0
 10
60.5100498476836606
 20
49.0554064678614381
 30
0.0
  0
VERTEX
  5
2397
  8
0
 10
60.5102974793463417
 20
49.0352481850596078
 30
0.0
  0
SEQEND
  5
2398
  8
0
  0
POLYLINE
  5
1E0F
  8
0
 66
     1
 10
0.0
 20
0.0
 30
0.0
  0
VERTEX
  5
2399
  8
0
 10
60.4634028876409602
 20
49.384202401201982
 30
0.0
  0
VERTEX
  5
239A
  8
0
 10
60.3814324115865872
 20
49.6629704654915614
 30
0.0
  0
VERTEX
  5
239B
  8
0
 10
60.2849757096812198
 20
49.9304625260914321
 30
0.0
  0
VERTEX
  5
239C
  8
0
 10
60.1829495982143214
 20
50.1794455339674883
 30
0.0
  0
VERTEX
  5
239D
  8
0
 10
60.11780864202413
 20
50.3298625338664678
 30
0.0
  0
VERTEX
  5
239E
  8
0
 10
60.0602637034256404
 20
50.4664305511601725
 30
0.0
  0
VERTEX
  5
239F
  8
0
 10
60.0164345644985175
 20
50.5863454129316494
 30
0.0
  0
VERTEX
  5
23A0
  8
0
 10
59.9952115771611076
 20
50.682646034447842
 30
0.0
  0
VERTEX
  5
23A1
  8
0
 10
59.9944563301294522
 20
50.6990401739210199
 30
0.0
  0
SEQEND
  5
23A2
  8
0
  0
POLYLINE
  5
1E10
  8
0
 66
     1
 10
0.0
 20
0.0
 30
0.0
  0
VERTEX
  5
23A3
  8
0
 10
61.3912041983796186
 20
48.9525562890667487
 30
0.0
  0
VERTEX
  5
23A4
  8
0
 10
61.3894679983012566
 20
48.9534590096874069
 30
0.0
  0
VERTEX
  5
23A5
  8
0
 10
61.3870783739122317
 20
48.9568702155781281
 30
0.0
  0
VERTEX
  5
23A6
  8
0
 10
61.3829739066205207
 20
48.9662704878987682
 30
0.0
  0
VERTEX
  5
23A7
  8
0
 10
61.3679466436382199
 20
49.0165299175860198
 30
0.0
  0
VERTEX
  5
23A8
  8
0
 10
61.3122105597632512
 20
49.2295415220899528
 30
0.0
  0
VERTEX
  5
23A9
  8
0
 10
61.2688075477702512
 20
49.3842024012269292
 30
0.0
  0
SEQEND
  5
23AA
  8
0
  0
LINE
  5
1E11
  8
0
 10
61.4227233695397388
 20
48.9525562879645406
 30
0.0
 11
61.3912041983796186
 21
48.9525562890667487
 31
0.0
  0
POLYLINE
  5
1E12
  8
0
 66
     1
 10
0.0
 20
0.0
 30
0.0
  0
VERTEX
  5
23AB
  8
0
 10
61.361802987719642
 20
49.3842024012020104
 30
0.0
  0
VERTEX
  5
23AC
  8
0
 10
61.4053598273534718
 20
49.1916426538572296
 30
0.0
  0
VERTEX
  5
23AD
  8
0
 10
61.4175663333424993
 20
49.1104184195716726
 30
0.0
  0
VERTEX
  5
23AE
  8
0
 10
61.4235900566554278
 20
49.0553483197179716
 30
0.0
  0
VERTEX
  5
23AF
  8
0
 10
61.4263579842419389
 20
49.0182792121222874
 30
0.0
  0
VERTEX
  5
23B0
  8
0
 10
61.4273674570563912
 20
48.9934604840816377
 30
0.0
  0
VERTEX
  5
23B1
  8
0
 10
61.4274752978399974
 20
48.9842565451855307
 30
0.0
  0
SEQEND
  5
23B2
  8
0
  0
POLYLINE
  5
1E13
  8
0
 66
     1
 10
0.0
 20
0.0
 30
0.0
  0
VERTEX
  5
23B3
  8
0
 10
61.3618029877195781
 20
49.3842024012020033
 30
0.0
  0
VERTEX
  5
23B4
  8
0
 10
61.26987738546282
 20
49.6628372528386208
 30
0.0
  0
VERTEX
  5
23B5
  8
0
 10
61.1578811609724582
 20
49.9302087096581673
 30
0.0
  0
VERTEX
  5
23B6
  8
0
 10
61.0329884294622218
 20
50.1790966256424227
 30
0.0
  0
VERTEX
  5
23B7
  8
0
 10
60.9477936289579816
 20
50.3295765966470512
 30
0.0
  0
VERTEX
  5
23B8
  8
0
 10
60.8656157219820386
 20
50.4662078711521076
 30
0.0
  0
VERTEX
  5
23B9
  8
0
 10
60.7917573776747986
 20
50.5861862478968689
 30
0.0
  0
VERTEX
  5
23BA
  8
0
 10
60.7358122159438381
 20
50.6825464013386124
 30
0.0
  0
VERTEX
  5
23BB
  8
0
 10
60.7050781535292927
 20
50.7646668779698729
 30
0.0
  0
SEQEND
  5
23BC
  8
0
  0
POLYLINE
  5
1E14
  8
0
 66
     1
 10
0.0
 20
0.0
 30
0.0
  0
VERTEX
  5
23BD
  8
0
 10
61.8797469607671928
 20
48.9525562890667416
 30
0.0
  0
VERTEX
  5
23BE
  8
0
 10
61.8790528959522419
 20
48.9534630422432286
 30
0.0
  0
VERTEX
  5
23BF
  8
0
 10
61.8778863517603099
 20
48.9568818351018322
 30
0.0
  0
VERTEX
  5
23C0
  8
0
 10
61.8755215925714026
 20
48.9663037232509666
 30
0.0
  0
VERTEX
  5
23C1
  8
0
 10
61.8649319608991206
 20
49.0167316656612115
 30
0.0
  0
VERTEX
  5
23C2
  8
0
 10
61.816263171925101
 20
49.2304174996950366
 30
0.0
  0
VERTEX
  5
23C3
  8
0
 10
61.7735019273914574
 20
49.3842024012254228
 30
0.0
  0
SEQEND
  5
23C4
  8
0
  0
LINE
  5
1E15
  8
0
 10
61.8904086738949317
 20
48.9525562882540797
 30
0.0
 11
61.8797469607671928
 21
48.9525562890667416
 31
0.0
  0
POLYLINE
  5
1E16
  8
0
 66
     1
 10
0.0
 20
0.0
 30
0.0
  0
VERTEX
  5
23C5
  8
0
 10
61.8049586776859599
 20
49.3842024012019607
 30
0.0
  0
VERTEX
  5
23C6
  8
0
 10
61.8540586569444599
 20
49.1916062939262702
 30
0.0
  0
VERTEX
  5
23C7
  8
0
 10
61.8700132324691694
 20
49.1103875166140114
 30
0.0
  0
VERTEX
  5
23C8
  8
0
 10
61.8791882578192869
 20
49.0553214591792894
 30
0.0
  0
VERTEX
  5
23C9
  8
0
 10
61.8845343296837029
 20
49.0182561181801901
 30
0.0
  0
VERTEX
  5
23CA
  8
0
 10
61.8876543734820288
 20
48.9934410417982988
 30
0.0
  0
VERTEX
  5
23CB
  8
0
 10
61.8894416261457465
 20
48.9769256659734609
 30
0.0
  0
VERTEX
  5
23CC
  8
0
 10
61.8907186593094991
 20
48.9613970230728626
 30
0.0
  0
VERTEX
  5
23CD
  8
0
 10
61.8909084236859428
 20
48.9562168655094609
 30
0.0
  0
VERTEX
  5
23CE
  8
0
 10
61.8907538157915482
 20
48.9532281891736076
 30
0.0
  0
VERTEX
  5
23CF
  8
0
 10
61.8904086738949317
 20
48.9525562882540797
 30
0.0
  0
SEQEND
  5
23D0
  8
0
  0
POLYLINE
  5
1E17
  8
0
 66
     1
 10
0.0
 20
0.0
 30
0.0
  0
VERTEX
  5
23D1
  8
0
 10
61.8049586776859599
 20
49.3842024012019607
 30
0.0
  0
VERTEX
  5
23D2
  8
0
 10
61.6520678716161399
 20
49.7917576095295118
 30
0.0
  0
VERTEX
  5
23D3
  8
0
 10
61.552443713069998
 20
49.9911909145539468
 30
0.0
  0
VERTEX
  5
23D4
  8
0
 10
61.4415954451050723
 20
50.1797404768813777
 30
0.0
  0
VERTEX
  5
23D5
  8
0
 10
61.3411403559326018
 20
50.3287858047582475
 30
0.0
  0
VERTEX
  5
23D6
  8
0
 10
61.2369913832724819
 20
50.4666188118865406
 30
0.0
  0
VERTEX
  5
23D7
  8
0
 10
61.1383044394508204
 20
50.5844671634946366
 30
0.0
  0
VERTEX
  5
23D8
  8
0
 10
61.0483434205404407
 20
50.6827302852550332
 30
0.0
  0
VERTEX
  5
23D9
  8
0
 10
60.9671751451094792
 20
50.7647959143709926
 30
0.0
  0
VERTEX
  5
23DA
  8
0
 10
60.9454545499738174
 20
50.785778942618883
 30
0.0
  0
SEQEND
  5
23DB
  8
0
  0
ARC
  5
1E18
  8
0
 10
42.9144497583382574
 20
48.5223616518692822
 30
0.0
 40
2.999999999999948
 50
114.6032103784229008
 51
131.1693930521990978
  0
ARC
  5
1E19
  8
0
 10
58.9764593325708972
 20
48.5223616518693177
 30
0.0
 40
2.9999999999999072
 50
48.8290805897962912
 51
65.3967896215770708
  0
POLYLINE
  5
1E1A
  8
0
 66
     1
 10
0.0
 20
0.0
 30
0.0
  0
VERTEX
  5
23DC
  8
0
 10
40.9454545449195635
 20
50.7857789464314635
 30
0.0
  0
VERTEX
  5
23DD
  8
0
 10
40.9440303684942535
 20
50.7844152865577882
 30
0.0
  0
VERTEX
  5
23DE
  8
0
 10
40.9021749736661988
 20
50.7435703912937015
 30
0.0
  0
VERTEX
  5
23DF
  8
0
 10
40.8105278051309028
 20
50.6486613622574069
 30
0.0
  0
VERTEX
  5
23E0
  8
0
 10
40.6746272569293978
 20
50.4923015081224591
 30
0.0
  0
VERTEX
  5
23E1
  8
0
 10
40.5573471810178319
 20
50.3393427413484176
 30
0.0
  0
VERTEX
  5
23E2
  8
0
 10
40.4389006946968479
 20
50.1632214106568171
 30
0.0
  0
VERTEX
  5
23E3
  8
0
 10
40.2750657675942989
 20
49.8684158618122026
 30
0.0
  0
VERTEX
  5
23E4
  8
0
 10
40.1380752619860672
 20
49.5435919664379796
 30
0.0
  0
VERTEX
  5
23E5
  8
0
 10
40.0859504132294973
 20
49.3842024012233622
 30
0.0
  0
SEQEND
  5
23E6
  8
0
  0
LINE
  5
1E3E
  8
0
 10
50.9454545454545666
 20
70.5473790923247748
 30
0.0
 11
50.9454545454545666
 21
70.5473790923247748
 31
0.0
  0
POLYLINE
  5
1FD1
  8
0
 66
     1
 10
0.0
 20
0.0
 30
0.0
  0
VERTEX
  5
23E7
  8
0
 10
92.8416960335313775
 20
121.7644859290259944
 30
0.0
  0
VERTEX
  5
23E8
  8
0
 10
93.1960598335788859
 20
122.2158246328660027
 30
0.0
  0
VERTEX
  5
23E9
  8
0
 10
93.5169225894098872
 20
122.6825031027486972
 30
0.0
  0
VERTEX
  5
23EA
  8
0
 10
93.8037005894223768
 20
123.160507494436402
 30
0.0
  0
VERTEX
  5
23EB
  8
0
 10
94.0558101220143215
 20
123.6458239636912992
 30
0.0
  0
VERTEX
  5
23EC
  8
0
 10
94.3088099540208162
 20
124.222685137748897
 30
0.0
  0
VERTEX
  5
23ED
  8
0
 10
94.5185337640935472
 20
124.8086794260018024
 30
0.0
  0
VERTEX
  5
23EE
  8
0
 10
94.6856553180579255
 20
125.4010333627390992
 30
0.0
  0
VERTEX
  5
23EF
  8
0
 10
94.8108483817392766
 20
125.9969734822496008
 30
0.0
  0
VERTEX
  5
23F0
  8
0
 10
94.8947867209630544
 20
126.5937263188226041
 30
0.0
  0
VERTEX
  5
23F1
  8
0
 10
94.9323612069401577
 20
127.0620872673155048
 30
0.0
  0
VERTEX
  5
23F2
  8
0
 10
94.9454395454358178
 20
127.5309474121796001
 30
0.0
  0
VERTEX
  5
23F3
  8
0
 10
94.9454545454545666
 20
127.5473790923247037
 30
0.0
  0
SEQEND
  5
23F4
  8
0
  0
POLYLINE
  5
1FD2
  8
0
 66
     1
 10
0.0
 20
0.0
 30
0.0
  0
VERTEX
  5
23F5
  8
0
 10
94.9454545454545666
 20
127.5473790923247037
 30
0.0
  0
VERTEX
  5
23F6
  8
0
 10
94.9454395454358178
 20
127.5638107724699069
 30
0.0
  0
VERTEX
  5
23F7
  8
0
 10
94.9323612069401577
 20
128.0326709173340021
 30
0.0
  0
VERTEX
  5
23F8
  8
0
 10
94.8947867209630544
 20
128.5010318658268886
 30
0.0
  0
VERTEX
  5
23F9
  8
0
 10
94.8108483817392766
 20
129.0977847023997924
 30
0.0
  0
VERTEX
  5
23FA
  8
0
 10
94.6856553180579255
 20
129.6937248219103935
 30
0.0
  0
VERTEX
  5
23FB
  8
0
 10
94.5185337640935757
 20
130.2860787586475908
 30
0.0
  0
VERTEX
  5
23FC
  8
0
 10
94.3088099540208162
 20
130.8720730469005105
 30
0.0
  0
VERTEX
  5
23FD
  8
0
 10
94.0558101220143215
 20
131.4489342209581935
 30
0.0
  0
VERTEX
  5
23FE
  8
0
 10
93.8037005894223768
 20
131.9342506902129912
 30
0.0
  0
VERTEX
  5
23FF
  8
0
 10
93.5169225894098872
 20
132.412255081900696
 30
0.0
  0
VERTEX
  5
2400
  8
0
 10
93.1960598335788859
 20
132.87893355178349
 30
0.0
  0
VERTEX
  5
2401
  8
0
 10
92.8416960335313775
 20
133.3302722556234983
 30
0.0
  0
SEQEND
  5
2402
  8
0
  0
LINE
  5
1FD3
  8
0
 10
85.9454545454545666
 20
118.5473790923247037
 30
0.0
 11
42.9454545454545311
 21
118.5473790923247037
 31
0.0
  0
LINE
  5
1FD4
  8
0
 10
58.3054545454545519
 20
123.647379092324698
 30
0.0
 11
42.9454545454545311
 21
123.647379092324698
 31
0.0
  0
LINE
  5
1FD5
  8
0
 10
42.9454545454545311
 20
123.647379092324698
 30
0.0
 11
42.9454545454545311
 21
118.5473790923247037
 31
0.0
  0
LINE
  5
1FD6
  8
0
 10
85.9454545454545666
 20
136.5473790923246895
 30
0.0
 11
42.9454545454545311
 21
136.5473790923246895
 31
0.0
  0
LINE
  5
1FD7
  8
0
 10
42.9454545454545311
 20
136.5473790923246895
 30
0.0
 11
42.9454545454545311
 21
131.4473790923246952
 31
0.0
  0
LINE
  5
1FD8
  8
0
 10
42.9454545454545311
 20
131.4473790923246952
 30
0.0
 11
58.3054545454545519
 21
131.4473790923246952
 31
0.0
  0
POLYLINE
  5
1FDA
  8
0
 66
     1
 10
0.0
 20
0.0
 30
0.0
  0
VERTEX
  5
2403
  8
0
 10
92.8416960335313775
 20
133.3302722556234983
 30
0.0
  0
VERTEX
  5
2404
  8
0
 10
92.3236880015390966
 20
133.8969586743554032
 30
0.0
  0
VERTEX
  5
2405
  8
0
 10
91.7610602396626689
 20
134.4160565785292931
 30
0.0
  0
VERTEX
  5
2406
  8
0
 10
91.1394789406190569
 20
134.8972833214689047
 30
0.0
  0
VERTEX
  5
2407
  8
0
 10
90.4797305974862667
 20
135.3217176933873134
 30
0.0
  0
VERTEX
  5
2408
  8
0
 10
89.8070434109876032
 20
135.6767859327715087
 30
0.0
  0
VERTEX
  5
2409
  8
0
 10
89.1073989397132777
 20
135.9736539304495864
 30
0.0
  0
VERTEX
  5
240A
  8
0
 10
88.3647005341117335
 20
136.2160734711987118
 30
0.0
  0
VERTEX
  5
240B
  8
0
 10
87.6035257290287177
 20
136.3933273145449903
 30
0.0
  0
VERTEX
  5
240C
  8
0
 10
87.194251808146646
 20
136.4603149261162116
 30
0.0
  0
VERTEX
  5
240D
  8
0
 10
86.7820685523746533
 20
136.5084101157854093
 30
0.0
  0
VERTEX
  5
240E
  8
0
 10
86.3643992520053416
 20
136.5376182509220939
 30
0.0
  0
VERTEX
  5
240F
  8
0
 10
85.9454545454545666
 20
136.5473790923246895
 30
0.0
  0
SEQEND
  5
2410
  8
0
  0
POLYLINE
  5
1FDC
  8
0
 66
     1
 10
0.0
 20
0.0
 30
0.0
  0
VERTEX
  5
2411
  8
0
 10
59.3054545454545519
 20
130.4473790923246952
 30
0.0
  0
VERTEX
  5
2412
  8
0
 10
59.2911683870387591
 20
130.6152086093368894
 30
0.0
  0
VERTEX
  5
2413
  8
0
 10
59.2491105825499105
 20
130.7783070054017003
 30
0.0
  0
VERTEX
  5
2414
  8
0
 10
59.1800942673041277
 20
130.9319448268213932
 30
0.0
  0
VERTEX
  5
2415
  8
0
 10
59.0864425716410722
 20
131.0719250897928134
 30
0.0
  0
VERTEX
  5
2416
  8
0
 10
58.9704777190362606
 20
131.1940670365171115
 30
0.0
  0
VERTEX
  5
2417
  8
0
 10
58.8357895536186106
 20
131.2951672611002039
 30
0.0
  0
VERTEX
  5
2418
  8
0
 10
58.6859248741438577
 20
131.372063450519903
 30
0.0
  0
VERTEX
  5
2419
  8
0
 10
58.5253540167386674
 20
131.4229016305210109
 30
0.0
  0
VERTEX
  5
241A
  8
0
 10
58.3054545454545519
 20
131.4473790923246952
 30
0.0
  0
SEQEND
  5
241B
  8
0
  0
LINE
  5
1FDD
  8
0
 10
59.3054545454545519
 20
130.4473790923246952
 30
0.0
 11
59.3054545454545519
 21
124.647379092324698
 31
0.0
  0
POLYLINE
  5
1FDE
  8
0
 66
     1
 10
0.0
 20
0.0
 30
0.0
  0
VERTEX
  5
241C
  8
0
 10
58.3054545454545519
 20
123.647379092324698
 30
0.0
  0
VERTEX
  5
241D
  8
0
 10
58.4733592583071129
 20
123.6616780099141977
 30
0.0
  0
VERTEX
  5
241E
  8
0
 10
58.6365407251933277
 20
123.7037785721965975
 30
0.0
  0
VERTEX
  5
241F
  8
0
 10
58.7902683861121318
 20
123.7728771024470973
 30
0.0
  0
VERTEX
  5
2420
  8
0
 10
58.9303305713345011
 20
123.8666550999430029
 30
0.0
  0
VERTEX
  5
2421
  8
0
 10
59.052484804281498
 20
123.9827408752736062
 30
0.0
  0
VERTEX
  5
2422
  8
0
 10
59.1535778012862465
 20
124.1175801276999948
 30
0.0
  0
VERTEX
  5
2423
  8
0
 10
59.2303905526949279
 20
124.2675215888038025
 30
0.0
  0
VERTEX
  5
2424
  8
0
 10
59.2811338071926173
 20
124.4281760398499017
 30
0.0
  0
VERTEX
  5
2425
  8
0
 10
59.3054545454545519
 20
124.647379092324698
 30
0.0
  0
SEQEND
  5
2426
  8
0
  0
POLYLINE
  5
1FE0
  8
0
 66
     1
 10
0.0
 20
0.0
 30
0.0
  0
VERTEX
  5
2427
  8
0
 10
85.9454545454545666
 20
118.5473790923247037
 30
0.0
  0
VERTEX
  5
2428
  8
0
 10
86.7164867877724816
 20
118.580521265785805
 30
0.0
  0
VERTEX
  5
2429
  8
0
 10
87.4807744218859256
 20
118.679301911952706
 30
0.0
  0
VERTEX
  5
242A
  8
0
 10
88.2547387700976458
 20
118.8487491620116998
 30
0.0
  0
VERTEX
  5
242B
  8
0
 10
89.0105025584015834
 20
119.0853769250874024
 30
0.0
  0
VERTEX
  5
242C
  8
0
 10
89.7222042487060349
 20
119.3782150483995963
 30
0.0
  0
VERTEX
  5
242D
  8
0
 10
90.4068391886216602
 20
119.7309830515836069
 30
0.0
  0
VERTEX
  5
242E
  8
0
 10
90.8583119947882096
 20
120.0066238696195029
 30
0.0
  0
VERTEX
  5
242F
  8
0
 10
91.2937088924988416
 20
120.3089169291754956
 30
0.0
  0
VERTEX
  5
2430
  8
0
 10
91.7108494914520946
 20
120.6365020773095011
 30
0.0
  0
VERTEX
  5
2431
  8
0
 10
92.0102758930272273
 20
120.8977270234673966
 30
0.0
  0
VERTEX
  5
2432
  8
0
 10
92.2982853765787041
 20
121.1723072942100004
 30
0.0
  0
VERTEX
  5
2433
  8
0
 10
92.5763788263696483
 20
121.4620879643120048
 30
0.0
  0
VERTEX
  5
2434
  8
0
 10
92.8416960335313775
 20
121.7644859290259944
 30
0.0
  0
SEQEND
  5
2435
  8
0
  0
LINE
  5
205B
  8
1
 10
50.9454545454545666
 20
141.5473790923248032
 30
0.0
 11
50.9454545454545666
 21
113.5473790923247037
 31
0.0
  0
LINE
  5
205C
  8
1
 10
36.9454545454546022
 20
127.5473790923248032
 30
0.0
 11
97.9454545454545666
 21
127.5473790923248032
 31
0.0
  0
POLYLINE
  5
205D
  8
0
 66
     1
 10
0.0
 20
0.0
 30
0.0
  0
VERTEX
  5
2436
  8
0
 10
50.9964536601441978
 20
138.5472608685213061
 30
0.0
  0
VERTEX
  5
2437
  8
0
 10
50.9968987987235209
 20
138.5472578137585913
 30
0.0
  0
VERTEX
  5
2438
  8
0
 10
51.0019124275386204
 20
138.5470864134601925
 30
0.0
  0
VERTEX
  5
2439
  8
0
 10
51.0101509593931368
 20
138.546254201412296
 30
0.0
  0
VERTEX
  5
243A
  8
0
 10
51.0165265385346274
 20
138.5451304800239996
 30
0.0
  0
VERTEX
  5
243B
  8
0
 10
51.0276452225888875
 20
138.5421194506751021
 30
0.0
  0
VERTEX
  5
243C
  8
0
 10
51.0369672892362871
 20
138.5384806997481917
 30
0.0
  0
VERTEX
  5
243D
  8
0
 10
51.0797031718581422
 20
138.501962074296614
 30
0.0
  0
VERTEX
  5
243E
  8
0
 10
51.0959243280914279
 20
138.4508853978030061
 30
0.0
  0
SEQEND
  5
243F
  8
0
  0
ARC
  5
205E
  8
0
 10
50.9454545400357901
 20
127.5473814297325958
 30
0.0
 40
10.9999976626423805
 50
89.7343595063320549
 51
90.2656402528803739
  0
POLYLINE
  5
205F
  8
0
 66
     1
 10
0.0
 20
0.0
 30
0.0
  0
VERTEX
  5
2440
  8
0
 10
50.7949847628176983
 20
138.4508853978030061
 30
0.0
  0
VERTEX
  5
2441
  8
0
 10
50.811205919050991
 20
138.501962074296614
 30
0.0
  0
VERTEX
  5
2442
  8
0
 10
50.8539418016728391
 20
138.5384806997481917
 30
0.0
  0
VERTEX
  5
2443
  8
0
 10
50.8632638683202387
 20
138.5421194506751021
 30
0.0
  0
VERTEX
  5
2444
  8
0
 10
50.8743825523745272
 20
138.5451304800239996
 30
0.0
  0
VERTEX
  5
2445
  8
0
 10
50.8807581315159894
 20
138.546254201412296
 30
0.0
  0
VERTEX
  5
2446
  8
0
 10
50.8889966633704773
 20
138.5470864134601925
 30
0.0
  0
VERTEX
  5
2447
  8
0
 10
50.8940102921855768
 20
138.5472578137585913
 30
0.0
  0
VERTEX
  5
2448
  8
0
 10
50.8944554661545965
 20
138.5472608687356058
 30
0.0
  0
SEQEND
  5
2449
  8
0
  0
POLYLINE
  5
2060
  8
0
 66
     1
 10
0.0
 20
0.0
 30
0.0
  0
VERTEX
  5
244A
  8
0
 10
50.7949847628176983
 20
138.4508853978030061
 30
0.0
  0
VERTEX
  5
244B
  8
0
 10
50.7868238373065068
 20
138.3514779498244138
 30
0.0
  0
VERTEX
  5
244C
  8
0
 10
50.7612376676724182
 20
138.2252725856417044
 30
0.0
  0
VERTEX
  5
244D
  8
0
 10
50.7073620628316633
 20
138.0763091293891875
 30
0.0
  0
VERTEX
  5
244E
  8
0
 10
50.6505392332933582
 20
137.96830993127341
 30
0.0
  0
VERTEX
  5
244F
  8
0
 10
50.5715762119501377
 20
137.8563067801009083
 30
0.0
  0
VERTEX
  5
2450
  8
0
 10
50.4645698472231103
 20
137.7439568979058038
 30
0.0
  0
VERTEX
  5
2451
  8
0
 10
50.3287981641627766
 20
137.6411034417602934
 30
0.0
  0
VERTEX
  5
2452
  8
0
 10
50.2218060552662777
 20
137.5825546779695117
 30
0.0
  0
VERTEX
  5
2453
  8
0
 10
50.1040527812582468
 20
137.5358668465322012
 30
0.0
  0
VERTEX
  5
2454
  8
0
 10
49.9776364269665976
 20
137.5039253599018991
 30
0.0
  0
VERTEX
  5
2455
  8
0
 10
49.8469606310700613
 20
137.4884376387369116
 30
0.0
  0
VERTEX
  5
2456
  8
0
 10
49.7249388443914029
 20
137.4896953254726952
 30
0.0
  0
VERTEX
  5
2457
  8
0
 10
49.6062299520277676
 20
137.5052221439337927
 30
0.0
  0
VERTEX
  5
2458
  8
0
 10
49.4923334095402723
 20
137.5342784101956113
 30
0.0
  0
VERTEX
  5
2459
  8
0
 10
49.3871673357269572
 20
137.5743500369810022
 30
0.0
  0
VERTEX
  5
245A
  8
0
 10
49.2825709277950921
 20
137.6288052915724904
 30
0.0
  0
VERTEX
  5
245B
  8
0
 10
49.1912786262669428
 20
137.6904107234792889
 30
0.0
  0
VERTEX
  5
245C
  8
0
 10
49.0717034678109485
 20
137.7972418526389902
 30
0.0
  0
VERTEX
  5
245D
  8
0
 10
48.9822079715981431
 20
137.9054619860347088
 30
0.0
  0
VERTEX
  5
245E
  8
0
 10
48.8901762433532099
 20
138.0621640756995134
 30
0.0
  0
VERTEX
  5
245F
  8
0
 10
48.8398775385053909
 20
138.1929850294382902
 30
0.0
  0
VERTEX
  5
2460
  8
0
 10
48.8256697705096698
 20
138.2439020515392087
 30
0.0
  0
SEQEND
  5
2461
  8
0
  0
POLYLINE
  5
2061
  8
0
 66
     1
 10
0.0
 20
0.0
 30
0.0
  0
VERTEX
  5
2462
  8
0
 10
48.7083351917166496
 20
138.3174903729536993
 30
0.0
  0
VERTEX
  5
2463
  8
0
 10
48.7134013340517527
 20
138.3184073254313091
 30
0.0
  0
VERTEX
  5
2464
  8
0
 10
48.7194820937056932
 20
138.3191570397023042
 30
0.0
  0
VERTEX
  5
2465
  8
0
 10
48.7284316359449505
 20
138.3195799722305139
 30
0.0
  0
VERTEX
  5
2466
  8
0
 10
48.7532358296552388
 20
138.3165165709116877
 30
0.0
  0
VERTEX
  5
2467
  8
0
 10
48.7848000709516896
 20
138.3028406894077875
 30
0.0
  0
VERTEX
  5
2468
  8
0
 10
48.8062813150351715
 20
138.2826428327192048
 30
0.0
  0
VERTEX
  5
2469
  8
0
 10
48.8256697705096698
 20
138.2439020515392087
 30
0.0
  0
SEQEND
  5
246A
  8
0
  0
ARC
  5
2062
  8
0
 10
50.9454560021375968
 20
127.5473722391692064
 30
0.0
 40
11.0000070061838198
 50
101.734359741719004
 51
102.2656400554644023
  0
POLYLINE
  5
2063
  8
0
 66
     1
 10
0.0
 20
0.0
 30
0.0
  0
VERTEX
  5
246B
  8
0
 10
48.53130645677129
 20
138.181333197689213
 30
0.0
  0
VERTEX
  5
246C
  8
0
 10
48.5365527231328073
 20
138.2346637612029099
 30
0.0
  0
VERTEX
  5
246D
  8
0
 10
48.5471829202791412
 20
138.2548932476557866
 30
0.0
  0
VERTEX
  5
246E
  8
0
 10
48.5578519961851498
 20
138.2680070372782097
 30
0.0
  0
VERTEX
  5
246F
  8
0
 10
48.5674635073455292
 20
138.2767512997307904
 30
0.0
  0
VERTEX
  5
2470
  8
0
 10
48.5758456407276924
 20
138.2827555788362019
 30
0.0
  0
VERTEX
  5
2471
  8
0
 10
48.5831263551123911
 20
138.2870006271002126
 30
0.0
  0
VERTEX
  5
2472
  8
0
 10
48.5930971417838791
 20
138.2915833256002998
 30
0.0
  0
VERTEX
  5
2473
  8
0
 10
48.5985574006124565
 20
138.2935572486584874
 30
0.0
  0
VERTEX
  5
2474
  8
0
 10
48.6042517491816213
 20
138.2952450746919055
 30
0.0
  0
VERTEX
  5
2475
  8
0
 10
48.6085658994792809
 20
138.2962837554200064
 30
0.0
  0
SEQEND
  5
2476
  8
0
  0
POLYLINE
  5
2064
  8
0
 66
     1
 10
0.0
 20
0.0
 30
0.0
  0
VERTEX
  5
2477
  8
0
 10
48.53130645677129
 20
138.181333197689213
 30
0.0
  0
VERTEX
  5
2478
  8
0
 10
48.543991767927821
 20
138.082402078297406
 30
0.0
  0
VERTEX
  5
2479
  8
0
 10
48.5452044542155292
 20
137.9536361374609044
 30
0.0
  0
VERTEX
  5
247A
  8
0
 10
48.5234780739431528
 20
137.7967280603201061
 30
0.0
  0
VERTEX
  5
247B
  8
0
 10
48.4903516833718129
 20
137.6792746637568996
 30
0.0
  0
VERTEX
  5
247C
  8
0
 10
48.4364013794220227
 20
137.5533014542781984
 30
0.0
  0
VERTEX
  5
247D
  8
0
 10
48.3550925708328521
 20
137.4211583691958936
 30
0.0
  0
VERTEX
  5
247E
  8
0
 10
48.2436724604555423
 20
137.2923233888967047
 30
0.0
  0
VERTEX
  5
247F
  8
0
 10
48.1511915866753881
 20
137.2128088559942114
 30
0.0
  0
VERTEX
  5
2480
  8
0
 10
48.0457186078083893
 20
137.1426586346987051
 30
0.0
  0
VERTEX
  5
2481
  8
0
 10
47.9287058214827013
 20
137.085131317361089
 30
0.0
  0
VERTEX
  5
2482
  8
0
 10
47.8041056430343687
 20
137.0428126183921052
 30
0.0
  0
VERTEX
  5
2483
  8
0
 10
47.6844888216942024
 20
137.01867273599089
 30
0.0
  0
VERTEX
  5
2484
  8
0
 10
47.5651457094589816
 20
137.0091789788203016
 30
0.0
  0
VERTEX
  5
2485
  8
0
 10
47.4476969113859184
 20
137.0139195848798011
 30
0.0
  0
VERTEX
  5
2486
  8
0
 10
47.3364975203774065
 20
137.0312500310348014
 30
0.0
  0
VERTEX
  5
2487
  8
0
 10
47.2228648600883218
 20
137.0627682098200921
 30
0.0
  0
VERTEX
  5
2488
  8
0
 10
47.1207589189372911
 20
137.1040464323353945
 30
0.0
  0
VERTEX
  5
2489
  8
0
 10
46.981585305740559
 20
137.1836815152130953
 30
0.0
  0
VERTEX
  5
248A
  8
0
 10
46.8715451102481708
 20
137.2709292628871935
 30
0.0
  0
VERTEX
  5
248B
  8
0
 10
46.7489439831281288
 20
137.405072166961105
 30
0.0
  0
VERTEX
  5
248C
  8
0
 10
46.6725447825507089
 20
137.5225766506034972
 30
0.0
  0
VERTEX
  5
248D
  8
0
 10
46.6480599794489024
 20
137.5694293243458901
 30
0.0
  0
SEQEND
  5
248E
  8
0
  0
POLYLINE
  5
2065
  8
0
 66
     1
 10
0.0
 20
0.0
 30
0.0
  0
VERTEX
  5
248F
  8
0
 10
46.517989570389652
 20
137.6170143337112961
 30
0.0
  0
VERTEX
  5
2490
  8
0
 10
46.5227379919580812
 20
137.6189583446137874
 30
0.0
  0
VERTEX
  5
2491
  8
0
 10
46.5285241657012705
 20
137.6209552448615909
 30
0.0
  0
VERTEX
  5
2492
  8
0
 10
46.5371752237287808
 20
137.6232285512917031
 30
0.0
  0
VERTEX
  5
2493
  8
0
 10
46.5619933379915665
 20
137.62540168764599
 30
0.0
  0
VERTEX
  5
2494
  8
0
 10
46.5956072267711008
 20
137.6186695777489035
 30
0.0
  0
VERTEX
  5
2495
  8
0
 10
46.6207554543834988
 20
137.6035216512487125
 30
0.0
  0
VERTEX
  5
2496
  8
0
 10
46.6480599794489024
 20
137.5694293243458901
 30
0.0
  0
SEQEND
  5
2497
  8
0
  0
ARC
  5
2066
  8
0
 10
50.945452431580982
 20
127.5473838401626949
 30
0.0
 40
10.9999948029001597
 50
113.7343594470197985
 51
114.2656403501667057
  0
POLYLINE
  5
2067
  8
0
 66
     1
 10
0.0
 20
0.0
 30
0.0
  0
VERTEX
  5
2498
  8
0
 10
46.3731380065681478
 20
137.447026175797788
 30
0.0
  0
VERTEX
  5
2499
  8
0
 10
46.3671797338366503
 20
137.5002706340908958
 30
0.0
  0
VERTEX
  5
249A
  8
0
 10
46.3733692521386729
 20
137.5222692062648946
 30
0.0
  0
VERTEX
  5
249B
  8
0
 10
46.3810767525880507
 20
137.5373151726861067
 30
0.0
  0
VERTEX
  5
249C
  8
0
 10
46.3886585945416812
 20
137.5478671434862008
 30
0.0
  0
VERTEX
  5
249D
  8
0
 10
46.3956078263027791
 20
137.5554833814126994
 30
0.0
  0
VERTEX
  5
249E
  8
0
 10
46.4018456098485998
 20
137.561149795810195
 30
0.0
  0
VERTEX
  5
249F
  8
0
 10
46.4106405907912176
 20
137.5677037796882871
 30
0.0
  0
VERTEX
  5
24A0
  8
0
 10
46.4155701110390098
 20
137.570770478875005
 30
0.0
  0
VERTEX
  5
24A1
  8
0
 10
46.4207940165359219
 20
137.573609100278702
 30
0.0
  0
VERTEX
  5
24A2
  8
0
 10
46.424809580268743
 20
137.5755279294102991
 30
0.0
  0
SEQEND
  5
24A3
  8
0
  0
POLYLINE
  5
2068
  8
0
 66
     1
 10
0.0
 20
0.0
 30
0.0
  0
VERTEX
  5
24A4
  8
0
 10
46.3731380065681478
 20
137.447026175797788
 30
0.0
  0
VERTEX
  5
24A5
  8
0
 10
46.4061140472406279
 20
137.3528976315863872
 30
0.0
  0
VERTEX
  5
24A6
  8
0
 10
46.4340718048000483
 20
137.227202868986609
 30
0.0
  0
VERTEX
  5
24A7
  8
0
 10
46.4454446663960425
 20
137.0692135345800864
 30
0.0
  0
VERTEX
  5
24A8
  8
0
 10
46.4374640055961478
 20
136.9474393344736995
 30
0.0
  0
VERTEX
  5
24A9
  8
0
 10
46.4108859605966231
 20
136.8130013210152072
 30
0.0
  0
VERTEX
  5
24AA
  8
0
 10
46.3588299384988218
 20
136.6668392767340094
 30
0.0
  0
VERTEX
  5
24AB
  8
0
 10
46.2956004962613292
 20
136.5471114208372114
 30
0.0
  0
SEQEND
  5
24AC
  8
0
  0
POLYLINE
  5
2069
  8
0
 66
     1
 10
0.0
 20
0.0
 30
0.0
  0
VERTEX
  5
24AD
  8
0
 10
42.8050743935329692
 20
134.9456363859177088
 30
0.0
  0
VERTEX
  5
24AE
  8
0
 10
42.8085769899589366
 20
134.9492993746586933
 30
0.0
  0
VERTEX
  5
24AF
  8
0
 10
42.8130326943910617
 20
134.9534663620156039
 30
0.0
  0
VERTEX
  5
24B0
  8
0
 10
42.8199639584649319
 20
134.9590364686029886
 30
0.0
  0
VERTEX
  5
24B1
  8
0
 10
42.8414715012385088
 20
134.9710388735109916
 30
0.0
  0
VERTEX
  5
24B2
  8
0
 10
42.874461439452908
 20
134.9786748322723042
 30
0.0
  0
VERTEX
  5
24B3
  8
0
 10
42.9031861732300683
 20
134.9754299106594999
 30
0.0
  0
VERTEX
  5
24B4
  8
0
 10
42.9432541918727324
 20
134.9550697183042871
 30
0.0
  0
SEQEND
  5
24B5
  8
0
  0
ARC
  5
206A
  8
0
 10
50.9454392877577718
 20
127.5473928304164986
 30
0.0
 40
10.99997946896457
 50
137.7343590767137016
 51
138.2656407204692073
  0
POLYLINE
  5
206B
  8
0
 66
     1
 10
0.0
 20
0.0
 30
0.0
  0
VERTEX
  5
24B6
  8
0
 10
42.7418863180837718
 20
134.7314280375896942
 30
0.0
  0
VERTEX
  5
24B7
  8
0
 10
42.7148014141727117
 20
134.7775903523497902
 30
0.0
  0
VERTEX
  5
24B8
  8
0
 10
42.7114950227716292
 20
134.8002090009730125
 30
0.0
  0
VERTEX
  5
24B9
  8
0
 10
42.712408085036742
 20
134.8170915196390922
 30
0.0
  0
VERTEX
  5
24BA
  8
0
 10
42.7150364134354774
 20
134.8298166498024102
 30
0.0
  0
VERTEX
  5
24BB
  8
0
 10
42.7182821003669915
 20
134.8396020584031874
 30
0.0
  0
VERTEX
  5
24BC
  8
0
 10
42.7216715776749183
 20
134.8473164022998958
 30
0.0
  0
VERTEX
  5
24BD
  8
0
 10
42.7270264912713671
 20
134.8568693124836955
 30
0.0
  0
VERTEX
  5
24BE
  8
0
 10
42.7302785331097823
 20
134.8616770901583948
 30
0.0
  0
VERTEX
  5
24BF
  8
0
 10
42.7346579834153033
 20
134.8673258818120928
 30
0.0
  0
VERTEX
  5
24C0
  8
0
 10
42.7368242776335023
 20
134.8698369533310029
 30
0.0
  0
SEQEND
  5
24C1
  8
0
  0
POLYLINE
  5
206C
  8
0
 66
     1
 10
0.0
 20
0.0
 30
0.0
  0
VERTEX
  5
24C2
  8
0
 10
42.9469514930677789
 20
133.5785418533322115
 30
0.0
  0
VERTEX
  5
24C3
  8
0
 10
42.8987464271016776
 20
133.4904524266239889
 30
0.0
  0
VERTEX
  5
24C4
  8
0
 10
42.8228228808432334
 20
133.3829677367758961
 30
0.0
  0
VERTEX
  5
24C5
  8
0
 10
42.7402451657987115
 20
133.2931211442557924
 30
0.0
  0
VERTEX
  5
24C6
  8
0
 10
42.6492781152198503
 20
133.2152836242991896
 30
0.0
  0
VERTEX
  5
24C7
  8
0
 10
42.5514777804570983
 20
133.1500768822415068
 30
0.0
  0
VERTEX
  5
24C8
  8
0
 10
42.4513314155290118
 20
133.09872844954279
 30
0.0
  0
VERTEX
  5
24C9
  8
0
 10
42.3408783594574629
 20
133.0574281020726062
 30
0.0
  0
VERTEX
  5
24CA
  8
0
 10
42.2340119000238801
 20
133.0307989281002961
 30
0.0
  0
VERTEX
  5
24CB
  8
0
 10
42.0746171194880887
 20
133.0134098332046904
 30
0.0
  0
VERTEX
  5
24CC
  8
0
 10
41.9343121215570989
 20
133.0193036447230099
 30
0.0
  0
VERTEX
  5
24CD
  8
0
 10
41.7562778434359174
 20
133.0557496743120112
 30
0.0
  0
VERTEX
  5
24CE
  8
0
 10
41.6253924201712593
 20
133.105898310332293
 30
0.0
  0
VERTEX
  5
24CF
  8
0
 10
41.5779759859049989
 20
133.1294428993292911
 30
0.0
  0
SEQEND
  5
24D0
  8
0
  0
POLYLINE
  5
206D
  8
0
 66
     1
 10
0.0
 20
0.0
 30
0.0
  0
VERTEX
  5
24D1
  8
0
 10
42.7418863180837718
 20
134.7314280375896942
 30
0.0
  0
VERTEX
  5
24D2
  8
0
 10
42.810284091585082
 20
134.6588646733341079
 30
0.0
  0
VERTEX
  5
24D3
  8
0
 10
42.8869353598214218
 20
134.5554346026738131
 30
0.0
  0
VERTEX
  5
24D4
  8
0
 10
42.9460792573544765
 20
134.4492954419418993
 30
0.0
  0
SEQEND
  5
24D5
  8
0
  0
POLYLINE
  5
206E
  8
0
 66
     1
 10
0.0
 20
0.0
 30
0.0
  0
VERTEX
  5
24D6
  8
0
 10
41.4447770501972386
 20
133.091486516528505
 30
0.0
  0
VERTEX
  5
24D7
  8
0
 10
41.4474673364294404
 20
133.0958371545349905
 30
0.0
  0
VERTEX
  5
24D8
  8
0
 10
41.4509708404814319
 20
133.1008501384200997
 30
0.0
  0
VERTEX
  5
24D9
  8
0
 10
41.4566232075608809
 20
133.1077655642075115
 30
0.0
  0
VERTEX
  5
24DA
  8
0
 10
41.4753590497433322
 20
133.1240778170351859
 30
0.0
  0
VERTEX
  5
24DB
  8
0
 10
41.5063919894945528
 20
133.1383937968165014
 30
0.0
  0
VERTEX
  5
24DC
  8
0
 10
41.5355208692746771
 20
133.1409897953379868
 30
0.0
  0
VERTEX
  5
24DD
  8
0
 10
41.5779759859049989
 20
133.1294428993292911
 30
0.0
  0
SEQEND
  5
24DE
  8
0
  0
ARC
  5
206F
  8
0
 10
50.9454663107773271
 20
127.5473722996129027
 30
0.0
 40
11.0000135852782908
 50
149.7343598755759899
 51
150.265639896586805
  0
POLYLINE
  5
2070
  8
0
 66
     1
 10
0.0
 20
0.0
 30
0.0
  0
VERTEX
  5
24DF
  8
0
 10
41.4275062032681376
 20
132.8688215907984045
 30
0.0
  0
VERTEX
  5
24E0
  8
0
 10
41.3913979426295384
 20
132.9083785043812895
 30
0.0
  0
VERTEX
  5
24E1
  8
0
 10
41.3834702520692801
 20
132.9298152146052985
 30
0.0
  0
VERTEX
  5
24E2
  8
0
 10
41.3808592432254727
 20
132.9465190061432907
 30
0.0
  0
VERTEX
  5
24E3
  8
0
 10
41.3807889833787996
 20
132.9595129352836977
 30
0.0
  0
VERTEX
  5
24E4
  8
0
 10
41.3819329881334284
 20
132.9697597446721034
 30
0.0
  0
VERTEX
  5
24E5
  8
0
 10
41.3836477557513831
 20
132.9780107379332037
 30
0.0
  0
VERTEX
  5
24E6
  8
0
 10
41.3869079806827571
 20
132.9884793699663135
 30
0.0
  0
VERTEX
  5
24E7
  8
0
 10
41.3890925142044566
 20
132.9938581210734014
 30
0.0
  0
VERTEX
  5
24E8
  8
0
 10
41.3922049087194566
 20
133.0002919983568859
 30
0.0
  0
VERTEX
  5
24E9
  8
0
 10
41.3937779488508895
 20
133.0031534822618937
 30
0.0
  0
SEQEND
  5
24EA
  8
0
  0
POLYLINE
  5
2071
  8
0
 66
     1
 10
0.0
 20
0.0
 30
0.0
  0
VERTEX
  5
24EB
  8
0
 10
41.4275062032681376
 20
132.8688215907984045
 30
0.0
  0
VERTEX
  5
24EC
  8
0
 10
41.5094766793225389
 20
132.8120792094088074
 30
0.0
  0
VERTEX
  5
24ED
  8
0
 10
41.605933381227878
 20
132.7268743701858966
 30
0.0
  0
VERTEX
  5
24EE
  8
0
 10
41.7079594926948118
 20
132.6058276678191135
 30
0.0
  0
VERTEX
  5
24EF
  8
0
 10
41.7731004488849678
 20
132.5026329110098118
 30
0.0
  0
VERTEX
  5
24F0
  8
0
 10
41.8306453874834787
 20
132.3782557736691956
 30
0.0
  0
VERTEX
  5
24F1
  8
0
 10
41.8744745264106086
 20
132.2294086715656078
 30
0.0
  0
VERTEX
  5
24F2
  8
0
 10
41.8956975137480185
 20
132.0603848939659031
 30
0.0
  0
VERTEX
  5
24F3
  8
0
 10
41.8929285223632917
 20
131.9384511597986034
 30
0.0
  0
VERTEX
  5
24F4
  8
0
 10
41.8745068628849069
 20
131.813122866564413
 30
0.0
  0
VERTEX
  5
24F5
  8
0
 10
41.8389808447006715
 20
131.68765912949479
 30
0.0
  0
VERTEX
  5
24F6
  8
0
 10
41.787071924395029
 20
131.5667288004260058
 30
0.0
  0
VERTEX
  5
24F7
  8
0
 10
41.7249860758451518
 20
131.4616695799660135
 30
0.0
  0
VERTEX
  5
24F8
  8
0
 10
41.6521955030831421
 20
131.3666115274301092
 30
0.0
  0
VERTEX
  5
24F9
  8
0
 10
41.5700955194699588
 20
131.2824892596794086
 30
0.0
  0
VERTEX
  5
24FA
  8
0
 10
41.4828177121287069
 20
131.2114338979579884
 30
0.0
  0
VERTEX
  5
24FB
  8
0
 10
41.3833705233326228
 20
131.1480646447973868
 30
0.0
  0
VERTEX
  5
24FC
  8
0
 10
41.2843793028828827
 20
131.0997911354209862
 30
0.0
  0
VERTEX
  5
24FD
  8
0
 10
41.132093100959267
 20
131.0496322234725142
 30
0.0
  0
VERTEX
  5
24FE
  8
0
 10
40.9936335521724118
 20
131.026215250184805
 30
0.0
  0
VERTEX
  5
24FF
  8
0
 10
40.8119147475551003
 20
131.0248340928164055
 30
0.0
  0
VERTEX
  5
2500
  8
0
 10
40.6734547105980582
 20
131.0466636759520043
 30
0.0
  0
VERTEX
  5
2501
  8
0
 10
40.6221015431388466
 20
131.059853106274204
 30
0.0
  0
SEQEND
  5
2502
  8
0
  0
POLYLINE
  5
2072
  8
0
 66
     1
 10
0.0
 20
0.0
 30
0.0
  0
VERTEX
  5
2503
  8
0
 10
40.4997048994814577
 20
130.995032545566886
 30
0.0
  0
VERTEX
  5
2504
  8
0
 10
40.5014411024469894
 20
130.9998713079380934
 30
0.0
  0
VERTEX
  5
2505
  8
0
 10
40.5038307320997433
 20
131.0055101639183022
 30
0.0
  0
VERTEX
  5
2506
  8
0
 10
40.5079352136979196
 20
131.013466981834199
 30
0.0
  0
VERTEX
  5
2507
  8
0
 10
40.522962575303211
 20
131.033393740828302
 30
0.0
  0
VERTEX
  5
2508
  8
0
 10
40.5505312359380525
 20
131.0538815948673914
 30
0.0
  0
VERTEX
  5
2509
  8
0
 10
40.5786990922245465
 20
131.0624072200457135
 30
0.0
  0
VERTEX
  5
250A
  8
0
 10
40.6221015431388466
 20
131.059853106274204
 30
0.0
  0
SEQEND
  5
250B
  8
0
  0
ARC
  5
2073
  8
0
 10
50.9454470296765223
 20
127.5473815343492987
 30
0.0
 40
10.99999209752818
 50
161.7343593566606046
 51
162.2656404155000871
  0
POLYLINE
  5
2074
  8
0
 66
     1
 10
0.0
 20
0.0
 30
0.0
  0
VERTEX
  5
250C
  8
0
 10
40.5291061031894628
 20
130.7736425717095869
 30
0.0
  0
VERTEX
  5
250D
  8
0
 10
40.4855492635556615
 20
130.8048442369351108
 30
0.0
  0
VERTEX
  5
250E
  8
0
 10
40.4733427575666269
 20
130.8241651778747894
 30
0.0
  0
VERTEX
  5
250F
  8
0
 10
40.4673190342536984
 20
130.8399619576802024
 30
0.0
  0
VERTEX
  5
2510
  8
0
 10
40.4645511066671872
 20
130.8526580551053939
 30
0.0
  0
VERTEX
  5
2511
  8
0
 10
40.4635416338527421
 20
130.8629194319954934
 30
0.0
  0
VERTEX
  5
2512
  8
0
 10
40.4635051330916085
 20
130.8713472698902081
 30
0.0
  0
VERTEX
  5
2513
  8
0
 10
40.4645208212576506
 20
130.8822717827985969
 30
0.0
  0
VERTEX
  5
2514
  8
0
 10
40.4655409975465474
 20
130.8879874826712921
 30
0.0
  0
VERTEX
  5
2515
  8
0
 10
40.4669266718377401
 20
130.8937654681535037
 30
0.0
  0
VERTEX
  5
2516
  8
0
 10
40.4681857213693874
 20
130.898026490642394
 30
0.0
  0
SEQEND
  5
2517
  8
0
  0
POLYLINE
  5
2075
  8
0
 66
     1
 10
0.0
 20
0.0
 30
0.0
  0
VERTEX
  5
2518
  8
0
 10
40.5291061031894628
 20
130.7736425717095869
 30
0.0
  0
VERTEX
  5
2519
  8
0
 10
40.6210317054463133
 20
130.7352065055173966
 30
0.0
  0
VERTEX
  5
251A
  8
0
 10
40.7330279299366396
 20
130.6719707831157962
 30
0.0
  0
VERTEX
  5
251B
  8
0
 10
40.8579206614468831
 20
130.5748774090043014
 30
0.0
  0
VERTEX
  5
251C
  8
0
 10
40.9431154619511517
 20
130.4875036989463979
 30
0.0
  0
VERTEX
  5
251D
  8
0
 10
41.0252933689270733
 20
130.3778254183272907
 30
0.0
  0
VERTEX
  5
251E
  8
0
 10
41.0991517132343276
 20
130.2413497324644993
 30
0.0
  0
VERTEX
  5
251F
  8
0
 10
41.1550968749652881
 20
130.0804230206038028
 30
0.0
  0
VERTEX
  5
2520
  8
0
 10
41.1777657607665333
 20
129.9605818844312068
 30
0.0
  0
VERTEX
  5
2521
  8
0
 10
41.1858309065972321
 20
129.8341595563344981
 30
0.0
  0
VERTEX
  5
2522
  8
0
 10
41.1771927141575986
 20
129.7040409772473026
 30
0.0
  0
VERTEX
  5
2523
  8
0
 10
41.1515838682850585
 20
129.5749442517885939
 30
0.0
  0
VERTEX
  5
2524
  8
0
 10
41.1127174956679085
 20
129.4592597887587999
 30
0.0
  0
VERTEX
  5
2525
  8
0
 10
41.0612972791401774
 20
129.351128595507106
 30
0.0
  0
VERTEX
  5
2526
  8
0
 10
40.9984980092991904
 20
129.2517629263180936
 30
0.0
  0
VERTEX
  5
2527
  8
0
 10
40.9279137099106194
 20
129.1640994348310869
 30
0.0
  0
VERTEX
  5
2528
  8
0
 10
40.843830409332611
 20
129.0814255996959901
 30
0.0
  0
VERTEX
  5
2529
  8
0
 10
40.7570503814280016
 20
129.0136103066114117
 30
0.0
  0
VERTEX
  5
252A
  8
0
 10
40.6185480310626019
 20
128.9328681029062125
 30
0.0
  0
VERTEX
  5
252B
  8
0
 10
40.4879990532667193
 20
128.881153040272892
 30
0.0
  0
VERTEX
  5
252C
  8
0
 10
40.310551590372512
 20
128.8419870769218107
 30
0.0
  0
VERTEX
  5
252D
  8
0
 10
40.1705649628493404
 20
128.8345242230990948
 30
0.0
  0
VERTEX
  5
252E
  8
0
 10
40.1174071635176404
 20
128.8367513440892083
 30
0.0
  0
SEQEND
  5
252F
  8
0
  0
POLYLINE
  5
2076
  8
0
 66
     1
 10
0.0
 20
0.0
 30
0.0
  0
VERTEX
  5
2530
  8
0
 10
40.0111621325627027
 20
128.7478995750219042
 30
0.0
  0
VERTEX
  5
2531
  8
0
 10
40.011856199317549
 20
128.7530049131310932
 30
0.0
  0
VERTEX
  5
2532
  8
0
 10
40.0130227471180433
 20
128.759020922684897
 30
0.0
  0
VERTEX
  5
2533
  8
0
 10
40.015387516499942
 20
128.7676661159075877
 30
0.0
  0
VERTEX
  5
2534
  8
0
 10
40.0259772282847095
 20
128.7903237357467958
 30
0.0
  0
VERTEX
  5
2535
  8
0
 10
40.0487648835654966
 20
128.816127777026793
 30
0.0
  0
VERTEX
  5
2536
  8
0
 10
40.0746464518029413
 20
128.8303124111137947
 30
0.0
  0
VERTEX
  5
2537
  8
0
 10
40.1174071635176404
 20
128.8367513440892083
 30
0.0
  0
SEQEND
  5
2538
  8
0
  0
ARC
  5
2077
  8
0
 10
50.9454495487925101
 20
127.5473796174953947
 30
0.0
 40
10.9999949758688906
 50
173.7343594261714088
 51
174.2656403459903913
  0
POLYLINE
  5
2078
  8
0
 66
     1
 10
0.0
 20
0.0
 30
0.0
  0
VERTEX
  5
2539
  8
0
 10
40.0859504132231521
 20
128.5374603572419119
 30
0.0
  0
VERTEX
  5
253A
  8
0
 10
40.0368504339646734
 20
128.5589305426366877
 30
0.0
  0
VERTEX
  5
253B
  8
0
 10
40.0208958584399568
 20
128.575292223729889
 30
0.0
  0
VERTEX
  5
253C
  8
0
 10
40.0117208330898393
 20
128.5894920142021078
 30
0.0
  0
VERTEX
  5
253D
  8
0
 10
40.0063747612254019
 20
128.601335669095505
 30
0.0
  0
VERTEX
  5
253E
  8
0
 10
40.0032547174270903
 20
128.6111633399899858
 30
0.0
  0
VERTEX
  5
253F
  8
0
 10
40.0014674647633797
 20
128.6193998136085099
 30
0.0
  0
VERTEX
  5
2540
  8
0
 10
40.0001904315996271
 20
128.630300011011002
 30
0.0
  0
VERTEX
  5
2541
  8
0
 10
40.0000006672231905
 20
128.6361031835999995
 30
0.0
  0
VERTEX
  5
2542
  8
0
 10
40.000155275117578
 20
128.6420390234875128
 30
0.0
  0
VERTEX
  5
2543
  8
0
 10
40.0005004170141873
 20
128.646460129526389
 30
0.0
  0
SEQEND
  5
2544
  8
0
  0
POLYLINE
  5
2079
  8
0
 66
     1
 10
0.0
 20
0.0
 30
0.0
  0
VERTEX
  5
2545
  8
0
 10
40.0859504132231521
 20
128.5374603572419119
 30
0.0
  0
VERTEX
  5
2546
  8
0
 10
40.183959751740467
 20
128.5189533444365964
 30
0.0
  0
VERTEX
  5
2547
  8
0
 10
40.306798568213587
 20
128.4803156248972016
 30
0.0
  0
VERTEX
  5
2548
  8
0
 10
40.449313645804061
 20
128.4111649494647054
 30
0.0
  0
VERTEX
  5
2549
  8
0
 10
40.5507817618180511
 20
128.3433646508617869
 30
0.0
  0
VERTEX
  5
254A
  8
0
 10
40.6539177076366514
 20
128.253126885683713
 30
0.0
  0
VERTEX
  5
254B
  8
0
 10
40.7544672560940668
 20
128.134963082254103
 30
0.0
  0
VERTEX
  5
254C
  8
0
 10
40.842565670368657
 20
127.9891840601055009
 30
0.0
  0
VERTEX
  5
254D
  8
0
 10
40.8896101996060395
 20
127.8766581348697002
 30
0.0
  0
VERTEX
  5
254E
  8
0
 10
40.9237339457996185
 20
127.754669745419605
 30
0.0
  0
VERTEX
  5
254F
  8
0
 10
40.942286596889339
 20
127.6256070769756974
 30
0.0
  0
VERTEX
  5
2550
  8
0
 10
40.9440303684942535
 20
127.4940281256926937
 30
0.0
  0
VERTEX
  5
2551
  8
0
 10
40.930025019985429
 20
127.3728061761501067
 30
0.0
  0
VERTEX
  5
2552
  8
0
 10
40.9021749736661988
 20
127.2563704631700006
 30
0.0
  0
VERTEX
  5
2553
  8
0
 10
40.8613726201775975
 20
127.1461349886155006
 30
0.0
  0
VERTEX
  5
2554
  8
0
 10
40.8105278051309028
 20
127.0457335447586047
 30
0.0
  0
VERTEX
  5
2555
  8
0
 10
40.745437722458739
 20
126.9474021639990013
 30
0.0
  0
VERTEX
  5
2556
  8
0
 10
40.6746272569293978
 20
126.8630493787799054
 30
0.0
  0
VERTEX
  5
2557
  8
0
 10
40.5558826276038289
 20
126.7552960576050936
 30
0.0
  0
VERTEX
  5
2558
  8
0
 10
40.4389006946968479
 20
126.6776027430268954
 30
0.0
  0
VERTEX
  5
2559
  8
0
 10
40.2734372799273785
 20
126.6024547306607957
 30
0.0
  0
VERTEX
  5
255A
  8
0
 10
40.1380752619860672
 20
126.5661058074734058
 30
0.0
  0
VERTEX
  5
255B
  8
0
 10
40.0859504132231521
 20
126.557297827407595
 30
0.0
  0
SEQEND
  5
255C
  8
0
  0
POLYLINE
  5
207A
  8
0
 66
     1
 10
0.0
 20
0.0
 30
0.0
  0
VERTEX
  5
255D
  8
0
 10
40.0005004126436106
 20
126.4482980986467027
 30
0.0
  0
VERTEX
  5
255E
  8
0
 10
40.0001178437507292
 20
126.4534363656712941
 30
0.0
  0
VERTEX
  5
255F
  8
0
 10
40.0000081132986907
 20
126.4595635120259942
 30
0.0
  0
VERTEX
  5
2560
  8
0
 10
40.0005238087537407
 20
126.4685116075450964
 30
0.0
  0
VERTEX
  5
2561
  8
0
 10
40.0061717251152729
 20
126.4928766179911008
 30
0.0
  0
VERTEX
  5
2562
  8
0
 10
40.023097648682068
 20
126.5228553904005935
 30
0.0
  0
VERTEX
  5
2563
  8
0
 10
40.0454661677907211
 20
126.5421113040058003
 30
0.0
  0
VERTEX
  5
2564
  8
0
 10
40.0859504132231521
 20
126.557297827407595
 30
0.0
  0
SEQEND
  5
2565
  8
0
  0
ARC
  5
207B
  8
0
 10
50.9454662718092379
 20
127.5473803248139006
 30
0.0
 40
11.0000117908199702
 50
185.7343598322364073
 51
186.2656399399178895
  0
POLYLINE
  5
207C
  8
0
 66
     1
 10
0.0
 20
0.0
 30
0.0
  0
VERTEX
  5
2566
  8
0
 10
40.1174071635176404
 20
126.2580068405602987
 30
0.0
  0
VERTEX
  5
2567
  8
0
 10
40.0649150123807871
 20
126.2688000179915946
 30
0.0
  0
VERTEX
  5
2568
  8
0
 10
40.0459077855663494
 20
126.2814870095775035
 30
0.0
  0
VERTEX
  5
2569
  8
0
 10
40.033981242229089
 20
126.2934688143969026
 30
0.0
  0
VERTEX
  5
256A
  8
0
 10
40.0262897323389595
 20
126.3039420442213014
 30
0.0
  0
VERTEX
  5
256B
  8
0
 10
40.0211946854657583
 20
126.3129061727048992
 30
0.0
  0
VERTEX
  5
256C
  8
0
 10
40.0177340935595396
 20
126.320590994453795
 30
0.0
  0
VERTEX
  5
256D
  8
0
 10
40.0142187324434531
 20
126.3309874432915052
 30
0.0
  0
VERTEX
  5
256E
  8
0
 10
40.0128265896352033
 20
126.3366243087972975
 30
0.0
  0
VERTEX
  5
256F
  8
0
 10
40.0117437057832603
 20
126.3424625412902031
 30
0.0
  0
VERTEX
  5
2570
  8
0
 10
40.0111621277887366
 20
126.346858653108697
 30
0.0
  0
SEQEND
  5
2571
  8
0
  0
POLYLINE
  5
207D
  8
0
 66
     1
 10
0.0
 20
0.0
 30
0.0
  0
VERTEX
  5
2572
  8
0
 10
40.1174071635176404
 20
126.2580068405602987
 30
0.0
  0
VERTEX
  5
2573
  8
0
 10
40.2171230034263019
 20
126.2602815307656954
 30
0.0
  0
VERTEX
  5
2574
  8
0
 10
40.3453113471576472
 20
126.2480276115818043
 30
0.0
  0
VERTEX
  5
2575
  8
0
 10
40.499090129398553
 20
126.2100181607887066
 30
0.0
  0
VERTEX
  5
2576
  8
0
 10
40.6124373176277231
 20
126.1647956513187978
 30
0.0
  0
VERTEX
  5
2577
  8
0
 10
40.732080822569138
 20
126.0979727607827954
 30
0.0
  0
VERTEX
  5
2578
  8
0
 10
40.8550005071370421
 20
126.0032963846954033
 30
0.0
  0
VERTEX
  5
2579
  8
0
 10
40.9714825987796303
 20
125.8790196027446058
 30
0.0
  0
VERTEX
  5
257A
  8
0
 10
41.0408943835529385
 20
125.7787336431461966
 30
0.0
  0
VERTEX
  5
257B
  8
0
 10
41.0996350654390312
 20
125.666505655240698
 30
0.0
  0
VERTEX
  5
257C
  8
0
 10
41.1446157267050125
 20
125.544120619541502
 30
0.0
  0
VERTEX
  5
257D
  8
0
 10
41.173677990222842
 20
125.4157795774644057
 30
0.0
  0
VERTEX
  5
257E
  8
0
 10
41.1851819812393884
 20
125.2942947689818993
 30
0.0
  0
VERTEX
  5
257F
  8
0
 10
41.1821487135161135
 20
125.1746131679654042
 30
0.0
  0
VERTEX
  5
2580
  8
0
 10
41.1651570842500689
 20
125.058303348677498
 30
0.0
  0
VERTEX
  5
2581
  8
0
 10
41.1362978516551721
 20
124.9495247465300025
 30
0.0
  0
VERTEX
  5
2582
  8
0
 10
41.0930742425985471
 20
124.8398091952324052
 30
0.0
  0
VERTEX
  5
2583
  8
0
 10
41.0413489630219033
 20
124.7425774660226949
 30
0.0
  0
VERTEX
  5
2584
  8
0
 10
40.9476021264062808
 20
124.6124904513424951
 30
0.0
  0
VERTEX
  5
2585
  8
0
 10
40.8493297004064004
 20
124.5121731136486005
 30
0.0
  0
VERTEX
  5
2586
  8
0
 10
40.7031060185987883
 20
124.4042656745372
 30
0.0
  0
VERTEX
  5
2587
  8
0
 10
40.5782593601504402
 20
124.340567946743505
 30
0.0
  0
VERTEX
  5
2588
  8
0
 10
40.5291061031894628
 20
124.3211156129399058
 30
0.0
  0
SEQEND
  5
2589
  8
0
  0
POLYLINE
  5
207E
  8
0
 66
     1
 10
0.0
 20
0.0
 30
0.0
  0
VERTEX
  5
258A
  8
0
 10
40.4681857080452403
 20
124.1967317356707952
 30
0.0
  0
VERTEX
  5
258B
  8
0
 10
40.4667460191537174
 20
124.2016674723657985
 30
0.0
  0
VERTEX
  5
258C
  8
0
 10
40.4653648310693299
 20
124.2076341934261023
 30
0.0
  0
VERTEX
  5
258D
  8
0
 10
40.4640085424888127
 20
124.2164844637370038
 30
0.0
  0
VERTEX
  5
258E
  8
0
 10
40.4644539966934431
 20
124.241441132452195
 30
0.0
  0
VERTEX
  5
258F
  8
0
 10
40.4747182402434831
 20
124.2742238622387987
 30
0.0
  0
VERTEX
  5
2590
  8
0
 10
40.4925003684926992
 20
124.2976795270604953
 30
0.0
  0
VERTEX
  5
2591
  8
0
 10
40.5291061031894628
 20
124.3211156129399058
 30
0.0
  0
SEQEND
  5
2592
  8
0
  0
ARC
  5
207F
  8
0
 10
50.9454687483550401
 20
127.547383707126599
 30
0.0
 40
11.0000149336527393
 50
197.7343599081337118
 51
198.2656398640210966
  0
POLYLINE
  5
2080
  8
0
 66
     1
 10
0.0
 20
0.0
 30
0.0
  0
VERTEX
  5
2593
  8
0
 10
40.6221015431388466
 20
124.0349050783753029
 30
0.0
  0
VERTEX
  5
2594
  8
0
 10
40.5685191619140184
 20
124.0345468468996017
 30
0.0
  0
VERTEX
  5
2595
  8
0
 10
40.5472888691409068
 20
124.0430033255487956
 30
0.0
  0
VERTEX
  5
2596
  8
0
 10
40.5331314307623529
 20
124.0522424398048003
 30
0.0
  0
VERTEX
  5
2597
  8
0
 10
40.5234301620719108
 20
124.0608866456629045
 30
0.0
  0
VERTEX
  5
2598
  8
0
 10
40.5165823850495315
 20
124.068594705195693
 30
0.0
  0
VERTEX
  5
2599
  8
0
 10
40.5115993490642481
 20
124.0753913233532018
 30
0.0
  0
VERTEX
  5
259A
  8
0
 10
40.5059999582283297
 20
124.0848263434209002
 30
0.0
  0
VERTEX
  5
259B
  8
0
 10
40.5034657910699423
 20
124.0900499765713931
 30
0.0
  0
VERTEX
  5
259C
  8
0
 10
40.5011906934008366
 20
124.0955388272169984
 30
0.0
  0
VERTEX
  5
259D
  8
0
 10
40.4997048857715569
 20
124.0997256806209066
 30
0.0
  0
SEQEND
  5
259E
  8
0
  0
POLYLINE
  5
2081
  8
0
 66
     1
 10
0.0
 20
0.0
 30
0.0
  0
VERTEX
  5
259F
  8
0
 10
40.6221015431388466
 20
124.0349050783753029
 30
0.0
  0
VERTEX
  5
25A0
  8
0
 10
40.7191634102718965
 20
124.0578617579676006
 30
0.0
  0
VERTEX
  5
25A1
  8
0
 10
40.8470951451689928
 20
124.0725275749514935
 30
0.0
  0
VERTEX
  5
25A2
  8
0
 10
41.0054119703167075
 20
124.067322431966403
 30
0.0
  0
VERTEX
  5
25A3
  8
0
 10
41.1256847045827669
 20
124.0466554768232044
 30
0.0
  0
VERTEX
  5
25A4
  8
0
 10
41.2566075275396713
 20
124.0061692626273953
 30
0.0
  0
VERTEX
  5
25A5
  8
0
 10
41.3965264893431311
 20
123.9391192666978014
 30
0.0
  0
VERTEX
  5
25A6
  8
0
 10
41.5363032473752227
 20
123.8417768936064931
 30
0.0
  0
VERTEX
  5
25A7
  8
0
 10
41.6250495241229714
 20
123.7581146090135036
 30
0.0
  0
VERTEX
  5
25A8
  8
0
 10
41.7058409447895073
 20
123.6605524452459974
 30
0.0
  0
VERTEX
  5
25A9
  8
0
 10
41.7752849382222493
 20
123.5501940781075945
 30
0.0
  0
VERTEX
  5
25AA
  8
0
 10
41.8303967524545328
 20
123.4306999829194069
 30
0.0
  0
VERTEX
  5
25AB
  8
0
 10
41.8669083164449987
 20
123.3142617718974066
 30
0.0
  0
VERTEX
  5
25AC
  8
0
 10
41.8888253586824675
 20
123.1965647099267045
 30
0.0
  0
VERTEX
  5
25AD
  8
0
 10
41.8963879572550866
 20
123.0792637794571931
 30
0.0
  0
VERTEX
  5
25AE
  8
0
 10
41.8907764110680034
 20
122.9668619225605966
 30
0.0
  0
VERTEX
  5
25AF
  8
0
 10
41.8713092247433778
 20
122.8505571713435955
 30
0.0
  0
VERTEX
  5
25B0
  8
0
 10
41.8409305404858785
 20
122.7446956927628037
 30
0.0
  0
VERTEX
  5
25B1
  8
0
 10
41.7762800853117469
 20
122.5979604047402063
 30
0.0
  0
VERTEX
  5
25B2
  8
0
 10
41.7010132527566597
 20
122.4794029414079972
 30
0.0
  0
VERTEX
  5
25B3
  8
0
 10
41.5804212315797486
 20
122.3434512200743995
 30
0.0
  0
VERTEX
  5
25B4
  8
0
 10
41.4715464685679933
 20
122.2551872453223041
 30
0.0
  0
VERTEX
  5
25B5
  8
0
 10
41.4275062032681376
 20
122.2259365938511024
 30
0.0
  0
SEQEND
  5
25B6
  8
0
  0
POLYLINE
  5
2082
  8
0
 66
     1
 10
0.0
 20
0.0
 30
0.0
  0
VERTEX
  5
25B7
  8
0
 10
41.3937779271555186
 20
122.0916047403706983
 30
0.0
  0
VERTEX
  5
25B8
  8
0
 10
41.3913547941222575
 20
122.0961109312592043
 30
0.0
  0
VERTEX
  5
25B9
  8
0
 10
41.3887650907442435
 20
122.1016519176840944
 30
0.0
  0
VERTEX
  5
25BA
  8
0
 10
41.3856021672953034
 20
122.1100056814273955
 30
0.0
  0
VERTEX
  5
25BB
  8
0
 10
41.380843511415307
 20
122.1343928126309066
 30
0.0
  0
VERTEX
  5
25BC
  8
0
 10
41.3839665341239709
 20
122.1684333566229981
 30
0.0
  0
VERTEX
  5
25BD
  8
0
 10
41.3962914272126383
 20
122.1949627372696057
 30
0.0
  0
VERTEX
  5
25BE
  8
0
 10
41.4275062032681376
 20
122.2259365938511024
 30
0.0
  0
SEQEND
  5
25BF
  8
0
  0
ARC
  5
2083
  8
0
 10
50.9454473230293914
 20
127.5473749224557025
 30
0.0
 40
10.9999916603514194
 50
209.7343593461019111
 51
210.2656404260567058
  0
POLYLINE
  5
2084
  8
0
 66
     1
 10
0.0
 20
0.0
 30
0.0
  0
VERTEX
  5
25C0
  8
0
 10
41.5779759859049989
 20
121.9653152853202016
 30
0.0
  0
VERTEX
  5
25C1
  8
0
 10
41.5256559496615694
 20
121.9538235444306054
 30
0.0
  0
VERTEX
  5
25C2
  8
0
 10
41.5031301708485501
 20
121.957677540808703
 30
0.0
  0
VERTEX
  5
25C3
  8
0
 10
41.4873606390044571
 20
121.9637684551866954
 30
0.0
  0
VERTEX
  5
25C4
  8
0
 10
41.4760736792864506
 20
121.9702044321446976
 30
0.0
  0
VERTEX
  5
25C5
  8
0
 10
41.4677725119543723
 20
121.9763183247796974
 30
0.0
  0
VERTEX
  5
25C6
  8
0
 10
41.4614848834946983
 20
121.9819285947325938
 30
0.0
  0
VERTEX
  5
25C7
  8
0
 10
41.4540492489430505
 20
121.989986231800998
 30
0.0
  0
VERTEX
  5
25C8
  8
0
 10
41.4504836105926913
 20
121.9945673013278054
 30
0.0
  0
VERTEX
  5
25C9
  8
0
 10
41.4464682295058822
 20
122.0004793021518026
 30
0.0
  0
VERTEX
  5
25CA
  8
0
 10
41.4447770281506394
 20
122.0032717059011986
 30
0.0
  0
SEQEND
  5
25CB
  8
0
  0
POLYLINE
  5
2085
  8
0
 66
     1
 10
0.0
 20
0.0
 30
0.0
  0
VERTEX
  5
25CC
  8
0
 10
42.9459931103644124
 20
120.6452851117561949
 30
0.0
  0
VERTEX
  5
25CD
  8
0
 10
42.8670372666750481
 20
120.5100842187217012
 30
0.0
  0
VERTEX
  5
25CE
  8
0
 10
42.7788938224227309
 20
120.4011101181758931
 30
0.0
  0
VERTEX
  5
25CF
  8
0
 10
42.7418863180837434
 20
120.363330147059699
 30
0.0
  0
SEQEND
  5
25D0
  8
0
  0
POLYLINE
  5
2086
  8
0
 66
     1
 10
0.0
 20
0.0
 30
0.0
  0
VERTEX
  5
25D1
  8
0
 10
41.5779759859049989
 20
121.9653152853202016
 30
0.0
  0
VERTEX
  5
25D2
  8
0
 10
41.6681392521851919
 20
122.0079486442947996
 30
0.0
  0
VERTEX
  5
25D3
  8
0
 10
41.7902186622425518
 20
122.0488911423374958
 30
0.0
  0
VERTEX
  5
25D4
  8
0
 10
41.9461475490832285
 20
122.0767166805897972
 30
0.0
  0
VERTEX
  5
25D5
  8
0
 10
42.0680887595999522
 20
122.0815102395239933
 30
0.0
  0
VERTEX
  5
25D6
  8
0
 10
42.2045689050157975
 20
122.0691321714053998
 30
0.0
  0
VERTEX
  5
25D7
  8
0
 10
42.3553727462625318
 20
122.032641172022096
 30
0.0
  0
VERTEX
  5
25D8
  8
0
 10
42.5123368710307332
 20
121.9664895532933997
 30
0.0
  0
VERTEX
  5
25D9
  8
0
 10
42.6165394907578374
 20
121.9031088160077019
 30
0.0
  0
VERTEX
  5
25DA
  8
0
 10
42.7158515262384526
 20
121.824477727645899
 30
0.0
  0
VERTEX
  5
25DB
  8
0
 10
42.806725029329499
 20
121.7309702898491963
 30
0.0
  0
VERTEX
  5
25DC
  8
0
 10
42.885479195131289
 20
121.6255463473346055
 30
0.0
  0
VERTEX
  5
25DD
  8
0
 10
42.9454037699608975
 20
121.5192443207701984
 30
0.0
  0
VERTEX
  5
25DE
  8
0
 10
42.9455312670605522
 20
121.5191483018349032
 30
0.0
  0
SEQEND
  5
25DF
  8
0
  0
POLYLINE
  5
2087
  8
0
 66
     1
 10
0.0
 20
0.0
 30
0.0
  0
VERTEX
  5
25E0
  8
0
 10
42.7368242456588803
 20
120.2249212671626992
 30
0.0
  0
VERTEX
  5
25E1
  8
0
 10
42.7335462203234897
 20
120.2287890838704953
 30
0.0
  0
VERTEX
  5
25E2
  8
0
 10
42.7298675355395332
 20
120.2336565395695942
 30
0.0
  0
VERTEX
  5
25E3
  8
0
 10
42.7250518260823569
 20
120.2411336088263027
 30
0.0
  0
VERTEX
  5
25E4
  8
0
 10
42.7153618315808217
 20
120.2637868299997024
 30
0.0
  0
VERTEX
  5
25E5
  8
0
 10
42.711221006364859
 20
120.2974078872269956
 30
0.0
  0
VERTEX
  5
25E6
  8
0
 10
42.7174631106595086
 20
120.325647557825107
 30
0.0
  0
VERTEX
  5
25E7
  8
0
 10
42.7418863180837434
 20
120.363330147059699
 30
0.0
  0
SEQEND
  5
25E8
  8
0
  0
ARC
  5
2088
  8
0
 10
50.9454472252172366
 20
127.5473725011535038
 30
0.0
 40
10.9999901497549502
 50
221.7343592872732074
 51
222.2656404625359983
  0
POLYLINE
  5
2089
  8
0
 66
     1
 10
0.0
 20
0.0
 30
0.0
  0
VERTEX
  5
25E9
  8
0
 10
42.9432541918727111
 20
120.1396884663451061
 30
0.0
  0
VERTEX
  5
25EA
  8
0
 10
42.8944982042260605
 20
120.117574805682807
 30
0.0
  0
VERTEX
  5
25EB
  8
0
 10
42.8716623244348369
 20
120.1166540388746
 30
0.0
  0
VERTEX
  5
25EC
  8
0
 10
42.8549709577798126
 20
120.1193279053629936
 30
0.0
  0
VERTEX
  5
25ED
  8
0
 10
42.8425925127701532
 20
120.1232722023314068
 30
0.0
  0
VERTEX
  5
25EE
  8
0
 10
42.8332015268930775
 20
120.1275228430366013
 30
0.0
  0
VERTEX
  5
25EF
  8
0
 10
42.8258848189290333
 20
120.131699881692299
 30
0.0
  0
VERTEX
  5
25F0
  8
0
 10
42.816944621383243
 20
120.1380239723269057
 30
0.0
  0
VERTEX
  5
25F1
  8
0
 10
42.8125035836427514
 20
120.1417605465161955
 30
0.0
  0
VERTEX
  5
25F2
  8
0
 10
42.8073442211644704
 20
120.146705974675001
 30
0.0
  0
VERTEX
  5
25F3
  8
0
 10
42.8050743673446732
 20
120.1491218275471056
 30
0.0
  0
SEQEND
  5
25F4
  8
0
  0
POLYLINE
  5
208A
  8
0
 66
     1
 10
0.0
 20
0.0
 30
0.0
  0
VERTEX
  5
25F5
  8
0
 10
46.295650210815289
 20
118.5475664878297977
 30
0.0
  0
VERTEX
  5
25F6
  8
0
 10
46.3123785211896291
 20
118.5195400386017042
 30
0.0
  0
VERTEX
  5
25F7
  8
0
 10
46.3650011885740909
 20
118.414011026251103
 30
0.0
  0
VERTEX
  5
25F8
  8
0
 10
46.4026582827743184
 20
118.3105145868361063
 30
0.0
  0
VERTEX
  5
25F9
  8
0
 10
46.4366178541853216
 20
118.1538143363620037
 30
0.0
  0
VERTEX
  5
25FA
  8
0
 10
46.4454268960690229
 20
118.0136633877512935
 30
0.0
  0
VERTEX
  5
25FB
  8
0
 10
46.4277965810811892
 20
117.8327951378217051
 30
0.0
  0
VERTEX
  5
25FC
  8
0
 10
46.3916079000285322
 20
117.6973808998821056
 30
0.0
  0
VERTEX
  5
25FD
  8
0
 10
46.3731380065681194
 20
117.6477320088517047
 30
0.0
  0
SEQEND
  5
25FE
  8
0
  0
POLYLINE
  5
208B
  8
0
 66
     1
 10
0.0
 20
0.0
 30
0.0
  0
VERTEX
  5
25FF
  8
0
 10
46.4248095340447477
 20
117.5192302760767973
 30
0.0
  0
VERTEX
  5
2600
  8
0
 10
46.4201882891958277
 20
117.5214578584267002
 30
0.0
  0
VERTEX
  5
2601
  8
0
 10
46.4148328068507112
 20
117.5244214526298947
 30
0.0
  0
VERTEX
  5
2602
  8
0
 10
46.4073552380138992
 20
117.5293288091257011
 30
0.0
  0
VERTEX
  5
2603
  8
0
 10
46.3891358542270069
 20
117.5463149000368048
 30
0.0
  0
VERTEX
  5
2604
  8
0
 10
46.3716471106810602
 20
117.5757932747318932
 30
0.0
  0
VERTEX
  5
2605
  8
0
 10
46.3660737652578234
 20
117.604611259129797
 30
0.0
  0
VERTEX
  5
2606
  8
0
 10
46.3731380065681194
 20
117.6477320088517047
 30
0.0
  0
SEQEND
  5
2607
  8
0
  0
ARC
  5
208C
  8
0
 10
50.9454602752695394
 20
127.5473919616994039
 30
0.0
 40
11.0000140871330796
 50
245.7343598514324015
 51
246.2656398844638943
  0
POLYLINE
  5
208D
  8
0
 66
     1
 10
0.0
 20
0.0
 30
0.0
  0
VERTEX
  5
2608
  8
0
 10
46.6480599794488668
 20
117.5253288603036026
 30
0.0
  0
VERTEX
  5
2609
  8
0
 10
46.6124838052730794
 20
117.4852769304789035
 30
0.0
  0
VERTEX
  5
260A
  8
0
 10
46.5919929475199126
 20
117.4751547899427067
 30
0.0
  0
VERTEX
  5
260B
  8
0
 10
46.5756532687295532
 20
117.470813923751507
 30
0.0
  0
VERTEX
  5
260C
  8
0
 10
46.5627375850388034
 20
117.4693872328518012
 30
0.0
  0
VERTEX
  5
260D
  8
0
 10
46.5524270747896978
 20
117.4694550528776062
 30
0.0
  0
VERTEX
  5
260E
  8
0
 10
46.5440417736677432
 20
117.4702989724790996
 30
0.0
  0
VERTEX
  5
260F
  8
0
 10
46.5332859582418621
 20
117.472449364779294
 30
0.0
  0
VERTEX
  5
2610
  8
0
 10
46.5277082551909587
 20
117.4740606912080949
 30
0.0
  0
VERTEX
  5
2611
  8
0
 10
46.5221030667990405
 20
117.4760434253042973
 30
0.0
  0
VERTEX
  5
2612
  8
0
 10
46.5179895347451975
 20
117.4777438666104956
 30
0.0
  0
SEQEND
  5
2613
  8
0
  0
POLYLINE
  5
208E
  8
0
 66
     1
 10
0.0
 20
0.0
 30
0.0
  0
VERTEX
  5
2614
  8
0
 10
46.6480599794488668
 20
117.5253288603036026
 30
0.0
  0
VERTEX
  5
2615
  8
0
 10
46.6959122710069607
 20
117.6127631410942058
 30
0.0
  0
VERTEX
  5
2616
  8
0
 10
46.7705452580581706
 20
117.7175742573838022
 30
0.0
  0
VERTEX
  5
2617
  8
0
 10
46.8802252043357086
 20
117.8316712937729989
 30
0.0
  0
VERTEX
  5
2618
  8
0
 10
46.9760379578551124
 20
117.9072513732852059
 30
0.0
  0
VERTEX
  5
2619
  8
0
 10
47.093713595603667
 20
117.977494407079206
 30
0.0
  0
VERTEX
  5
261A
  8
0
 10
47.2371631608767686
 20
118.0366575414742982
 30
0.0
  0
VERTEX
  5
261B
  8
0
 10
47.4030477532013208
 20
118.0754483109767961
 30
0.0
  0
VERTEX
  5
261C
  8
0
 10
47.5246025693775778
 20
118.085449983645205
 30
0.0
  0
VERTEX
  5
261D
  8
0
 10
47.6511719770516819
 20
118.0802397272562985
 30
0.0
  0
VERTEX
  5
261E
  8
0
 10
47.7796668050061371
 20
118.0580323237661986
 30
0.0
  0
VERTEX
  5
261F
  8
0
 10
47.9053677901267534
 20
118.0190564319971998
 30
0.0
  0
VERTEX
  5
2620
  8
0
 10
48.016346795375938
 20
117.9682993243287967
 30
0.0
  0
VERTEX
  5
2621
  8
0
 10
48.1184996252712622
 20
117.9058491869929952
 30
0.0
  0
VERTEX
  5
2622
  8
0
 10
48.2107480943160667
 20
117.8329979325801986
 30
0.0
  0
VERTEX
  5
2623
  8
0
 10
48.2905433302685978
 20
117.7536298921070994
 30
0.0
  0
VERTEX
  5
2624
  8
0
 10
48.3639660792191819
 20
117.6613567229153006
 30
0.0
  0
VERTEX
  5
2625
  8
0
 10
48.4223287571639887
 20
117.5679574356328061
 30
0.0
  0
VERTEX
  5
2626
  8
0
 10
48.4881387683507512
 20
117.4217581831935036
 30
0.0
  0
VERTEX
  5
2627
  8
0
 10
48.5259095582985083
 20
117.2865101164293975
 30
0.0
  0
VERTEX
  5
2628
  8
0
 10
48.546291137278331
 20
117.1059348086503036
 30
0.0
  0
VERTEX
  5
2629
  8
0
 10
48.5390641772037768
 20
116.9659451814521987
 30
0.0
  0
VERTEX
  5
262A
  8
0
 10
48.53130645677129
 20
116.9134249869602939
 30
0.0
  0
SEQEND
  5
262B
  8
0
  0
POLYLINE
  5
208F
  8
0
 66
     1
 10
0.0
 20
0.0
 30
0.0
  0
VERTEX
  5
262C
  8
0
 10
48.6085658462736205
 20
116.7984744407966957
 30
0.0
  0
VERTEX
  5
262D
  8
0
 10
48.6035651056398308
 20
116.7996972492550043
 30
0.0
  0
VERTEX
  5
262E
  8
0
 10
48.5977052264537406
 20
116.8014855588330931
 30
0.0
  0
VERTEX
  5
262F
  8
0
 10
48.5893576582488507
 20
116.8047391314807015
 30
0.0
  0
VERTEX
  5
2630
  8
0
 10
48.5679451163670706
 20
116.8176252508972937
 30
0.0
  0
VERTEX
  5
2631
  8
0
 10
48.544672975640033
 20
116.8429544412403942
 30
0.0
  0
VERTEX
  5
2632
  8
0
 10
48.5332633969660492
 20
116.8701401136977012
 30
0.0
  0
VERTEX
  5
2633
  8
0
 10
48.53130645677129
 20
116.9134249869602939
 30
0.0
  0
SEQEND
  5
2634
  8
0
  0
ARC
  5
2090
  8
0
 10
50.9454579968979075
 20
127.5473953300886052
 30
0.0
 40
11.0000166003467399
 50
257.7343598926195227
 51
258.265639823772517
  0
POLYLINE
  5
2091
  8
0
 66
     1
 10
0.0
 20
0.0
 30
0.0
  0
VERTEX
  5
2635
  8
0
 10
48.8256697705096485
 20
116.8508561331101987
 30
0.0
  0
VERTEX
  5
2636
  8
0
 10
48.7991875743693413
 20
116.8042720777809933
 30
0.0
  0
VERTEX
  5
2637
  8
0
 10
48.7812480139319007
 20
116.7901142628481068
 30
0.0
  0
VERTEX
  5
2638
  8
0
 10
48.7661671085073678
 20
116.7824732187208951
 30
0.0
  0
VERTEX
  5
2639
  8
0
 10
48.7538296360358103
 20
116.7783940201825033
 30
0.0
  0
VERTEX
  5
263A
  8
0
 10
48.7437297726887095
 20
116.7763180129840066
 30
0.0
  0
VERTEX
  5
263B
  8
0
 10
48.7353517063506203
 20
116.7754012235455008
 30
0.0
  0
VERTEX
  5
263C
  8
0
 10
48.7243788766513219
 20
116.7752701450322945
 30
0.0
  0
VERTEX
  5
263D
  8
0
 10
48.7185877237034504
 20
116.7756877456067031
 30
0.0
  0
VERTEX
  5
263E
  8
0
 10
48.7126990871839993
 20
116.7764619314694983
 30
0.0
  0
VERTEX
  5
263F
  8
0
 10
48.7083351535926496
 20
116.7772678196147069
 30
0.0
  0
SEQEND
  5
2640
  8
0
  0
POLYLINE
  5
2092
  8
0
 66
     1
 10
0.0
 20
0.0
 30
0.0
  0
VERTEX
  5
2641
  8
0
 10
48.8256697705096485
 20
116.8508561331101987
 30
0.0
  0
VERTEX
  5
2642
  8
0
 10
48.8542651045844423
 20
116.9462336719473967
 30
0.0
  0
VERTEX
  5
2643
  8
0
 10
48.9053947086054919
 20
117.0641412028312942
 30
0.0
  0
VERTEX
  5
2644
  8
0
 10
48.9887988876920133
 20
117.198404762669
 30
0.0
  0
VERTEX
  5
2645
  8
0
 10
49.0667599640194325
 20
117.2922886297988043
 30
0.0
  0
VERTEX
  5
2646
  8
0
 10
49.1672243789925218
 20
117.3855148308387015
 30
0.0
  0
VERTEX
  5
2647
  8
0
 10
49.2952201343928991
 20
117.4732797791730974
 30
0.0
  0
VERTEX
  5
2648
  8
0
 10
49.4494225515260766
 20
117.5457920018224058
 30
0.0
  0
VERTEX
  5
2649
  8
0
 10
49.566230111766032
 20
117.5808931329720934
 30
0.0
  0
VERTEX
  5
264A
  8
0
 10
49.6911166550956409
 20
117.6021605242470969
 30
0.0
  0
VERTEX
  5
264B
  8
0
 10
49.8214340734345171
 20
117.6072023120276953
 30
0.0
  0
VERTEX
  5
264C
  8
0
 10
49.9525168471895427
 20
117.595256646100907
 30
0.0
  0
VERTEX
  5
264D
  8
0
 10
50.0716425133169025
 20
117.5687199265162945
 30
0.0
  0
VERTEX
  5
264E
  8
0
 10
50.1845732783492622
 20
117.5289047804474052
 30
0.0
  0
VERTEX
  5
264F
  8
0
 10
50.2899709673181974
 20
117.4768568480398017
 30
0.0
  0
VERTEX
  5
2650
  8
0
 10
50.3845478606951573
 20
117.4158394798884046
 30
0.0
  0
VERTEX
  5
2651
  8
0
 10
50.4755712258059077
 20
117.3408781734021034
 30
0.0
  0
VERTEX
  5
2652
  8
0
 10
50.5521023019402733
 20
117.2616772166851007
 30
0.0
  0
VERTEX
  5
2653
  8
0
 10
50.6468963543819086
 20
117.1324073662684953
 30
0.0
  0
VERTEX
  5
2654
  8
0
 10
50.7119982587402873
 20
117.0080008266627942
 30
0.0
  0
VERTEX
  5
2655
  8
0
 10
50.7695352537931228
 20
116.8356388268101966
 30
0.0
  0
VERTEX
  5
2656
  8
0
 10
50.7916239104835086
 20
116.6971867632720006
 30
0.0
  0
VERTEX
  5
2657
  8
0
 10
50.7949847628176983
 20
116.6438727868465008
 30
0.0
  0
SEQEND
  5
2658
  8
0
  0
POLYLINE
  5
2093
  8
0
 66
     1
 10
0.0
 20
0.0
 30
0.0
  0
VERTEX
  5
2659
  8
0
 10
50.8944554117068435
 20
116.5474973162166066
 30
0.0
  0
VERTEX
  5
265A
  8
0
 10
50.8940102921855768
 20
116.5475003708909014
 30
0.0
  0
VERTEX
  5
265B
  8
0
 10
50.8889966633704489
 20
116.5476717711892007
 30
0.0
  0
VERTEX
  5
265C
  8
0
 10
50.8807581315159609
 20
116.5485039832371967
 30
0.0
  0
VERTEX
  5
265D
  8
0
 10
50.8743825523744988
 20
116.5496277046254932
 30
0.0
  0
VERTEX
  5
265E
  8
0
 10
50.8632638683202387
 20
116.5526387339744048
 30
0.0
  0
VERTEX
  5
265F
  8
0
 10
50.8539418016728391
 20
116.556277484901301
 30
0.0
  0
VERTEX
  5
2660
  8
0
 10
50.8112059190509626
 20
116.5927961103528929
 30
0.0
  0
VERTEX
  5
2661
  8
0
 10
50.7949847628176983
 20
116.6438727868465008
 30
0.0
  0
SEQEND
  5
2662
  8
0
  0
ARC
  5
2094
  8
0
 10
50.9454545454546519
 20
127.5473754938975048
 30
0.0
 40
10.9999964016114298
 50
269.7343594048348905
 51
270.2656403115570924
  0
POLYLINE
  5
2095
  8
0
 66
     1
 10
0.0
 20
0.0
 30
0.0
  0
VERTEX
  5
2663
  8
0
 10
51.0959243280914279
 20
116.6438727868465008
 30
0.0
  0
VERTEX
  5
2664
  8
0
 10
51.0797031718581422
 20
116.5927961103528929
 30
0.0
  0
VERTEX
  5
2665
  8
0
 10
51.0369672892362871
 20
116.556277484901301
 30
0.0
  0
VERTEX
  5
2666
  8
0
 10
51.027645222588859
 20
116.5526387339744048
 30
0.0
  0
VERTEX
  5
2667
  8
0
 10
51.016526538534599
 20
116.5496277046254932
 30
0.0
  0
VERTEX
  5
2668
  8
0
 10
51.0101509593931368
 20
116.5485039832371967
 30
0.0
  0
VERTEX
  5
2669
  8
0
 10
51.0019124275386488
 20
116.5476717711892007
 30
0.0
  0
VERTEX
  5
266A
  8
0
 10
50.9968987987235209
 20
116.5475003708909014
 30
0.0
  0
VERTEX
  5
266B
  8
0
 10
50.9964536247543094
 20
116.5474973159640939
 30
0.0
  0
SEQEND
  5
266C
  8
0
  0
POLYLINE
  5
2096
  8
0
 66
     1
 10
0.0
 20
0.0
 30
0.0
  0
VERTEX
  5
266D
  8
0
 10
51.0959243280914279
 20
116.6438727868465008
 30
0.0
  0
VERTEX
  5
266E
  8
0
 10
51.1040852536026193
 20
116.7432802348250931
 30
0.0
  0
VERTEX
  5
266F
  8
0
 10
51.1296714232367222
 20
116.8694855990078025
 30
0.0
  0
VERTEX
  5
2670
  8
0
 10
51.18354702807747
 20
117.0184490552603052
 30
0.0
  0
VERTEX
  5
2671
  8
0
 10
51.240369857615768
 20
117.1264482533760969
 30
0.0
  0
VERTEX
  5
2672
  8
0
 10
51.3193328789589884
 20
117.2384514045485986
 30
0.0
  0
VERTEX
  5
2673
  8
0
 10
51.4263392436860372
 20
117.3508012867437031
 30
0.0
  0
VERTEX
  5
2674
  8
0
 10
51.5621109267463495
 20
117.4536547428890998
 30
0.0
  0
VERTEX
  5
2675
  8
0
 10
51.6691030356428485
 20
117.5122035066800947
 30
0.0
  0
VERTEX
  5
2676
  8
0
 10
51.7868563096508794
 20
117.5588913381173057
 30
0.0
  0
VERTEX
  5
2677
  8
0
 10
51.9132726639425286
 20
117.5908328247475936
 30
0.0
  0
VERTEX
  5
2678
  8
0
 10
52.043948459839072
 20
117.6063205459125953
 30
0.0
  0
VERTEX
  5
2679
  8
0
 10
52.1659702465177304
 20
117.6050628591767975
 30
0.0
  0
VERTEX
  5
267A
  8
0
 10
52.2846791388813585
 20
117.5895360407157
 30
0.0
  0
VERTEX
  5
267B
  8
0
 10
52.3985756813688681
 20
117.5604797744537962
 30
0.0
  0
VERTEX
  5
267C
  8
0
 10
52.503741755182169
 20
117.5204081476685047
 30
0.0
  0
VERTEX
  5
267D
  8
0
 10
52.6083381631140412
 20
117.4659528930769028
 30
0.0
  0
VERTEX
  5
267E
  8
0
 10
52.6996304646421834
 20
117.4043474611702038
 30
0.0
  0
VERTEX
  5
267F
  8
0
 10
52.8192056230981777
 20
117.2975163320105025
 30
0.0
  0
VERTEX
  5
2680
  8
0
 10
52.9087011193109902
 20
117.1892961986147981
 30
0.0
  0
VERTEX
  5
2681
  8
0
 10
53.0007328475559234
 20
117.0325941089499935
 30
0.0
  0
VERTEX
  5
2682
  8
0
 10
53.0510315524037424
 20
116.9017731552112025
 30
0.0
  0
VERTEX
  5
2683
  8
0
 10
53.0652393203994492
 20
116.8508561331102982
 30
0.0
  0
SEQEND
  5
2684
  8
0
  0
POLYLINE
  5
2097
  8
0
 66
     1
 10
0.0
 20
0.0
 30
0.0
  0
VERTEX
  5
2685
  8
0
 10
53.1825739454723703
 20
116.7772678213087971
 30
0.0
  0
VERTEX
  5
2686
  8
0
 10
53.1775078142133282
 20
116.7763508680811952
 30
0.0
  0
VERTEX
  5
2687
  8
0
 10
53.1714270739724384
 20
116.7756011520327064
 30
0.0
  0
VERTEX
  5
2688
  8
0
 10
53.1624775811351071
 20
116.7751782127231053
 30
0.0
  0
VERTEX
  5
2689
  8
0
 10
53.1376736417754501
 20
116.7782415173161041
 30
0.0
  0
VERTEX
  5
268A
  8
0
 10
53.1061096812076912
 20
116.791917058838294
 30
0.0
  0
VERTEX
  5
268B
  8
0
 10
53.0846285425877724
 20
116.8121144083764023
 30
0.0
  0
VERTEX
  5
268C
  8
0
 10
53.0652393203994492
 20
116.8508561331102982
 30
0.0
  0
SEQEND
  5
268D
  8
0
  0
ARC
  5
2098
  8
0
 10
50.9454527506538497
 20
127.5473875361984
 30
0.0
 40
11.0000086324220092
 50
281.7343600271962032
 51
282.2656400161920942
  0
POLYLINE
  5
2099
  8
0
 66
     1
 10
0.0
 20
0.0
 30
0.0
  0
VERTEX
  5
268E
  8
0
 10
53.3596026341378078
 20
116.9134249869602939
 30
0.0
  0
VERTEX
  5
268F
  8
0
 10
53.3543563677763117
 20
116.860094423446597
 30
0.0
  0
VERTEX
  5
2690
  8
0
 10
53.3437261706299921
 20
116.8398649369936066
 30
0.0
  0
VERTEX
  5
2691
  8
0
 10
53.3330570947239835
 20
116.8267511473712972
 30
0.0
  0
VERTEX
  5
2692
  8
0
 10
53.3234455835636183
 20
116.8180068849187023
 30
0.0
  0
VERTEX
  5
2693
  8
0
 10
53.3150634501814693
 20
116.812002605813305
 30
0.0
  0
VERTEX
  5
2694
  8
0
 10
53.3077827357967635
 20
116.8077575575491949
 30
0.0
  0
VERTEX
  5
2695
  8
0
 10
53.2978119491252684
 20
116.8031748590491929
 30
0.0
  0
VERTEX
  5
2696
  8
0
 10
53.2923516902966696
 20
116.8012009359910053
 30
0.0
  0
VERTEX
  5
2697
  8
0
 10
53.2866573417275333
 20
116.7995131099576014
 30
0.0
  0
VERTEX
  5
2698
  8
0
 10
53.2823431914298524
 20
116.7984744292295005
 30
0.0
  0
SEQEND
  5
2699
  8
0
  0
POLYLINE
  5
209A
  8
0
 66
     1
 10
0.0
 20
0.0
 30
0.0
  0
VERTEX
  5
269A
  8
0
 10
53.3596026341378078
 20
116.9134249869602939
 30
0.0
  0
VERTEX
  5
269B
  8
0
 10
53.3469173229813123
 20
117.0123561063521009
 30
0.0
  0
VERTEX
  5
269C
  8
0
 10
53.345704636693597
 20
117.1411220471886026
 30
0.0
  0
VERTEX
  5
269D
  8
0
 10
53.3674310169659805
 20
117.2980301243294008
 30
0.0
  0
VERTEX
  5
269E
  8
0
 10
53.4005574075373204
 20
117.4154835208924936
 30
0.0
  0
VERTEX
  5
269F
  8
0
 10
53.4545077114871106
 20
117.5414567303712943
 30
0.0
  0
VERTEX
  5
26A0
  8
0
 10
53.5358165200762812
 20
117.6735998154535991
 30
0.0
  0
VERTEX
  5
26A1
  8
0
 10
53.647236630453591
 20
117.8024347957528022
 30
0.0
  0
VERTEX
  5
26A2
  8
0
 10
53.7397175042337381
 20
117.8819493286552955
 30
0.0
  0
VERTEX
  5
26A3
  8
0
 10
53.8451904831007369
 20
117.9520995499508018
 30
0.0
  0
VERTEX
  5
26A4
  8
0
 10
53.9622032694264533
 20
118.0096268672884037
 30
0.0
  0
VERTEX
  5
26A5
  8
0
 10
54.0868034478747575
 20
118.0519455662574018
 30
0.0
  0
VERTEX
  5
26A6
  8
0
 10
54.2064202692149308
 20
118.0760854486585032
 30
0.0
  0
VERTEX
  5
26A7
  8
0
 10
54.3257633814501517
 20
118.0855792058291058
 30
0.0
  0
VERTEX
  5
26A8
  8
0
 10
54.4432121795232078
 20
118.0808385997696064
 30
0.0
  0
VERTEX
  5
26A9
  8
0
 10
54.5544115705317196
 20
118.063508153614606
 30
0.0
  0
VERTEX
  5
26AA
  8
0
 10
54.6680442308208114
 20
118.0319899748294006
 30
0.0
  0
VERTEX
  5
26AB
  8
0
 10
54.770150171971828
 20
117.9907117523140982
 30
0.0
  0
VERTEX
  5
26AC
  8
0
 10
54.9093237851685601
 20
117.9110766694362979
 30
0.0
  0
VERTEX
  5
26AD
  8
0
 10
55.0193639806609625
 20
117.8238289217622992
 30
0.0
  0
VERTEX
  5
26AE
  8
0
 10
55.1419651077809974
 20
117.6896860176883024
 30
0.0
  0
VERTEX
  5
26AF
  8
0
 10
55.2183643083584172
 20
117.5721815340459955
 30
0.0
  0
VERTEX
  5
26B0
  8
0
 10
55.2428491114602309
 20
117.5253288603036026
 30
0.0
  0
SEQEND
  5
26B1
  8
0
  0
POLYLINE
  5
209B
  8
0
 66
     1
 10
0.0
 20
0.0
 30
0.0
  0
VERTEX
  5
26B2
  8
0
 10
55.3729195759019319
 20
117.4777438752889935
 30
0.0
  0
VERTEX
  5
26B3
  8
0
 10
55.3681711683763282
 20
117.4757998663998961
 30
0.0
  0
VERTEX
  5
26B4
  8
0
 10
55.3623850193393707
 20
117.4738029690823993
 30
0.0
  0
VERTEX
  5
26B5
  8
0
 10
55.3537340247753491
 20
117.4715296673155933
 30
0.0
  0
VERTEX
  5
26B6
  8
0
 10
55.3289162532695684
 20
117.4693564782077004
 30
0.0
  0
VERTEX
  5
26B7
  8
0
 10
55.295302804700377
 20
117.4760882403967059
 30
0.0
  0
VERTEX
  5
26B8
  8
0
 10
55.2701548443511115
 20
117.4912355659694043
 30
0.0
  0
VERTEX
  5
26B9
  8
0
 10
55.2428491114602309
 20
117.5253288603036026
 30
0.0
  0
SEQEND
  5
26BA
  8
0
  0
ARC
  5
209C
  8
0
 10
50.9454639869595098
 20
127.5473578863576023
 30
0.0
 40
10.9999767874285208
 50
293.7343593270809947
 51
294.2656407852264806
  0
POLYLINE
  5
209D
  8
0
 66
     1
 10
0.0
 20
0.0
 30
0.0
  0
VERTEX
  5
26BB
  8
0
 10
55.517771081473569
 20
117.647732015976203
 30
0.0
  0
VERTEX
  5
26BC
  8
0
 10
55.5237293581984304
 20
117.594487557546401
 30
0.0
  0
VERTEX
  5
26BD
  8
0
 10
55.5175398407101213
 20
117.5724889831196975
 30
0.0
  0
VERTEX
  5
26BE
  8
0
 10
55.5098323403677512
 20
117.5574430152421996
 30
0.0
  0
VERTEX
  5
26BF
  8
0
 10
55.5022504982861733
 20
117.5468910434971974
 30
0.0
  0
VERTEX
  5
26C0
  8
0
 10
55.4953012663376128
 20
117.5392748049481071
 30
0.0
  0
VERTEX
  5
26C1
  8
0
 10
55.4890634826118969
 20
117.5336083901334945
 30
0.0
  0
VERTEX
  5
26C2
  8
0
 10
55.4802685017973829
 20
117.5270544060748961
 30
0.0
  0
VERTEX
  5
26C3
  8
0
 10
55.475338981454108
 20
117.5239877066971985
 30
0.0
  0
VERTEX
  5
26C4
  8
0
 10
55.4701150755572598
 20
117.521149084969295
 30
0.0
  0
VERTEX
  5
26C5
  8
0
 10
55.4660995106403902
 20
117.5192302552391936
 30
0.0
  0
SEQEND
  5
26C6
  8
0
  0
POLYLINE
  5
209E
  8
0
 66
     1
 10
0.0
 20
0.0
 30
0.0
  0
VERTEX
  5
26C7
  8
0
 10
55.517771081473569
 20
117.647732015976203
 30
0.0
  0
VERTEX
  5
26C8
  8
0
 10
55.484795041201302
 20
117.7418605616096983
 30
0.0
  0
VERTEX
  5
26C9
  8
0
 10
55.456837284667067
 20
117.8675553250558039
 30
0.0
  0
VERTEX
  5
26CA
  8
0
 10
55.4454644245553823
 20
118.0255446595877942
 30
0.0
  0
VERTEX
  5
26CB
  8
0
 10
55.4534450865199915
 20
118.1473188596464041
 30
0.0
  0
VERTEX
  5
26CC
  8
0
 10
55.4800231327502615
 20
118.2817568726632942
 30
0.0
  0
VERTEX
  5
26CD
  8
0
 10
55.5320791560111502
 20
118.4279189159961021
 30
0.0
  0
VERTEX
  5
26CE
  8
0
 10
55.5953085946796577
 20
118.5476467638636962
 30
0.0
  0
SEQEND
  5
26CF
  8
0
  0
POLYLINE
  5
209F
  8
0
 66
     1
 10
0.0
 20
0.0
 30
0.0
  0
VERTEX
  5
26D0
  8
0
 10
55.5952588800938088
 20
136.5471916968197093
 30
0.0
  0
VERTEX
  5
26D1
  8
0
 10
55.5785305697194687
 20
136.5752181460478027
 30
0.0
  0
VERTEX
  5
26D2
  8
0
 10
55.5259079023350282
 20
136.6807471583983897
 30
0.0
  0
VERTEX
  5
26D3
  8
0
 10
55.4882508081347794
 20
136.7842435978134006
 30
0.0
  0
VERTEX
  5
26D4
  8
0
 10
55.4542912367238117
 20
136.9409438482873895
 30
0.0
  0
VERTEX
  5
26D5
  8
0
 10
55.4454821948401104
 20
137.0810947968982134
 30
0.0
  0
VERTEX
  5
26D6
  8
0
 10
55.4631125098279298
 20
137.2619630468277876
 30
0.0
  0
VERTEX
  5
26D7
  8
0
 10
55.4993011908805727
 20
137.3973772847672876
 30
0.0
  0
VERTEX
  5
26D8
  8
0
 10
55.5177710843409784
 20
137.447026175797788
 30
0.0
  0
SEQEND
  5
26D9
  8
0
  0
POLYLINE
  5
20A0
  8
0
 66
     1
 10
0.0
 20
0.0
 30
0.0
  0
VERTEX
  5
26DA
  8
0
 10
55.4660995373548289
 20
137.5755279173675092
 30
0.0
  0
VERTEX
  5
26DB
  8
0
 10
55.4707207783969807
 20
137.5733003382084974
 30
0.0
  0
VERTEX
  5
26DC
  8
0
 10
55.4760762541380714
 20
137.5703367497939951
 30
0.0
  0
VERTEX
  5
26DD
  8
0
 10
55.483553806761897
 20
137.5654294088440963
 30
0.0
  0
VERTEX
  5
26DE
  8
0
 10
55.5017731234293805
 20
137.548443420293097
 30
0.0
  0
VERTEX
  5
26DF
  8
0
 10
55.5192618541893808
 20
137.5189652431685943
 30
0.0
  0
VERTEX
  5
26E0
  8
0
 10
55.5248352940591801
 20
137.490147470778993
 30
0.0
  0
VERTEX
  5
26E1
  8
0
 10
55.5177710843409784
 20
137.447026175797788
 30
0.0
  0
SEQEND
  5
26E2
  8
0
  0
ARC
  5
20A1
  8
0
 10
50.9454502456703224
 20
127.5473694348510065
 30
0.0
 40
11.0000105713074507
 50
65.7343598779976048
 51
66.2656399693707243
  0
POLYLINE
  5
20A2
  8
0
 66
     1
 10
0.0
 20
0.0
 30
0.0
  0
VERTEX
  5
26E3
  8
0
 10
55.2428491114602522
 20
137.5694293243458901
 30
0.0
  0
VERTEX
  5
26E4
  8
0
 10
55.2784252856360183
 20
137.6094812541705892
 30
0.0
  0
VERTEX
  5
26E5
  8
0
 10
55.2989161433891923
 20
137.619603394706786
 30
0.0
  0
VERTEX
  5
26E6
  8
0
 10
55.3152558221795516
 20
137.6239442608979004
 30
0.0
  0
VERTEX
  5
26E7
  8
0
 10
55.3281715058703014
 20
137.6253709517976915
 30
0.0
  0
VERTEX
  5
26E8
  8
0
 10
55.3384820161194284
 20
137.6253031317718012
 30
0.0
  0
VERTEX
  5
26E9
  8
0
 10
55.3468673172413901
 20
137.6244592121703931
 30
0.0
  0
VERTEX
  5
26EA
  8
0
 10
55.3576231326672712
 20
137.6223088198701134
 30
0.0
  0
VERTEX
  5
26EB
  8
0
 10
55.3632008357181675
 20
137.6206974934412983
 30
0.0
  0
VERTEX
  5
26EC
  8
0
 10
55.3688060241100928
 20
137.6187147593450959
 30
0.0
  0
VERTEX
  5
26ED
  8
0
 10
55.3729195561639074
 20
137.6170143180389118
 30
0.0
  0
SEQEND
  5
26EE
  8
0
  0
POLYLINE
  5
20A3
  8
0
 66
     1
 10
0.0
 20
0.0
 30
0.0
  0
VERTEX
  5
26EF
  8
0
 10
55.2428491114602522
 20
137.5694293243458901
 30
0.0
  0
VERTEX
  5
26F0
  8
0
 10
55.1949968199021725
 20
137.4819950435552869
 30
0.0
  0
VERTEX
  5
26F1
  8
0
 10
55.12036383285092
 20
137.3771839272656905
 30
0.0
  0
VERTEX
  5
26F2
  8
0
 10
55.0106838865734105
 20
137.2630868908763944
 30
0.0
  0
VERTEX
  5
26F3
  8
0
 10
54.9148711330539925
 20
137.1875068113641873
 30
0.0
  0
VERTEX
  5
26F4
  8
0
 10
54.7971954953054592
 20
137.1172637775702015
 30
0.0
  0
VERTEX
  5
26F5
  8
0
 10
54.6537459300323221
 20
137.058100643175095
 30
0.0
  0
VERTEX
  5
26F6
  8
0
 10
54.487861337707777
 20
137.0193098736725972
 30
0.0
  0
VERTEX
  5
26F7
  8
0
 10
54.3663065215315484
 20
137.009308201004302
 30
0.0
  0
VERTEX
  5
26F8
  8
0
 10
54.2397371138574087
 20
137.0145184573931942
 30
0.0
  0
VERTEX
  5
26F9
  8
0
 10
54.1112422859029607
 20
137.0367258608833083
 30
0.0
  0
VERTEX
  5
26FA
  8
0
 10
53.9855413007823586
 20
137.075701752652293
 30
0.0
  0
VERTEX
  5
26FB
  8
0
 10
53.8745622955331669
 20
137.126458860320696
 30
0.0
  0
VERTEX
  5
26FC
  8
0
 10
53.7724094656378711
 20
137.1889089976565117
 30
0.0
  0
VERTEX
  5
26FD
  8
0
 10
53.6801609965930595
 20
137.2617602520693083
 30
0.0
  0
VERTEX
  5
26FE
  8
0
 10
53.6003657606405284
 20
137.3411282925424075
 30
0.0
  0
VERTEX
  5
26FF
  8
0
 10
53.526943011689923
 20
137.4334014617342064
 30
0.0
  0
VERTEX
  5
2700
  8
0
 10
53.4685803337451304
 20
137.5268007490167008
 30
0.0
  0
VERTEX
  5
2701
  8
0
 10
53.4027703225583821
 20
137.6730000014559039
 30
0.0
  0
VERTEX
  5
2702
  8
0
 10
53.3649995326105966
 20
137.8082480682201094
 30
0.0
  0
VERTEX
  5
2703
  8
0
 10
53.3446179536308023
 20
137.9888233759992033
 30
0.0
  0
VERTEX
  5
2704
  8
0
 10
53.3518449137053494
 20
138.1288130031971946
 30
0.0
  0
VERTEX
  5
2705
  8
0
 10
53.3596026341378504
 20
138.181333197689213
 30
0.0
  0
SEQEND
  5
2706
  8
0
  0
POLYLINE
  5
20A4
  8
0
 66
     1
 10
0.0
 20
0.0
 30
0.0
  0
VERTEX
  5
2707
  8
0
 10
53.2823432260122729
 20
138.2962837479016116
 30
0.0
  0
VERTEX
  5
2708
  8
0
 10
53.2873439627092793
 20
138.2950609415304939
 30
0.0
  0
VERTEX
  5
2709
  8
0
 10
53.2932038350427106
 20
138.2932726357871047
 30
0.0
  0
VERTEX
  5
270A
  8
0
 10
53.3015513861789998
 20
138.2900190737290984
 30
0.0
  0
VERTEX
  5
270B
  8
0
 10
53.3229638503091223
 20
138.2771330315761134
 30
0.0
  0
VERTEX
  5
270C
  8
0
 10
53.3462359434267626
 20
138.2518040123264882
 30
0.0
  0
VERTEX
  5
270D
  8
0
 10
53.3576455663622724
 20
138.2246185437597035
 30
0.0
  0
VERTEX
  5
270E
  8
0
 10
53.3596026341378504
 20
138.181333197689213
 30
0.0
  0
SEQEND
  5
270F
  8
0
  0
ARC
  5
20A5
  8
0
 10
50.9454502190623373
 20
127.5473587382496987
 30
0.0
 40
11.0000208085735203
 50
77.7343600935142547
 51
78.2656397221474265
  0
POLYLINE
  5
20A6
  8
0
 66
     1
 10
0.0
 20
0.0
 30
0.0
  0
VERTEX
  5
2710
  8
0
 10
53.0652393203994777
 20
138.2439020515392087
 30
0.0
  0
VERTEX
  5
2711
  8
0
 10
53.0917215165397565
 20
138.2904861068683999
 30
0.0
  0
VERTEX
  5
2712
  8
0
 10
53.1096610769772326
 20
138.3046439218013859
 30
0.0
  0
VERTEX
  5
2713
  8
0
 10
53.12474198240173
 20
138.3122849659285976
 30
0.0
  0
VERTEX
  5
2714
  8
0
 10
53.137079454873259
 20
138.3163641644669042
 30
0.0
  0
VERTEX
  5
2715
  8
0
 10
53.1471793182203882
 20
138.3184401716654008
 30
0.0
  0
VERTEX
  5
2716
  8
0
 10
53.1555573845584775
 20
138.3193569611040061
 30
0.0
  0
VERTEX
  5
2717
  8
0
 10
53.1665302142577616
 20
138.3194880396171982
 30
0.0
  0
VERTEX
  5
2718
  8
0
 10
53.1723213672056616
 20
138.3190704390426902
 30
0.0
  0
VERTEX
  5
2719
  8
0
 10
53.1782100037250984
 20
138.3182962531799092
 30
0.0
  0
VERTEX
  5
271A
  8
0
 10
53.1825739373164765
 20
138.3174903650347005
 30
0.0
  0
SEQEND
  5
271B
  8
0
  0
POLYLINE
  5
20A7
  8
0
 66
     1
 10
0.0
 20
0.0
 30
0.0
  0
VERTEX
  5
271C
  8
0
 10
53.0652393203994777
 20
138.2439020515392087
 30
0.0
  0
VERTEX
  5
271D
  8
0
 10
53.036643986324691
 20
138.148524512702096
 30
0.0
  0
VERTEX
  5
271E
  8
0
 10
52.9855143823036201
 20
138.0306169818182127
 30
0.0
  0
VERTEX
  5
271F
  8
0
 10
52.90211020321712
 20
137.8963534219805069
 30
0.0
  0
VERTEX
  5
2720
  8
0
 10
52.8241491268896723
 20
137.8024695548506884
 30
0.0
  0
VERTEX
  5
2721
  8
0
 10
52.7236847119165972
 20
137.7092433538107059
 30
0.0
  0
VERTEX
  5
2722
  8
0
 10
52.59568895651622
 20
137.6214784054764095
 30
0.0
  0
VERTEX
  5
2723
  8
0
 10
52.4414865393830496
 20
137.5489661828270869
 30
0.0
  0
VERTEX
  5
2724
  8
0
 10
52.3246789791430729
 20
137.5138650516774135
 30
0.0
  0
VERTEX
  5
2725
  8
0
 10
52.1997924358134568
 20
137.4925976604023106
 30
0.0
  0
VERTEX
  5
2726
  8
0
 10
52.0694750174745877
 20
137.487555872621698
 30
0.0
  0
VERTEX
  5
2727
  8
0
 10
51.9383922437195622
 20
137.4995015385484862
 30
0.0
  0
VERTEX
  5
2728
  8
0
 10
51.8192665775922308
 20
137.5260382581332124
 30
0.0
  0
VERTEX
  5
2729
  8
0
 10
51.7063358125598711
 20
137.565853404201988
 30
0.0
  0
VERTEX
  5
272A
  8
0
 10
51.6009381235909288
 20
137.617901336609691
 30
0.0
  0
VERTEX
  5
272B
  8
0
 10
51.5063612302139688
 20
137.6789187047610881
 30
0.0
  0
VERTEX
  5
272C
  8
0
 10
51.4153378651032185
 20
137.7538800112473041
 30
0.0
  0
VERTEX
  5
272D
  8
0
 10
51.3388067889688386
 20
137.8330809679644062
 30
0.0
  0
VERTEX
  5
272E
  8
0
 10
51.2440127365271891
 20
137.9623508183809122
 30
0.0
  0
VERTEX
  5
272F
  8
0
 10
51.1789108321688389
 20
138.0867573579866985
 30
0.0
  0
VERTEX
  5
2730
  8
0
 10
51.1213738371160105
 20
138.2591193578392961
 30
0.0
  0
VERTEX
  5
2731
  8
0
 10
51.0992851804255892
 20
138.3975714213775063
 30
0.0
  0
VERTEX
  5
2732
  8
0
 10
51.0959243280914279
 20
138.4508853978030061
 30
0.0
  0
SEQEND
  5
2733
  8
0
  0
ARC
  5
20A8
  8
0
 10
50.9454545454545666
 20
127.5473790923247037
 30
0.0
 40
9.2800000000000509
 50
75.889554522181129
 51
104.1104454778188
  0
ARC
  5
20A9
  8
0
 10
50.9454545454545666
 20
127.5473790923247037
 30
0.0
 40
9.2800000000000047
 50
149.5496859786443054
 51
210.4503140213556094
  0
ARC
  5
20AA
  8
0
 10
50.9454545454545666
 20
127.5473790923248032
 30
0.0
 40
9.2800000000000438
 50
255.8895545221811005
 51
284.1104454778189279
  0
ARC
  5
20AB
  8
0
 10
50.9454545454545666
 20
127.5473790923247037
 30
0.0
 40
8.0000000000000036
 50
331.04497562813998
 51
28.9550243718599596
  0
ARC
  5
20AC
  8
0
 10
50.9454545454545311
 20
127.5473790923247037
 30
0.0
 40
7.9999999999999893
 50
151.0449756281400084
 51
208.9550243718599063
  0
CIRCLE
  5
20AD
  8
0
 10
50.9454545454545666
 20
127.5473790923247037
 30
0.0
 40
2.0670000000000002
  0
LINE
  5
20B3
  8
0
 10
43.9454545454545666
 20
131.4473790923246952
 30
0.0
 11
43.9454545454545666
 21
123.647379092324698
 31
0.0
  0
LINE
  5
20B4
  8
0
 10
57.9454545454545595
 20
123.647379092324698
 30
0.0
 11
57.9454545454545595
 21
131.4473790923246952
 31
0.0
  0
CIRCLE
  5
20B6
  8
3
 10
50.9454545454545666
 20
127.5473790923247037
 30
0.0
 40
2.5
  0
ENDSEC
  0
EOF
