  0
SECTION
  2
HEADER
  9
$ACADVER
  1
AC1009
  9
$INSBASE
 10
0.0
 20
0.0
 30
0.0
  9
$EXTMIN
 10
0.0
 20
-2.960436562073669
 30
0.0
  9
$EXTMAX
 10
231.22249939000011
 20
231.22249939000011
 30
0.0
  9
$LIMMIN
 10
0.0
 20
0.0
  9
$LIMMAX
 10
375.0
 20
270.0
  9
$ORTHOMODE
 70
     1
  9
$REGENMODE
 70
     1
  9
$FILLMODE
 70
     1
  9
$QTEXTMODE
 70
     0
  9
$MIRRTEXT
 70
     0
  9
$DRAGMODE
 70
     2
  9
$LTSCALE
 40
10.0
  9
$OSMODE
 70
    37
  9
$ATTMODE
 70
     1
  9
$TEXTSIZE
 40
0.2
  9
$TRACEWID
 40
0.05
  9
$TEXTSTYLE
  7
STANDARD
  9
$CLAYER
  8
0
  9
$CELTYPE
  6
BYLAYER
  9
$CECOLOR
 62
   256
  9
$DIMSCALE
 40
1.0
  9
$DIMASZ
 40
3.0
  9
$DIMEXO
 40
2.0
  9
$DIMDLI
 40
0.38
  9
$DIMRND
 40
0.0
  9
$DIMDLE
 40
0.0
  9
$DIMEXE
 40
2.0
  9
$DIMTP
 40
0.0
  9
$DIMTM
 40
0.0
  9
$DIMTXT
 40
3.2000000000000002
  9
$DIMCEN
 40
0.0
  9
$DIMTSZ
 40
0.0
  9
$DIMTOL
 70
     0
  9
$DIMLIM
 70
     0
  9
$DIMTIH
 70
     0
  9
$DIMTOH
 70
     0
  9
$DIMSE1
 70
     0
  9
$DIMSE2
 70
     0
  9
$DIMTAD
 70
     1
  9
$DIMZIN
 70
     0
  9
$DIMBLK
  1

  9
$DIMASO
 70
     0
  9
$DIMSHO
 70
     0
  9
$DIMPOST
  1

  9
$DIMAPOST
  1

  9
$DIMALT
 70
     0
  9
$DIMALTD
 70
     2
  9
$DIMALTF
 40
25.399999999999999
  9
$DIMLFAC
 40
1.0
  9
$DIMTOFL
 70
     0
  9
$DIMTVP
 40
1.6000000000000001
  9
$DIMTIX
 70
     1
  9
$DIMSOXD
 70
     0
  9
$DIMSAH
 70
     0
  9
$DIMBLK1
  1

  9
$DIMBLK2
  1

  9
$DIMSTYLE
  2
STANDARD
  9
$DIMCLRD
 70
     4
  9
$DIMCLRE
 70
     4
  9
$DIMCLRT
 70
     4
  9
$DIMTFAC
 40
1.0
  9
$DIMGAP
 40
0.09
  9
$LUNITS
 70
     2
  9
$LUPREC
 70
     1
  9
$SKETCHINC
 40
0.1
  9
$FILLETRAD
 40
0.0
  9
$AUNITS
 70
     0
  9
$AUPREC
 70
     1
  9
$MENU
  1
E:\r13\win\SUPPORT\ACAD
  9
$ELEVATION
 40
0.0
  9
$PELEVATION
 40
0.0
  9
$THICKNESS
 40
0.0
  9
$LIMCHECK
 70
     0
  9
$BLIPMODE
 70
     0
  9
$CHAMFERA
 40
0.0
  9
$CHAMFERB
 40
0.0
  9
$SKPOLY
 70
     0
  9
$TDCREATE
 40
2449840.6508564819
  9
$TDUPDATE
 40
2457968.4253069679
  9
$TDINDWG
 40
0.2869238426
  9
$TDUSRTIMER
 40
0.2869238426
  9
$USRTIMER
 70
     1
  9
$ANGBASE
 50
0.0
  9
$ANGDIR
 70
     0
  9
$PDMODE
 70
     0
  9
$PDSIZE
 40
0.0
  9
$PLINEWID
 40
0.0
  9
$COORDS
 70
     1
  9
$SPLFRAME
 70
     0
  9
$SPLINETYPE
 70
     6
  9
$SPLINESEGS
 70
     8
  9
$ATTDIA
 70
     0
  9
$ATTREQ
 70
     1
  9
$HANDLING
 70
     1
  9
$HANDSEED
  5
30A8
  9
$SURFTAB1
 70
     6
  9
$SURFTAB2
 70
     6
  9
$SURFTYPE
 70
     6
  9
$SURFU
 70
     6
  9
$SURFV
 70
     6
  9
$UCSNAME
  2

  9
$UCSORG
 10
0.0
 20
0.0
 30
0.0
  9
$UCSXDIR
 10
1.0
 20
0.0
 30
0.0
  9
$UCSYDIR
 10
0.0
 20
1.0
 30
0.0
  9
$PUCSNAME
  2

  9
$PUCSORG
 10
0.0
 20
0.0
 30
0.0
  9
$PUCSXDIR
 10
1.0
 20
0.0
 30
0.0
  9
$PUCSYDIR
 10
0.0
 20
1.0
 30
0.0
  9
$USERI1
 70
     0
  9
$USERI2
 70
     1
  9
$USERI3
 70
     1
  9
$USERI4
 70
     0
  9
$USERI5
 70
     0
  9
$USERR1
 40
0.0
  9
$USERR2
 40
0.0
  9
$USERR3
 40
0.0
  9
$USERR4
 40
0.0
  9
$USERR5
 40
0.0
  9
$WORLDVIEW
 70
     1
  9
$SHADEDGE
 70
     3
  9
$SHADEDIF
 70
    70
  9
$TILEMODE
 70
     1
  9
$MAXACTVP
 70
    16
  9
$PLIMCHECK
 70
     0
  9
$PEXTMIN
 10
1.0000000000000000E+020
 20
1.0000000000000000E+020
 30
1.0000000000000000E+020
  9
$PEXTMAX
 10
-1.0000000000000000E+020
 20
-1.0000000000000000E+020
 30
-1.0000000000000000E+020
  9
$PLIMMIN
 10
0.0
 20
0.0
  9
$PLIMMAX
 10
12.0
 20
9.0
  9
$UNITMODE
 70
     0
  9
$VISRETAIN
 70
     0
  9
$PLINEGEN
 70
     0
  9
$PSLTSCALE
 70
     0
  0
ENDSEC
  0
SECTION
  2
TABLES
  0
TABLE
  2
VPORT
 70
     1
  0
VPORT
  2
*ACTIVE
 70
     0
 10
0.0
 20
0.0
 11
1.0
 21
1.0
 12
272.4358974358974
 22
150.0
 13
0.0
 23
0.0
 14
10.0
 24
10.0
 15
10.0
 25
10.0
 16
0.0
 26
0.0
 36
1.0
 17
0.0
 27
0.0
 37
0.0
 40
300.0
 41
1.816239316239316
 42
50.0
 43
0.0
 44
0.0
 50
0.0
 51
0.0
 71
     0
 72
   500
 73
     1
 74
     0
 75
     0
 76
     0
 77
     0
 78
     2
  0
ENDTAB
  0
TABLE
  2
LTYPE
 70
     3
  0
LTYPE
  2
CONTINUOUS
 70
     0
  3
Solid Line
 72
    65
 73
     0
 40
0.0
  0
LTYPE
  2
CENTER
 70
     0
  3
____ _ ____ _ ____ _ ____ _ ____ _ ____ _ ____
 72
    65
 73
     4
 40
2.0
 49
1.25
 49
-0.25
 49
0.25
 49
-0.25
  0
LTYPE
  2
PHANTOM2
 70
     0
  3
___ _ _ ___ _ _ ___ _ _ ___ _ _
 72
    65
 73
     6
 40
1.25
 49
0.625
 49
-0.125
 49
0.125
 49
-0.125
 49
0.125
 49
-0.125
  0
ENDTAB
  0
TABLE
  2
LAYER
 70
     2
  0
LAYER
  2
0
 70
     0
 62
     7
  6
CONTINUOUS
  0
LAYER
  2
1
 70
     0
 62
     1
  6
CENTER
  0
ENDTAB
  0
TABLE
  2
STYLE
 70
     2
  0
STYLE
  2
STANDARD
 70
     0
 40
0.0
 41
1.0
 50
0.0
 71
     0
 42
0.2
  3
TXT
  4
BIGFONT
  0
STYLE
  2
STANDARD1
 70
     0
 40
0.0
 41
1.0
 50
0.0
 71
     0
 42
3.0
  3
txt
  4

  0
ENDTAB
  0
TABLE
  2
VIEW
 70
     1
  0
VIEW
  2
ALL
 70
     0
 40
270.0
 10
220.99159663865549
 20
135.0
 41
0.0
 11
0.0
 21
0.0
 31
1.0
 12
0.0
 22
0.0
 32
0.0
 42
0.0
 43
0.0
 44
0.0
 50
0.0
 71
     0
  0
ENDTAB
  0
TABLE
  2
UCS
 70
     0
  0
ENDTAB
  0
TABLE
  2
APPID
 70
    13
  0
APPID
  2
ACAD
 70
     0
  0
APPID
  2
GENIUS_GENODEF_13
 70
     0
  0
APPID
  2
GENIUS_GENOENT_13
 70
     0
  0
APPID
  2
GENIUS_GENOBJ_13
 70
     0
  0
APPID
  2
GENIUS_GENOLIS_13
 70
     0
  0
APPID
  2
GENIUS_GENOREF_13
 70
     0
  0
APPID
  2
GENIUS_GENOBJ-N-FIL_13
 70
     0
  0
APPID
  2
ACAD_MLEADERVER
 70
     0
  0
APPID
  2
ACAD_DSTYLE_DIMJAG
 70
     0
  0
APPID
  2
ACAD_DSTYLE_DIMTALN
 70
     0
  0
APPID
  2
ACAD_NAV_VCDISPLAY
 70
     0
  0
APPID
  2
ACAD_EXEMPT_FROM_CAD_STANDARDS
 70
     0
  0
APPID
  2
ACADANNOTATIVE
 70
     0
  0
ENDTAB
  0
TABLE
  2
DIMSTYLE
 70
     1
  0
DIMSTYLE
  2
STANDARD
 70
     0
  3

  4

  5

  6

  7

 40
1.0
 41
0.18
 42
0.0625
 43
0.38
 44
0.18
 45
0.0
 46
0.0
 47
0.0
 48
0.0
140
0.18
141
0.09
142
0.0
143
25.399999999999999
144
1.0
145
0.0
146
1.0
147
0.09
 71
     0
 72
     0
 73
     1
 74
     1
 75
     0
 76
     0
 77
     0
 78
     0
170
     0
171
     2
172
     0
173
     0
174
     0
175
     0
176
     0
177
     0
178
     0
  0
ENDTAB
  0
ENDSEC
  0
SECTION
  2
BLOCKS
  0
BLOCK
  8
0
  2
$MODEL_SPACE
 70
     0
 10
0.0
 20
0.0
 30
0.0
  3
$MODEL_SPACE
  1

  0
ENDBLK
  5
DC
  8
0
  0
BLOCK
 67
     1
  8
0
  2
$PAPER_SPACE
 70
     0
 10
0.0
 20
0.0
 30
0.0
  3
$PAPER_SPACE
  1

  0
ENDBLK
  5
DA
 67
     1
  8
0
  0
ENDSEC
  0
SECTION
  2
ENTITIES
  0
TEXT
  5
452
  8
0
 62
     3
 10
0.0
 20
0.0
 30
0.0
 40
10.0
  1
EBK8080
  7
STANDARD1
  0
LINE
  5
20E6
  8
0
 10
57.222499389999932
 20
73.999999999999972
 30
0.0
 11
56.722499389999939
 21
73.999999999999972
 31
0.0
  0
LINE
  5
20E7
  8
0
 10
56.722499389999939
 20
65.999999999999943
 30
0.0
 11
57.222499389999932
 21
65.999999999999943
 31
0.0
  0
LINE
  5
20E8
  8
0
 10
57.222499389999932
 20
113.9999999999999
 30
0.0
 11
56.722499389999939
 21
113.9999999999999
 31
0.0
  0
LINE
  5
20E9
  8
0
 10
56.722499389999939
 20
106.0
 30
0.0
 11
57.222499389999932
 21
106.0
 31
0.0
  0
LINE
  5
20EA
  8
0
 10
85.222499389999939
 20
133.99999999999989
 30
0.0
 11
85.222499389999939
 21
134.49999999999989
 31
0.0
  0
LINE
  5
20EB
  8
0
 10
77.222499390000053
 20
134.49999999999989
 30
0.0
 11
77.222499390000053
 21
133.99999999999989
 31
0.0
  0
LINE
  5
20EC
  8
0
 10
125.2224993899999
 20
133.99999999999989
 30
0.0
 11
125.2224993899999
 21
134.49999999999989
 31
0.0
  0
LINE
  5
20ED
  8
0
 10
117.2224993899999
 20
134.49999999999989
 30
0.0
 11
117.2224993899999
 21
133.99999999999989
 31
0.0
  0
LINE
  5
20EE
  8
0
 10
62.222499389999932
 20
49.999999999999957
 30
0.0
 11
61.222499389999939
 21
49.999999999999957
 31
0.0
  0
LINE
  5
20EF
  8
0
 10
61.222499389999939
 20
49.999999999999957
 30
0.0
 11
61.222499389999939
 21
128.99999999825741
 31
0.0
  0
ARC
  5
20F0
  8
0
 10
62.222499393692942
 20
128.99999999606911
 30
0.0
 40
1.0000000036929739
 50
134.99999999035589
 51
179.99999987461629
  0
LINE
  5
20F5
  8
0
 10
141.22249938999991
 20
128.99999999999989
 30
0.0
 11
62.222499389999932
 21
49.999999999999957
 31
0.0
  0
ARC
  5
20F6
  8
0
 10
62.22249939410483
 20
128.99999999588701
 30
0.0
 40
1.000000004112896
 50
90.000000117736505
 51
134.9999999996688
  0
LINE
  5
20F7
  8
0
 10
62.22249939204994
 20
129.99999999999989
 30
0.0
 11
141.22249938999991
 21
129.99999999999989
 31
0.0
  0
LINE
  5
20F8
  8
0
 10
141.22249938999991
 20
129.99999999999989
 30
0.0
 11
141.22249939
 21
129.0
 31
0.0
  0
POLYLINE
  5
20FB
  8
0
 10
53.599024155579094
 20
63.395837611685224
 30
0.0
 66
     1
 70
     8
  0
VERTEX
  8
0
  5
2478
 10
53.5990
 20
63.3958
 30
0.000000
  70
    32
  0
VERTEX
  8
0
  5
2479
 10
53.6166
 20
63.3650
 30
0.000000
  70
    32
  0
VERTEX
  8
0
  5
247A
 10
53.6343
 20
63.3343
 30
0.000000
  70
    32
  0
VERTEX
  8
0
  5
247B
 10
53.6522
 20
63.3039
 30
0.000000
  70
    32
  0
VERTEX
  8
0
  5
247C
 10
53.6702
 20
63.2735
 30
0.000000
  70
    32
  0
VERTEX
  8
0
  5
247D
 10
53.6884
 20
63.2434
 30
0.000000
  70
    32
  0
VERTEX
  8
0
  5
247E
 10
53.7067
 20
63.2135
 30
0.000000
  70
    32
  0
VERTEX
  8
0
  5
247F
 10
53.7252
 20
63.1837
 30
0.000000
  70
    32
  0
VERTEX
  8
0
  5
2480
 10
53.7438
 20
63.1541
 30
0.000000
  70
    32
  0
VERTEX
  8
0
  5
2481
 10
53.7626
 20
63.1247
 30
0.000000
  70
    32
  0
VERTEX
  8
0
  5
2482
 10
53.7815
 20
63.0955
 30
0.000000
  70
    32
  0
VERTEX
  8
0
  5
2483
 10
53.8005
 20
63.0665
 30
0.000000
  70
    32
  0
VERTEX
  8
0
  5
2484
 10
53.8197
 20
63.0377
 30
0.000000
  70
    32
  0
VERTEX
  8
0
  5
2485
 10
53.8390
 20
63.0090
 30
0.000000
  70
    32
  0
VERTEX
  8
0
  5
2486
 10
53.8585
 20
62.9806
 30
0.000000
  70
    32
  0
VERTEX
  8
0
  5
2487
 10
53.8781
 20
62.9523
 30
0.000000
  70
    32
  0
VERTEX
  8
0
  5
2488
 10
53.8979
 20
62.9243
 30
0.000000
  70
    32
  0
VERTEX
  8
0
  5
2489
 10
53.9178
 20
62.8964
 30
0.000000
  70
    32
  0
VERTEX
  8
0
  5
248A
 10
53.9378
 20
62.8687
 30
0.000000
  70
    32
  0
VERTEX
  8
0
  5
248B
 10
53.9580
 20
62.8412
 30
0.000000
  70
    32
  0
VERTEX
  8
0
  5
248C
 10
53.9783
 20
62.8140
 30
0.000000
  70
    32
  0
VERTEX
  8
0
  5
248D
 10
53.9987
 20
62.7869
 30
0.000000
  70
    32
  0
VERTEX
  8
0
  5
248E
 10
54.0193
 20
62.7600
 30
0.000000
  70
    32
  0
VERTEX
  8
0
  5
248F
 10
54.0400
 20
62.7334
 30
0.000000
  70
    32
  0
VERTEX
  8
0
  5
2490
 10
54.0609
 20
62.7069
 30
0.000000
  70
    32
  0
VERTEX
  8
0
  5
2491
 10
54.0818
 20
62.6807
 30
0.000000
  70
    32
  0
VERTEX
  8
0
  5
2492
 10
54.1029
 20
62.6547
 30
0.000000
  70
    32
  0
VERTEX
  8
0
  5
2493
 10
54.1241
 20
62.6288
 30
0.000000
  70
    32
  0
VERTEX
  8
0
  5
2494
 10
54.1455
 20
62.6032
 30
0.000000
  70
    32
  0
VERTEX
  8
0
  5
2495
 10
54.1670
 20
62.5778
 30
0.000000
  70
    32
  0
VERTEX
  8
0
  5
2496
 10
54.1886
 20
62.5526
 30
0.000000
  70
    32
  0
VERTEX
  8
0
  5
2497
 10
54.2103
 20
62.5276
 30
0.000000
  70
    32
  0
VERTEX
  8
0
  5
2498
 10
54.2322
 20
62.5029
 30
0.000000
  70
    32
  0
VERTEX
  8
0
  5
2499
 10
54.2541
 20
62.4783
 30
0.000000
  70
    32
  0
VERTEX
  8
0
  5
249A
 10
54.2762
 20
62.4540
 30
0.000000
  70
    32
  0
VERTEX
  8
0
  5
249B
 10
54.2984
 20
62.4299
 30
0.000000
  70
    32
  0
VERTEX
  8
0
  5
249C
 10
54.3208
 20
62.4060
 30
0.000000
  70
    32
  0
VERTEX
  8
0
  5
249D
 10
54.3432
 20
62.3823
 30
0.000000
  70
    32
  0
VERTEX
  8
0
  5
249E
 10
54.3658
 20
62.3589
 30
0.000000
  70
    32
  0
VERTEX
  8
0
  5
249F
 10
54.3885
 20
62.3357
 30
0.000000
  70
    32
  0
VERTEX
  8
0
  5
24A0
 10
54.4113
 20
62.3127
 30
0.000000
  70
    32
  0
VERTEX
  8
0
  5
24A1
 10
54.4342
 20
62.2899
 30
0.000000
  70
    32
  0
VERTEX
  8
0
  5
24A2
 10
54.4572
 20
62.2674
 30
0.000000
  70
    32
  0
VERTEX
  8
0
  5
24A3
 10
54.4803
 20
62.2450
 30
0.000000
  70
    32
  0
VERTEX
  8
0
  5
24A4
 10
54.5036
 20
62.2230
 30
0.000000
  70
    32
  0
VERTEX
  8
0
  5
24A5
 10
54.5269
 20
62.2011
 30
0.000000
  70
    32
  0
VERTEX
  8
0
  5
24A6
 10
54.5504
 20
62.1795
 30
0.000000
  70
    32
  0
VERTEX
  8
0
  5
24A7
 10
54.5740
 20
62.1581
 30
0.000000
  70
    32
  0
VERTEX
  8
0
  5
24A8
 10
54.5976
 20
62.1370
 30
0.000000
  70
    32
  0
VERTEX
  8
0
  5
24A9
 10
54.6214
 20
62.1160
 30
0.000000
  70
    32
  0
VERTEX
  8
0
  5
24AA
 10
54.6453
 20
62.0954
 30
0.000000
  70
    32
  0
VERTEX
  8
0
  5
24AB
 10
54.6693
 20
62.0749
 30
0.000000
  70
    32
  0
VERTEX
  8
0
  5
24AC
 10
54.6934
 20
62.0547
 30
0.000000
  70
    32
  0
VERTEX
  8
0
  5
24AD
 10
54.7175
 20
62.0347
 30
0.000000
  70
    32
  0
VERTEX
  8
0
  5
24AE
 10
54.7418
 20
62.0150
 30
0.000000
  70
    32
  0
VERTEX
  8
0
  5
24AF
 10
54.7662
 20
61.9955
 30
0.000000
  70
    32
  0
VERTEX
  8
0
  5
24B0
 10
54.7907
 20
61.9763
 30
0.000000
  70
    32
  0
VERTEX
  8
0
  5
24B1
 10
54.8152
 20
61.9573
 30
0.000000
  70
    32
  0
VERTEX
  8
0
  5
24B2
 10
54.8399
 20
61.9385
 30
0.000000
  70
    32
  0
VERTEX
  8
0
  5
24B3
 10
54.8646
 20
61.9200
 30
0.000000
  70
    32
  0
VERTEX
  8
0
  5
24B4
 10
54.8895
 20
61.9017
 30
0.000000
  70
    32
  0
VERTEX
  8
0
  5
24B5
 10
54.9144
 20
61.8837
 30
0.000000
  70
    32
  0
VERTEX
  8
0
  5
24B6
 10
54.9394
 20
61.8659
 30
0.000000
  70
    32
  0
VERTEX
  8
0
  5
24B7
 10
54.9645
 20
61.8484
 30
0.000000
  70
    32
  0
VERTEX
  8
0
  5
24B8
 10
54.9897
 20
61.8311
 30
0.000000
  70
    32
  0
VERTEX
  8
0
  5
24B9
 10
55.0150
 20
61.8141
 30
0.000000
  70
    32
  0
VERTEX
  8
0
  5
24BA
 10
55.0404
 20
61.7973
 30
0.000000
  70
    32
  0
VERTEX
  8
0
  5
24BB
 10
55.0658
 20
61.7808
 30
0.000000
  70
    32
  0
VERTEX
  8
0
  5
24BC
 10
55.0914
 20
61.7645
 30
0.000000
  70
    32
  0
VERTEX
  8
0
  5
24BD
 10
55.1170
 20
61.7485
 30
0.000000
  70
    32
  0
VERTEX
  8
0
  5
24BE
 10
55.1427
 20
61.7327
 30
0.000000
  70
    32
  0
VERTEX
  8
0
  5
24BF
 10
55.1684
 20
61.7172
 30
0.000000
  70
    32
  0
VERTEX
  8
0
  5
24C0
 10
55.1943
 20
61.7019
 30
0.000000
  70
    32
  0
VERTEX
  8
0
  5
24C1
 10
55.2202
 20
61.6869
 30
0.000000
  70
    32
  0
VERTEX
  8
0
  5
24C2
 10
55.2462
 20
61.6722
 30
0.000000
  70
    32
  0
VERTEX
  8
0
  5
24C3
 10
55.2722
 20
61.6577
 30
0.000000
  70
    32
  0
VERTEX
  8
0
  5
24C4
 10
55.2984
 20
61.6435
 30
0.000000
  70
    32
  0
VERTEX
  8
0
  5
24C5
 10
55.3246
 20
61.6295
 30
0.000000
  70
    32
  0
VERTEX
  8
0
  5
24C6
 10
55.3508
 20
61.6158
 30
0.000000
  70
    32
  0
VERTEX
  8
0
  5
24C7
 10
55.3772
 20
61.6023
 30
0.000000
  70
    32
  0
VERTEX
  8
0
  5
24C8
 10
55.4036
 20
61.5892
 30
0.000000
  70
    32
  0
VERTEX
  8
0
  5
24C9
 10
55.4300
 20
61.5762
 30
0.000000
  70
    32
  0
VERTEX
  8
0
  5
24CA
 10
55.4566
 20
61.5636
 30
0.000000
  70
    32
  0
VERTEX
  8
0
  5
24CB
 10
55.4832
 20
61.5512
 30
0.000000
  70
    32
  0
VERTEX
  8
0
  5
24CC
 10
55.5098
 20
61.5390
 30
0.000000
  70
    32
  0
VERTEX
  8
0
  5
24CD
 10
55.5365
 20
61.5272
 30
0.000000
  70
    32
  0
VERTEX
  8
0
  5
24CE
 10
55.5633
 20
61.5155
 30
0.000000
  70
    32
  0
VERTEX
  8
0
  5
24CF
 10
55.5901
 20
61.5042
 30
0.000000
  70
    32
  0
VERTEX
  8
0
  5
24D0
 10
55.6170
 20
61.4931
 30
0.000000
  70
    32
  0
VERTEX
  8
0
  5
24D1
 10
55.6439
 20
61.4823
 30
0.000000
  70
    32
  0
VERTEX
  8
0
  5
24D2
 10
55.6709
 20
61.4718
 30
0.000000
  70
    32
  0
VERTEX
  8
0
  5
24D3
 10
55.6980
 20
61.4615
 30
0.000000
  70
    32
  0
VERTEX
  8
0
  5
24D4
 10
55.7251
 20
61.4515
 30
0.000000
  70
    32
  0
VERTEX
  8
0
  5
24D5
 10
55.7522
 20
61.4417
 30
0.000000
  70
    32
  0
VERTEX
  8
0
  5
24D6
 10
55.7794
 20
61.4323
 30
0.000000
  70
    32
  0
VERTEX
  8
0
  5
24D7
 10
55.8066
 20
61.4231
 30
0.000000
  70
    32
  0
VERTEX
  8
0
  5
24D8
 10
55.8339
 20
61.4141
 30
0.000000
  70
    32
  0
VERTEX
  8
0
  5
24D9
 10
55.8612
 20
61.4055
 30
0.000000
  70
    32
  0
VERTEX
  8
0
  5
24DA
 10
55.8886
 20
61.3971
 30
0.000000
  70
    32
  0
VERTEX
  8
0
  5
24DB
 10
55.9160
 20
61.3890
 30
0.000000
  70
    32
  0
VERTEX
  8
0
  5
24DC
 10
55.9435
 20
61.3811
 30
0.000000
  70
    32
  0
VERTEX
  8
0
  5
24DD
 10
55.9709
 20
61.3735
 30
0.000000
  70
    32
  0
VERTEX
  8
0
  5
24DE
 10
55.9985
 20
61.3662
 30
0.000000
  70
    32
  0
VERTEX
  8
0
  5
24DF
 10
56.0260
 20
61.3592
 30
0.000000
  70
    32
  0
VERTEX
  8
0
  5
24E0
 10
56.0536
 20
61.3524
 30
0.000000
  70
    32
  0
VERTEX
  8
0
  5
24E1
 10
56.0812
 20
61.3460
 30
0.000000
  70
    32
  0
VERTEX
  8
0
  5
24E2
 10
56.1089
 20
61.3397
 30
0.000000
  70
    32
  0
VERTEX
  8
0
  5
24E3
 10
56.1366
 20
61.3338
 30
0.000000
  70
    32
  0
VERTEX
  8
0
  5
24E4
 10
56.1643
 20
61.3281
 30
0.000000
  70
    32
  0
VERTEX
  8
0
  5
24E5
 10
56.1920
 20
61.3228
 30
0.000000
  70
    32
  0
VERTEX
  8
0
  5
24E6
 10
56.2198
 20
61.3176
 30
0.000000
  70
    32
  0
VERTEX
  8
0
  5
24E7
 10
56.2476
 20
61.3128
 30
0.000000
  70
    32
  0
VERTEX
  8
0
  5
24E8
 10
56.2754
 20
61.3082
 30
0.000000
  70
    32
  0
VERTEX
  8
0
  5
24E9
 10
56.3032
 20
61.3040
 30
0.000000
  70
    32
  0
VERTEX
  8
0
  5
24EA
 10
56.3311
 20
61.2999
 30
0.000000
  70
    32
  0
VERTEX
  8
0
  5
24EB
 10
56.3590
 20
61.2962
 30
0.000000
  70
    32
  0
VERTEX
  8
0
  5
24EC
 10
56.3869
 20
61.2927
 30
0.000000
  70
    32
  0
VERTEX
  8
0
  5
24ED
 10
56.4148
 20
61.2896
 30
0.000000
  70
    32
  0
VERTEX
  8
0
  5
24EE
 10
56.4427
 20
61.2866
 30
0.000000
  70
    32
  0
VERTEX
  8
0
  5
24EF
 10
56.4707
 20
61.2840
 30
0.000000
  70
    32
  0
VERTEX
  8
0
  5
24F0
 10
56.4986
 20
61.2817
 30
0.000000
  70
    32
  0
VERTEX
  8
0
  5
24F1
 10
56.5266
 20
61.2796
 30
0.000000
  70
    32
  0
VERTEX
  8
0
  5
24F2
 10
56.5545
 20
61.2778
 30
0.000000
  70
    32
  0
VERTEX
  8
0
  5
24F3
 10
56.5825
 20
61.2763
 30
0.000000
  70
    32
  0
VERTEX
  8
0
  5
24F4
 10
56.6105
 20
61.2750
 30
0.000000
  70
    32
  0
VERTEX
  8
0
  5
24F5
 10
56.6385
 20
61.2740
 30
0.000000
  70
    32
  0
VERTEX
  8
0
  5
24F6
 10
56.6665
 20
61.2733
 30
0.000000
  70
    32
  0
VERTEX
  8
0
  5
24F7
 10
56.6945
 20
61.2729
 30
0.000000
  70
    32
  0
VERTEX
  8
0
  5
24F8
 10
56.7225
 20
61.2728
 30
0.000000
  70
    32
  0
SEQEND
  8
0
  5
24F9
  0
POLYLINE
  5
20FD
  8
0
 10
53.599024155579094
 20
55.394409076685179
 30
0.0
 66
     1
 70
     8
  0
VERTEX
  8
0
  5
24FA
 10
53.5990
 20
55.3944
 30
0.000000
  70
    32
  0
VERTEX
  8
0
  5
24FB
 10
53.6166
 20
55.3636
 30
0.000000
  70
    32
  0
VERTEX
  8
0
  5
24FC
 10
53.6343
 20
55.3329
 30
0.000000
  70
    32
  0
VERTEX
  8
0
  5
24FD
 10
53.6522
 20
55.3024
 30
0.000000
  70
    32
  0
VERTEX
  8
0
  5
24FE
 10
53.6702
 20
55.2721
 30
0.000000
  70
    32
  0
VERTEX
  8
0
  5
24FF
 10
53.6884
 20
55.2420
 30
0.000000
  70
    32
  0
VERTEX
  8
0
  5
2500
 10
53.7067
 20
55.2120
 30
0.000000
  70
    32
  0
VERTEX
  8
0
  5
2501
 10
53.7252
 20
55.1823
 30
0.000000
  70
    32
  0
VERTEX
  8
0
  5
2502
 10
53.7438
 20
55.1527
 30
0.000000
  70
    32
  0
VERTEX
  8
0
  5
2503
 10
53.7626
 20
55.1233
 30
0.000000
  70
    32
  0
VERTEX
  8
0
  5
2504
 10
53.7815
 20
55.0941
 30
0.000000
  70
    32
  0
VERTEX
  8
0
  5
2505
 10
53.8005
 20
55.0651
 30
0.000000
  70
    32
  0
VERTEX
  8
0
  5
2506
 10
53.8197
 20
55.0362
 30
0.000000
  70
    32
  0
VERTEX
  8
0
  5
2507
 10
53.8390
 20
55.0076
 30
0.000000
  70
    32
  0
VERTEX
  8
0
  5
2508
 10
53.8585
 20
54.9791
 30
0.000000
  70
    32
  0
VERTEX
  8
0
  5
2509
 10
53.8781
 20
54.9509
 30
0.000000
  70
    32
  0
VERTEX
  8
0
  5
250A
 10
53.8979
 20
54.9228
 30
0.000000
  70
    32
  0
VERTEX
  8
0
  5
250B
 10
53.9178
 20
54.8950
 30
0.000000
  70
    32
  0
VERTEX
  8
0
  5
250C
 10
53.9378
 20
54.8673
 30
0.000000
  70
    32
  0
VERTEX
  8
0
  5
250D
 10
53.9580
 20
54.8398
 30
0.000000
  70
    32
  0
VERTEX
  8
0
  5
250E
 10
53.9783
 20
54.8126
 30
0.000000
  70
    32
  0
VERTEX
  8
0
  5
250F
 10
53.9987
 20
54.7855
 30
0.000000
  70
    32
  0
VERTEX
  8
0
  5
2510
 10
54.0193
 20
54.7586
 30
0.000000
  70
    32
  0
VERTEX
  8
0
  5
2511
 10
54.0400
 20
54.7320
 30
0.000000
  70
    32
  0
VERTEX
  8
0
  5
2512
 10
54.0609
 20
54.7055
 30
0.000000
  70
    32
  0
VERTEX
  8
0
  5
2513
 10
54.0818
 20
54.6793
 30
0.000000
  70
    32
  0
VERTEX
  8
0
  5
2514
 10
54.1029
 20
54.6532
 30
0.000000
  70
    32
  0
VERTEX
  8
0
  5
2515
 10
54.1241
 20
54.6274
 30
0.000000
  70
    32
  0
VERTEX
  8
0
  5
2516
 10
54.1455
 20
54.6018
 30
0.000000
  70
    32
  0
VERTEX
  8
0
  5
2517
 10
54.1670
 20
54.5764
 30
0.000000
  70
    32
  0
VERTEX
  8
0
  5
2518
 10
54.1886
 20
54.5512
 30
0.000000
  70
    32
  0
VERTEX
  8
0
  5
2519
 10
54.2103
 20
54.5262
 30
0.000000
  70
    32
  0
VERTEX
  8
0
  5
251A
 10
54.2322
 20
54.5014
 30
0.000000
  70
    32
  0
VERTEX
  8
0
  5
251B
 10
54.2541
 20
54.4769
 30
0.000000
  70
    32
  0
VERTEX
  8
0
  5
251C
 10
54.2762
 20
54.4526
 30
0.000000
  70
    32
  0
VERTEX
  8
0
  5
251D
 10
54.2984
 20
54.4285
 30
0.000000
  70
    32
  0
VERTEX
  8
0
  5
251E
 10
54.3208
 20
54.4046
 30
0.000000
  70
    32
  0
VERTEX
  8
0
  5
251F
 10
54.3432
 20
54.3809
 30
0.000000
  70
    32
  0
VERTEX
  8
0
  5
2520
 10
54.3658
 20
54.3575
 30
0.000000
  70
    32
  0
VERTEX
  8
0
  5
2521
 10
54.3885
 20
54.3342
 30
0.000000
  70
    32
  0
VERTEX
  8
0
  5
2522
 10
54.4113
 20
54.3112
 30
0.000000
  70
    32
  0
VERTEX
  8
0
  5
2523
 10
54.4342
 20
54.2885
 30
0.000000
  70
    32
  0
VERTEX
  8
0
  5
2524
 10
54.4572
 20
54.2659
 30
0.000000
  70
    32
  0
VERTEX
  8
0
  5
2525
 10
54.4803
 20
54.2436
 30
0.000000
  70
    32
  0
VERTEX
  8
0
  5
2526
 10
54.5036
 20
54.2215
 30
0.000000
  70
    32
  0
VERTEX
  8
0
  5
2527
 10
54.5269
 20
54.1997
 30
0.000000
  70
    32
  0
VERTEX
  8
0
  5
2528
 10
54.5504
 20
54.1781
 30
0.000000
  70
    32
  0
VERTEX
  8
0
  5
2529
 10
54.5740
 20
54.1567
 30
0.000000
  70
    32
  0
VERTEX
  8
0
  5
252A
 10
54.5976
 20
54.1355
 30
0.000000
  70
    32
  0
VERTEX
  8
0
  5
252B
 10
54.6214
 20
54.1146
 30
0.000000
  70
    32
  0
VERTEX
  8
0
  5
252C
 10
54.6453
 20
54.0939
 30
0.000000
  70
    32
  0
VERTEX
  8
0
  5
252D
 10
54.6693
 20
54.0735
 30
0.000000
  70
    32
  0
VERTEX
  8
0
  5
252E
 10
54.6934
 20
54.0533
 30
0.000000
  70
    32
  0
VERTEX
  8
0
  5
252F
 10
54.7175
 20
54.0333
 30
0.000000
  70
    32
  0
VERTEX
  8
0
  5
2530
 10
54.7418
 20
54.0136
 30
0.000000
  70
    32
  0
VERTEX
  8
0
  5
2531
 10
54.7662
 20
53.9941
 30
0.000000
  70
    32
  0
VERTEX
  8
0
  5
2532
 10
54.7907
 20
53.9748
 30
0.000000
  70
    32
  0
VERTEX
  8
0
  5
2533
 10
54.8152
 20
53.9558
 30
0.000000
  70
    32
  0
VERTEX
  8
0
  5
2534
 10
54.8399
 20
53.9371
 30
0.000000
  70
    32
  0
VERTEX
  8
0
  5
2535
 10
54.8646
 20
53.9186
 30
0.000000
  70
    32
  0
VERTEX
  8
0
  5
2536
 10
54.8895
 20
53.9003
 30
0.000000
  70
    32
  0
VERTEX
  8
0
  5
2537
 10
54.9144
 20
53.8823
 30
0.000000
  70
    32
  0
VERTEX
  8
0
  5
2538
 10
54.9394
 20
53.8645
 30
0.000000
  70
    32
  0
VERTEX
  8
0
  5
2539
 10
54.9645
 20
53.8470
 30
0.000000
  70
    32
  0
VERTEX
  8
0
  5
253A
 10
54.9897
 20
53.8297
 30
0.000000
  70
    32
  0
VERTEX
  8
0
  5
253B
 10
55.0150
 20
53.8126
 30
0.000000
  70
    32
  0
VERTEX
  8
0
  5
253C
 10
55.0404
 20
53.7959
 30
0.000000
  70
    32
  0
VERTEX
  8
0
  5
253D
 10
55.0658
 20
53.7793
 30
0.000000
  70
    32
  0
VERTEX
  8
0
  5
253E
 10
55.0914
 20
53.7631
 30
0.000000
  70
    32
  0
VERTEX
  8
0
  5
253F
 10
55.1170
 20
53.7470
 30
0.000000
  70
    32
  0
VERTEX
  8
0
  5
2540
 10
55.1427
 20
53.7313
 30
0.000000
  70
    32
  0
VERTEX
  8
0
  5
2541
 10
55.1684
 20
53.7158
 30
0.000000
  70
    32
  0
VERTEX
  8
0
  5
2542
 10
55.1943
 20
53.7005
 30
0.000000
  70
    32
  0
VERTEX
  8
0
  5
2543
 10
55.2202
 20
53.6855
 30
0.000000
  70
    32
  0
VERTEX
  8
0
  5
2544
 10
55.2462
 20
53.6708
 30
0.000000
  70
    32
  0
VERTEX
  8
0
  5
2545
 10
55.2722
 20
53.6563
 30
0.000000
  70
    32
  0
VERTEX
  8
0
  5
2546
 10
55.2984
 20
53.6420
 30
0.000000
  70
    32
  0
VERTEX
  8
0
  5
2547
 10
55.3246
 20
53.6281
 30
0.000000
  70
    32
  0
VERTEX
  8
0
  5
2548
 10
55.3508
 20
53.6144
 30
0.000000
  70
    32
  0
VERTEX
  8
0
  5
2549
 10
55.3772
 20
53.6009
 30
0.000000
  70
    32
  0
VERTEX
  8
0
  5
254A
 10
55.4036
 20
53.5877
 30
0.000000
  70
    32
  0
VERTEX
  8
0
  5
254B
 10
55.4300
 20
53.5748
 30
0.000000
  70
    32
  0
VERTEX
  8
0
  5
254C
 10
55.4566
 20
53.5621
 30
0.000000
  70
    32
  0
VERTEX
  8
0
  5
254D
 10
55.4832
 20
53.5497
 30
0.000000
  70
    32
  0
VERTEX
  8
0
  5
254E
 10
55.5098
 20
53.5376
 30
0.000000
  70
    32
  0
VERTEX
  8
0
  5
254F
 10
55.5365
 20
53.5257
 30
0.000000
  70
    32
  0
VERTEX
  8
0
  5
2550
 10
55.5633
 20
53.5141
 30
0.000000
  70
    32
  0
VERTEX
  8
0
  5
2551
 10
55.5901
 20
53.5028
 30
0.000000
  70
    32
  0
VERTEX
  8
0
  5
2552
 10
55.6170
 20
53.4917
 30
0.000000
  70
    32
  0
VERTEX
  8
0
  5
2553
 10
55.6439
 20
53.4809
 30
0.000000
  70
    32
  0
VERTEX
  8
0
  5
2554
 10
55.6709
 20
53.4703
 30
0.000000
  70
    32
  0
VERTEX
  8
0
  5
2555
 10
55.6980
 20
53.4601
 30
0.000000
  70
    32
  0
VERTEX
  8
0
  5
2556
 10
55.7251
 20
53.4501
 30
0.000000
  70
    32
  0
VERTEX
  8
0
  5
2557
 10
55.7522
 20
53.4403
 30
0.000000
  70
    32
  0
VERTEX
  8
0
  5
2558
 10
55.7794
 20
53.4308
 30
0.000000
  70
    32
  0
VERTEX
  8
0
  5
2559
 10
55.8066
 20
53.4216
 30
0.000000
  70
    32
  0
VERTEX
  8
0
  5
255A
 10
55.8339
 20
53.4127
 30
0.000000
  70
    32
  0
VERTEX
  8
0
  5
255B
 10
55.8612
 20
53.4040
 30
0.000000
  70
    32
  0
VERTEX
  8
0
  5
255C
 10
55.8886
 20
53.3957
 30
0.000000
  70
    32
  0
VERTEX
  8
0
  5
255D
 10
55.9160
 20
53.3875
 30
0.000000
  70
    32
  0
VERTEX
  8
0
  5
255E
 10
55.9435
 20
53.3797
 30
0.000000
  70
    32
  0
VERTEX
  8
0
  5
255F
 10
55.9709
 20
53.3721
 30
0.000000
  70
    32
  0
VERTEX
  8
0
  5
2560
 10
55.9985
 20
53.3648
 30
0.000000
  70
    32
  0
VERTEX
  8
0
  5
2561
 10
56.0260
 20
53.3578
 30
0.000000
  70
    32
  0
VERTEX
  8
0
  5
2562
 10
56.0536
 20
53.3510
 30
0.000000
  70
    32
  0
VERTEX
  8
0
  5
2563
 10
56.0812
 20
53.3445
 30
0.000000
  70
    32
  0
VERTEX
  8
0
  5
2564
 10
56.1089
 20
53.3383
 30
0.000000
  70
    32
  0
VERTEX
  8
0
  5
2565
 10
56.1366
 20
53.3324
 30
0.000000
  70
    32
  0
VERTEX
  8
0
  5
2566
 10
56.1643
 20
53.3267
 30
0.000000
  70
    32
  0
VERTEX
  8
0
  5
2567
 10
56.1920
 20
53.3213
 30
0.000000
  70
    32
  0
VERTEX
  8
0
  5
2568
 10
56.2198
 20
53.3162
 30
0.000000
  70
    32
  0
VERTEX
  8
0
  5
2569
 10
56.2476
 20
53.3114
 30
0.000000
  70
    32
  0
VERTEX
  8
0
  5
256A
 10
56.2754
 20
53.3068
 30
0.000000
  70
    32
  0
VERTEX
  8
0
  5
256B
 10
56.3032
 20
53.3025
 30
0.000000
  70
    32
  0
VERTEX
  8
0
  5
256C
 10
56.3311
 20
53.2985
 30
0.000000
  70
    32
  0
VERTEX
  8
0
  5
256D
 10
56.3590
 20
53.2948
 30
0.000000
  70
    32
  0
VERTEX
  8
0
  5
256E
 10
56.3869
 20
53.2913
 30
0.000000
  70
    32
  0
VERTEX
  8
0
  5
256F
 10
56.4148
 20
53.2881
 30
0.000000
  70
    32
  0
VERTEX
  8
0
  5
2570
 10
56.4427
 20
53.2852
 30
0.000000
  70
    32
  0
VERTEX
  8
0
  5
2571
 10
56.4707
 20
53.2826
 30
0.000000
  70
    32
  0
VERTEX
  8
0
  5
2572
 10
56.4986
 20
53.2802
 30
0.000000
  70
    32
  0
VERTEX
  8
0
  5
2573
 10
56.5266
 20
53.2782
 30
0.000000
  70
    32
  0
VERTEX
  8
0
  5
2574
 10
56.5545
 20
53.2764
 30
0.000000
  70
    32
  0
VERTEX
  8
0
  5
2575
 10
56.5825
 20
53.2748
 30
0.000000
  70
    32
  0
VERTEX
  8
0
  5
2576
 10
56.6105
 20
53.2736
 30
0.000000
  70
    32
  0
VERTEX
  8
0
  5
2577
 10
56.6385
 20
53.2726
 30
0.000000
  70
    32
  0
VERTEX
  8
0
  5
2578
 10
56.6665
 20
53.2719
 30
0.000000
  70
    32
  0
VERTEX
  8
0
  5
2579
 10
56.6945
 20
53.2715
 30
0.000000
  70
    32
  0
VERTEX
  8
0
  5
257A
 10
56.7225
 20
53.2714
 30
0.000000
  70
    32
  0
SEQEND
  8
0
  5
257B
  0
LINE
  5
20FF
  8
0
 10
51.75304951858606
 20
66.659090560353235
 30
0.0
 11
53.599024155579059
 21
63.395837611685259
 31
0.0
  0
LINE
  5
2100
  8
0
 10
51.753049518586181
 20
58.657662025353112
 30
0.0
 11
53.599024155579059
 21
55.394409076685228
 31
0.0
  0
POLYLINE
  5
2102
  8
0
 10
49.999999999999915
 20
73.726708205175939
 30
0.0
 66
     1
 70
     8
  0
VERTEX
  8
0
  5
257C
 10
50.0000
 20
73.7267
 30
0.000000
  70
    32
  0
VERTEX
  8
0
  5
257D
 10
50.0001
 20
73.6671
 30
0.000000
  70
    32
  0
VERTEX
  8
0
  5
257E
 10
50.0004
 20
73.6074
 30
0.000000
  70
    32
  0
VERTEX
  8
0
  5
257F
 10
50.0010
 20
73.5478
 30
0.000000
  70
    32
  0
VERTEX
  8
0
  5
2580
 10
50.0018
 20
73.4882
 30
0.000000
  70
    32
  0
VERTEX
  8
0
  5
2581
 10
50.0028
 20
73.4285
 30
0.000000
  70
    32
  0
VERTEX
  8
0
  5
2582
 10
50.0040
 20
73.3689
 30
0.000000
  70
    32
  0
VERTEX
  8
0
  5
2583
 10
50.0054
 20
73.3093
 30
0.000000
  70
    32
  0
VERTEX
  8
0
  5
2584
 10
50.0071
 20
73.2497
 30
0.000000
  70
    32
  0
VERTEX
  8
0
  5
2585
 10
50.0090
 20
73.1902
 30
0.000000
  70
    32
  0
VERTEX
  8
0
  5
2586
 10
50.0111
 20
73.1306
 30
0.000000
  70
    32
  0
VERTEX
  8
0
  5
2587
 10
50.0134
 20
73.0710
 30
0.000000
  70
    32
  0
VERTEX
  8
0
  5
2588
 10
50.0160
 20
73.0115
 30
0.000000
  70
    32
  0
VERTEX
  8
0
  5
2589
 10
50.0188
 20
72.9520
 30
0.000000
  70
    32
  0
VERTEX
  8
0
  5
258A
 10
50.0218
 20
72.8925
 30
0.000000
  70
    32
  0
VERTEX
  8
0
  5
258B
 10
50.0250
 20
72.8331
 30
0.000000
  70
    32
  0
VERTEX
  8
0
  5
258C
 10
50.0284
 20
72.7736
 30
0.000000
  70
    32
  0
VERTEX
  8
0
  5
258D
 10
50.0321
 20
72.7142
 30
0.000000
  70
    32
  0
VERTEX
  8
0
  5
258E
 10
50.0360
 20
72.6548
 30
0.000000
  70
    32
  0
VERTEX
  8
0
  5
258F
 10
50.0401
 20
72.5955
 30
0.000000
  70
    32
  0
VERTEX
  8
0
  5
2590
 10
50.0444
 20
72.5361
 30
0.000000
  70
    32
  0
VERTEX
  8
0
  5
2591
 10
50.0490
 20
72.4768
 30
0.000000
  70
    32
  0
VERTEX
  8
0
  5
2592
 10
50.0537
 20
72.4176
 30
0.000000
  70
    32
  0
VERTEX
  8
0
  5
2593
 10
50.0587
 20
72.3584
 30
0.000000
  70
    32
  0
VERTEX
  8
0
  5
2594
 10
50.0639
 20
72.2992
 30
0.000000
  70
    32
  0
VERTEX
  8
0
  5
2595
 10
50.0694
 20
72.2400
 30
0.000000
  70
    32
  0
VERTEX
  8
0
  5
2596
 10
50.0750
 20
72.1809
 30
0.000000
  70
    32
  0
VERTEX
  8
0
  5
2597
 10
50.0809
 20
72.1219
 30
0.000000
  70
    32
  0
VERTEX
  8
0
  5
2598
 10
50.0870
 20
72.0629
 30
0.000000
  70
    32
  0
VERTEX
  8
0
  5
2599
 10
50.0933
 20
72.0039
 30
0.000000
  70
    32
  0
VERTEX
  8
0
  5
259A
 10
50.0998
 20
71.9450
 30
0.000000
  70
    32
  0
VERTEX
  8
0
  5
259B
 10
50.1066
 20
71.8861
 30
0.000000
  70
    32
  0
VERTEX
  8
0
  5
259C
 10
50.1135
 20
71.8273
 30
0.000000
  70
    32
  0
VERTEX
  8
0
  5
259D
 10
50.1207
 20
71.7685
 30
0.000000
  70
    32
  0
VERTEX
  8
0
  5
259E
 10
50.1281
 20
71.7098
 30
0.000000
  70
    32
  0
VERTEX
  8
0
  5
259F
 10
50.1358
 20
71.6512
 30
0.000000
  70
    32
  0
VERTEX
  8
0
  5
25A0
 10
50.1436
 20
71.5926
 30
0.000000
  70
    32
  0
VERTEX
  8
0
  5
25A1
 10
50.1517
 20
71.5340
 30
0.000000
  70
    32
  0
VERTEX
  8
0
  5
25A2
 10
50.1600
 20
71.4755
 30
0.000000
  70
    32
  0
VERTEX
  8
0
  5
25A3
 10
50.1685
 20
71.4171
 30
0.000000
  70
    32
  0
VERTEX
  8
0
  5
25A4
 10
50.1772
 20
71.3588
 30
0.000000
  70
    32
  0
VERTEX
  8
0
  5
25A5
 10
50.1861
 20
71.3005
 30
0.000000
  70
    32
  0
VERTEX
  8
0
  5
25A6
 10
50.1953
 20
71.2423
 30
0.000000
  70
    32
  0
VERTEX
  8
0
  5
25A7
 10
50.2046
 20
71.1841
 30
0.000000
  70
    32
  0
VERTEX
  8
0
  5
25A8
 10
50.2142
 20
71.1260
 30
0.000000
  70
    32
  0
VERTEX
  8
0
  5
25A9
 10
50.2240
 20
71.0680
 30
0.000000
  70
    32
  0
VERTEX
  8
0
  5
25AA
 10
50.2340
 20
71.0101
 30
0.000000
  70
    32
  0
VERTEX
  8
0
  5
25AB
 10
50.2443
 20
70.9523
 30
0.000000
  70
    32
  0
VERTEX
  8
0
  5
25AC
 10
50.2547
 20
70.8945
 30
0.000000
  70
    32
  0
VERTEX
  8
0
  5
25AD
 10
50.2654
 20
70.8368
 30
0.000000
  70
    32
  0
VERTEX
  8
0
  5
25AE
 10
50.2763
 20
70.7792
 30
0.000000
  70
    32
  0
VERTEX
  8
0
  5
25AF
 10
50.2874
 20
70.7216
 30
0.000000
  70
    32
  0
VERTEX
  8
0
  5
25B0
 10
50.2987
 20
70.6642
 30
0.000000
  70
    32
  0
VERTEX
  8
0
  5
25B1
 10
50.3102
 20
70.6068
 30
0.000000
  70
    32
  0
VERTEX
  8
0
  5
25B2
 10
50.3219
 20
70.5495
 30
0.000000
  70
    32
  0
VERTEX
  8
0
  5
25B3
 10
50.3339
 20
70.4923
 30
0.000000
  70
    32
  0
VERTEX
  8
0
  5
25B4
 10
50.3460
 20
70.4352
 30
0.000000
  70
    32
  0
VERTEX
  8
0
  5
25B5
 10
50.3584
 20
70.3782
 30
0.000000
  70
    32
  0
VERTEX
  8
0
  5
25B6
 10
50.3710
 20
70.3213
 30
0.000000
  70
    32
  0
VERTEX
  8
0
  5
25B7
 10
50.3838
 20
70.2644
 30
0.000000
  70
    32
  0
VERTEX
  8
0
  5
25B8
 10
50.3968
 20
70.2077
 30
0.000000
  70
    32
  0
VERTEX
  8
0
  5
25B9
 10
50.4100
 20
70.1511
 30
0.000000
  70
    32
  0
VERTEX
  8
0
  5
25BA
 10
50.4235
 20
70.0946
 30
0.000000
  70
    32
  0
VERTEX
  8
0
  5
25BB
 10
50.4371
 20
70.0381
 30
0.000000
  70
    32
  0
VERTEX
  8
0
  5
25BC
 10
50.4510
 20
69.9818
 30
0.000000
  70
    32
  0
VERTEX
  8
0
  5
25BD
 10
50.4650
 20
69.9256
 30
0.000000
  70
    32
  0
VERTEX
  8
0
  5
25BE
 10
50.4793
 20
69.8694
 30
0.000000
  70
    32
  0
VERTEX
  8
0
  5
25BF
 10
50.4938
 20
69.8134
 30
0.000000
  70
    32
  0
VERTEX
  8
0
  5
25C0
 10
50.5085
 20
69.7575
 30
0.000000
  70
    32
  0
VERTEX
  8
0
  5
25C1
 10
50.5234
 20
69.7017
 30
0.000000
  70
    32
  0
VERTEX
  8
0
  5
25C2
 10
50.5385
 20
69.6461
 30
0.000000
  70
    32
  0
VERTEX
  8
0
  5
25C3
 10
50.5538
 20
69.5905
 30
0.000000
  70
    32
  0
VERTEX
  8
0
  5
25C4
 10
50.5693
 20
69.5350
 30
0.000000
  70
    32
  0
VERTEX
  8
0
  5
25C5
 10
50.5851
 20
69.4797
 30
0.000000
  70
    32
  0
VERTEX
  8
0
  5
25C6
 10
50.6010
 20
69.4245
 30
0.000000
  70
    32
  0
VERTEX
  8
0
  5
25C7
 10
50.6171
 20
69.3694
 30
0.000000
  70
    32
  0
VERTEX
  8
0
  5
25C8
 10
50.6335
 20
69.3144
 30
0.000000
  70
    32
  0
VERTEX
  8
0
  5
25C9
 10
50.6500
 20
69.2595
 30
0.000000
  70
    32
  0
VERTEX
  8
0
  5
25CA
 10
50.6668
 20
69.2048
 30
0.000000
  70
    32
  0
VERTEX
  8
0
  5
25CB
 10
50.6837
 20
69.1502
 30
0.000000
  70
    32
  0
VERTEX
  8
0
  5
25CC
 10
50.7009
 20
69.0957
 30
0.000000
  70
    32
  0
VERTEX
  8
0
  5
25CD
 10
50.7183
 20
69.0414
 30
0.000000
  70
    32
  0
VERTEX
  8
0
  5
25CE
 10
50.7358
 20
68.9872
 30
0.000000
  70
    32
  0
VERTEX
  8
0
  5
25CF
 10
50.7536
 20
68.9331
 30
0.000000
  70
    32
  0
VERTEX
  8
0
  5
25D0
 10
50.7716
 20
68.8791
 30
0.000000
  70
    32
  0
VERTEX
  8
0
  5
25D1
 10
50.7897
 20
68.8253
 30
0.000000
  70
    32
  0
VERTEX
  8
0
  5
25D2
 10
50.8081
 20
68.7716
 30
0.000000
  70
    32
  0
VERTEX
  8
0
  5
25D3
 10
50.8267
 20
68.7181
 30
0.000000
  70
    32
  0
VERTEX
  8
0
  5
25D4
 10
50.8454
 20
68.6647
 30
0.000000
  70
    32
  0
VERTEX
  8
0
  5
25D5
 10
50.8644
 20
68.6114
 30
0.000000
  70
    32
  0
VERTEX
  8
0
  5
25D6
 10
50.8836
 20
68.5583
 30
0.000000
  70
    32
  0
VERTEX
  8
0
  5
25D7
 10
50.9029
 20
68.5053
 30
0.000000
  70
    32
  0
VERTEX
  8
0
  5
25D8
 10
50.9225
 20
68.4525
 30
0.000000
  70
    32
  0
VERTEX
  8
0
  5
25D9
 10
50.9422
 20
68.3998
 30
0.000000
  70
    32
  0
VERTEX
  8
0
  5
25DA
 10
50.9622
 20
68.3472
 30
0.000000
  70
    32
  0
VERTEX
  8
0
  5
25DB
 10
50.9823
 20
68.2948
 30
0.000000
  70
    32
  0
VERTEX
  8
0
  5
25DC
 10
51.0027
 20
68.2426
 30
0.000000
  70
    32
  0
VERTEX
  8
0
  5
25DD
 10
51.0232
 20
68.1905
 30
0.000000
  70
    32
  0
VERTEX
  8
0
  5
25DE
 10
51.0440
 20
68.1386
 30
0.000000
  70
    32
  0
VERTEX
  8
0
  5
25DF
 10
51.0649
 20
68.0868
 30
0.000000
  70
    32
  0
VERTEX
  8
0
  5
25E0
 10
51.0860
 20
68.0352
 30
0.000000
  70
    32
  0
VERTEX
  8
0
  5
25E1
 10
51.1073
 20
67.9837
 30
0.000000
  70
    32
  0
VERTEX
  8
0
  5
25E2
 10
51.1288
 20
67.9324
 30
0.000000
  70
    32
  0
VERTEX
  8
0
  5
25E3
 10
51.1505
 20
67.8813
 30
0.000000
  70
    32
  0
VERTEX
  8
0
  5
25E4
 10
51.1724
 20
67.8303
 30
0.000000
  70
    32
  0
VERTEX
  8
0
  5
25E5
 10
51.1945
 20
67.7795
 30
0.000000
  70
    32
  0
VERTEX
  8
0
  5
25E6
 10
51.2167
 20
67.7288
 30
0.000000
  70
    32
  0
VERTEX
  8
0
  5
25E7
 10
51.2392
 20
67.6783
 30
0.000000
  70
    32
  0
VERTEX
  8
0
  5
25E8
 10
51.2618
 20
67.6280
 30
0.000000
  70
    32
  0
VERTEX
  8
0
  5
25E9
 10
51.2847
 20
67.5779
 30
0.000000
  70
    32
  0
VERTEX
  8
0
  5
25EA
 10
51.3077
 20
67.5279
 30
0.000000
  70
    32
  0
VERTEX
  8
0
  5
25EB
 10
51.3309
 20
67.4781
 30
0.000000
  70
    32
  0
VERTEX
  8
0
  5
25EC
 10
51.3542
 20
67.4285
 30
0.000000
  70
    32
  0
VERTEX
  8
0
  5
25ED
 10
51.3778
 20
67.3790
 30
0.000000
  70
    32
  0
VERTEX
  8
0
  5
25EE
 10
51.4016
 20
67.3297
 30
0.000000
  70
    32
  0
VERTEX
  8
0
  5
25EF
 10
51.4255
 20
67.2806
 30
0.000000
  70
    32
  0
VERTEX
  8
0
  5
25F0
 10
51.4496
 20
67.2317
 30
0.000000
  70
    32
  0
VERTEX
  8
0
  5
25F1
 10
51.4739
 20
67.1830
 30
0.000000
  70
    32
  0
VERTEX
  8
0
  5
25F2
 10
51.4984
 20
67.1344
 30
0.000000
  70
    32
  0
VERTEX
  8
0
  5
25F3
 10
51.5231
 20
67.0860
 30
0.000000
  70
    32
  0
VERTEX
  8
0
  5
25F4
 10
51.5479
 20
67.0378
 30
0.000000
  70
    32
  0
VERTEX
  8
0
  5
25F5
 10
51.5729
 20
66.9898
 30
0.000000
  70
    32
  0
VERTEX
  8
0
  5
25F6
 10
51.5981
 20
66.9420
 30
0.000000
  70
    32
  0
VERTEX
  8
0
  5
25F7
 10
51.6235
 20
66.8944
 30
0.000000
  70
    32
  0
VERTEX
  8
0
  5
25F8
 10
51.6491
 20
66.8469
 30
0.000000
  70
    32
  0
VERTEX
  8
0
  5
25F9
 10
51.6748
 20
66.7997
 30
0.000000
  70
    32
  0
VERTEX
  8
0
  5
25FA
 10
51.7007
 20
66.7526
 30
0.000000
  70
    32
  0
VERTEX
  8
0
  5
25FB
 10
51.7268
 20
66.7058
 30
0.000000
  70
    32
  0
VERTEX
  8
0
  5
25FC
 10
51.7530
 20
66.6591
 30
0.000000
  70
    32
  0
SEQEND
  8
0
  5
25FD
  0
POLYLINE
  5
2103
  8
0
 10
49.999999999999915
 20
65.725279670175908
 30
0.0
 66
     1
 70
     8
  0
VERTEX
  8
0
  5
25FE
 10
50.0000
 20
65.7253
 30
0.000000
  70
    32
  0
VERTEX
  8
0
  5
25FF
 10
50.0001
 20
65.6656
 30
0.000000
  70
    32
  0
VERTEX
  8
0
  5
2600
 10
50.0004
 20
65.6060
 30
0.000000
  70
    32
  0
VERTEX
  8
0
  5
2601
 10
50.0010
 20
65.5464
 30
0.000000
  70
    32
  0
VERTEX
  8
0
  5
2602
 10
50.0018
 20
65.4867
 30
0.000000
  70
    32
  0
VERTEX
  8
0
  5
2603
 10
50.0028
 20
65.4271
 30
0.000000
  70
    32
  0
VERTEX
  8
0
  5
2604
 10
50.0040
 20
65.3675
 30
0.000000
  70
    32
  0
VERTEX
  8
0
  5
2605
 10
50.0054
 20
65.3079
 30
0.000000
  70
    32
  0
VERTEX
  8
0
  5
2606
 10
50.0071
 20
65.2483
 30
0.000000
  70
    32
  0
VERTEX
  8
0
  5
2607
 10
50.0090
 20
65.1887
 30
0.000000
  70
    32
  0
VERTEX
  8
0
  5
2608
 10
50.0111
 20
65.1292
 30
0.000000
  70
    32
  0
VERTEX
  8
0
  5
2609
 10
50.0134
 20
65.0696
 30
0.000000
  70
    32
  0
VERTEX
  8
0
  5
260A
 10
50.0160
 20
65.0101
 30
0.000000
  70
    32
  0
VERTEX
  8
0
  5
260B
 10
50.0188
 20
64.9506
 30
0.000000
  70
    32
  0
VERTEX
  8
0
  5
260C
 10
50.0218
 20
64.8911
 30
0.000000
  70
    32
  0
VERTEX
  8
0
  5
260D
 10
50.0250
 20
64.8316
 30
0.000000
  70
    32
  0
VERTEX
  8
0
  5
260E
 10
50.0284
 20
64.7722
 30
0.000000
  70
    32
  0
VERTEX
  8
0
  5
260F
 10
50.0321
 20
64.7128
 30
0.000000
  70
    32
  0
VERTEX
  8
0
  5
2610
 10
50.0360
 20
64.6534
 30
0.000000
  70
    32
  0
VERTEX
  8
0
  5
2611
 10
50.0401
 20
64.5940
 30
0.000000
  70
    32
  0
VERTEX
  8
0
  5
2612
 10
50.0444
 20
64.5347
 30
0.000000
  70
    32
  0
VERTEX
  8
0
  5
2613
 10
50.0490
 20
64.4754
 30
0.000000
  70
    32
  0
VERTEX
  8
0
  5
2614
 10
50.0537
 20
64.4162
 30
0.000000
  70
    32
  0
VERTEX
  8
0
  5
2615
 10
50.0587
 20
64.3569
 30
0.000000
  70
    32
  0
VERTEX
  8
0
  5
2616
 10
50.0639
 20
64.2978
 30
0.000000
  70
    32
  0
VERTEX
  8
0
  5
2617
 10
50.0694
 20
64.2386
 30
0.000000
  70
    32
  0
VERTEX
  8
0
  5
2618
 10
50.0750
 20
64.1795
 30
0.000000
  70
    32
  0
VERTEX
  8
0
  5
2619
 10
50.0809
 20
64.1205
 30
0.000000
  70
    32
  0
VERTEX
  8
0
  5
261A
 10
50.0870
 20
64.0614
 30
0.000000
  70
    32
  0
VERTEX
  8
0
  5
261B
 10
50.0933
 20
64.0025
 30
0.000000
  70
    32
  0
VERTEX
  8
0
  5
261C
 10
50.0998
 20
63.9436
 30
0.000000
  70
    32
  0
VERTEX
  8
0
  5
261D
 10
50.1066
 20
63.8847
 30
0.000000
  70
    32
  0
VERTEX
  8
0
  5
261E
 10
50.1135
 20
63.8259
 30
0.000000
  70
    32
  0
VERTEX
  8
0
  5
261F
 10
50.1207
 20
63.7671
 30
0.000000
  70
    32
  0
VERTEX
  8
0
  5
2620
 10
50.1281
 20
63.7084
 30
0.000000
  70
    32
  0
VERTEX
  8
0
  5
2621
 10
50.1358
 20
63.6497
 30
0.000000
  70
    32
  0
VERTEX
  8
0
  5
2622
 10
50.1436
 20
63.5911
 30
0.000000
  70
    32
  0
VERTEX
  8
0
  5
2623
 10
50.1517
 20
63.5326
 30
0.000000
  70
    32
  0
VERTEX
  8
0
  5
2624
 10
50.1600
 20
63.4741
 30
0.000000
  70
    32
  0
VERTEX
  8
0
  5
2625
 10
50.1685
 20
63.4157
 30
0.000000
  70
    32
  0
VERTEX
  8
0
  5
2626
 10
50.1772
 20
63.3573
 30
0.000000
  70
    32
  0
VERTEX
  8
0
  5
2627
 10
50.1861
 20
63.2991
 30
0.000000
  70
    32
  0
VERTEX
  8
0
  5
2628
 10
50.1953
 20
63.2408
 30
0.000000
  70
    32
  0
VERTEX
  8
0
  5
2629
 10
50.2046
 20
63.1827
 30
0.000000
  70
    32
  0
VERTEX
  8
0
  5
262A
 10
50.2142
 20
63.1246
 30
0.000000
  70
    32
  0
VERTEX
  8
0
  5
262B
 10
50.2240
 20
63.0666
 30
0.000000
  70
    32
  0
VERTEX
  8
0
  5
262C
 10
50.2340
 20
63.0087
 30
0.000000
  70
    32
  0
VERTEX
  8
0
  5
262D
 10
50.2443
 20
62.9508
 30
0.000000
  70
    32
  0
VERTEX
  8
0
  5
262E
 10
50.2547
 20
62.8930
 30
0.000000
  70
    32
  0
VERTEX
  8
0
  5
262F
 10
50.2654
 20
62.8353
 30
0.000000
  70
    32
  0
VERTEX
  8
0
  5
2630
 10
50.2763
 20
62.7777
 30
0.000000
  70
    32
  0
VERTEX
  8
0
  5
2631
 10
50.2874
 20
62.7202
 30
0.000000
  70
    32
  0
VERTEX
  8
0
  5
2632
 10
50.2987
 20
62.6627
 30
0.000000
  70
    32
  0
VERTEX
  8
0
  5
2633
 10
50.3102
 20
62.6054
 30
0.000000
  70
    32
  0
VERTEX
  8
0
  5
2634
 10
50.3219
 20
62.5481
 30
0.000000
  70
    32
  0
VERTEX
  8
0
  5
2635
 10
50.3339
 20
62.4909
 30
0.000000
  70
    32
  0
VERTEX
  8
0
  5
2636
 10
50.3460
 20
62.4338
 30
0.000000
  70
    32
  0
VERTEX
  8
0
  5
2637
 10
50.3584
 20
62.3768
 30
0.000000
  70
    32
  0
VERTEX
  8
0
  5
2638
 10
50.3710
 20
62.3198
 30
0.000000
  70
    32
  0
VERTEX
  8
0
  5
2639
 10
50.3838
 20
62.2630
 30
0.000000
  70
    32
  0
VERTEX
  8
0
  5
263A
 10
50.3968
 20
62.2063
 30
0.000000
  70
    32
  0
VERTEX
  8
0
  5
263B
 10
50.4100
 20
62.1497
 30
0.000000
  70
    32
  0
VERTEX
  8
0
  5
263C
 10
50.4235
 20
62.0931
 30
0.000000
  70
    32
  0
VERTEX
  8
0
  5
263D
 10
50.4371
 20
62.0367
 30
0.000000
  70
    32
  0
VERTEX
  8
0
  5
263E
 10
50.4510
 20
61.9804
 30
0.000000
  70
    32
  0
VERTEX
  8
0
  5
263F
 10
50.4650
 20
61.9241
 30
0.000000
  70
    32
  0
VERTEX
  8
0
  5
2640
 10
50.4793
 20
61.8680
 30
0.000000
  70
    32
  0
VERTEX
  8
0
  5
2641
 10
50.4938
 20
61.8120
 30
0.000000
  70
    32
  0
VERTEX
  8
0
  5
2642
 10
50.5085
 20
61.7561
 30
0.000000
  70
    32
  0
VERTEX
  8
0
  5
2643
 10
50.5234
 20
61.7003
 30
0.000000
  70
    32
  0
VERTEX
  8
0
  5
2644
 10
50.5385
 20
61.6446
 30
0.000000
  70
    32
  0
VERTEX
  8
0
  5
2645
 10
50.5538
 20
61.5891
 30
0.000000
  70
    32
  0
VERTEX
  8
0
  5
2646
 10
50.5693
 20
61.5336
 30
0.000000
  70
    32
  0
VERTEX
  8
0
  5
2647
 10
50.5851
 20
61.4783
 30
0.000000
  70
    32
  0
VERTEX
  8
0
  5
2648
 10
50.6010
 20
61.4231
 30
0.000000
  70
    32
  0
VERTEX
  8
0
  5
2649
 10
50.6171
 20
61.3680
 30
0.000000
  70
    32
  0
VERTEX
  8
0
  5
264A
 10
50.6335
 20
61.3130
 30
0.000000
  70
    32
  0
VERTEX
  8
0
  5
264B
 10
50.6500
 20
61.2581
 30
0.000000
  70
    32
  0
VERTEX
  8
0
  5
264C
 10
50.6668
 20
61.2034
 30
0.000000
  70
    32
  0
VERTEX
  8
0
  5
264D
 10
50.6837
 20
61.1488
 30
0.000000
  70
    32
  0
VERTEX
  8
0
  5
264E
 10
50.7009
 20
61.0943
 30
0.000000
  70
    32
  0
VERTEX
  8
0
  5
264F
 10
50.7183
 20
61.0400
 30
0.000000
  70
    32
  0
VERTEX
  8
0
  5
2650
 10
50.7358
 20
60.9857
 30
0.000000
  70
    32
  0
VERTEX
  8
0
  5
2651
 10
50.7536
 20
60.9316
 30
0.000000
  70
    32
  0
VERTEX
  8
0
  5
2652
 10
50.7716
 20
60.8777
 30
0.000000
  70
    32
  0
VERTEX
  8
0
  5
2653
 10
50.7897
 20
60.8239
 30
0.000000
  70
    32
  0
VERTEX
  8
0
  5
2654
 10
50.8081
 20
60.7702
 30
0.000000
  70
    32
  0
VERTEX
  8
0
  5
2655
 10
50.8267
 20
60.7166
 30
0.000000
  70
    32
  0
VERTEX
  8
0
  5
2656
 10
50.8454
 20
60.6632
 30
0.000000
  70
    32
  0
VERTEX
  8
0
  5
2657
 10
50.8644
 20
60.6100
 30
0.000000
  70
    32
  0
VERTEX
  8
0
  5
2658
 10
50.8836
 20
60.5568
 30
0.000000
  70
    32
  0
VERTEX
  8
0
  5
2659
 10
50.9029
 20
60.5039
 30
0.000000
  70
    32
  0
VERTEX
  8
0
  5
265A
 10
50.9225
 20
60.4510
 30
0.000000
  70
    32
  0
VERTEX
  8
0
  5
265B
 10
50.9422
 20
60.3983
 30
0.000000
  70
    32
  0
VERTEX
  8
0
  5
265C
 10
50.9622
 20
60.3458
 30
0.000000
  70
    32
  0
VERTEX
  8
0
  5
265D
 10
50.9823
 20
60.2934
 30
0.000000
  70
    32
  0
VERTEX
  8
0
  5
265E
 10
51.0027
 20
60.2412
 30
0.000000
  70
    32
  0
VERTEX
  8
0
  5
265F
 10
51.0232
 20
60.1891
 30
0.000000
  70
    32
  0
VERTEX
  8
0
  5
2660
 10
51.0440
 20
60.1372
 30
0.000000
  70
    32
  0
VERTEX
  8
0
  5
2661
 10
51.0649
 20
60.0854
 30
0.000000
  70
    32
  0
VERTEX
  8
0
  5
2662
 10
51.0860
 20
60.0338
 30
0.000000
  70
    32
  0
VERTEX
  8
0
  5
2663
 10
51.1073
 20
59.9823
 30
0.000000
  70
    32
  0
VERTEX
  8
0
  5
2664
 10
51.1288
 20
59.9310
 30
0.000000
  70
    32
  0
VERTEX
  8
0
  5
2665
 10
51.1505
 20
59.8798
 30
0.000000
  70
    32
  0
VERTEX
  8
0
  5
2666
 10
51.1724
 20
59.8289
 30
0.000000
  70
    32
  0
VERTEX
  8
0
  5
2667
 10
51.1945
 20
59.7780
 30
0.000000
  70
    32
  0
VERTEX
  8
0
  5
2668
 10
51.2167
 20
59.7274
 30
0.000000
  70
    32
  0
VERTEX
  8
0
  5
2669
 10
51.2392
 20
59.6769
 30
0.000000
  70
    32
  0
VERTEX
  8
0
  5
266A
 10
51.2618
 20
59.6266
 30
0.000000
  70
    32
  0
VERTEX
  8
0
  5
266B
 10
51.2847
 20
59.5764
 30
0.000000
  70
    32
  0
VERTEX
  8
0
  5
266C
 10
51.3077
 20
59.5265
 30
0.000000
  70
    32
  0
VERTEX
  8
0
  5
266D
 10
51.3309
 20
59.4767
 30
0.000000
  70
    32
  0
VERTEX
  8
0
  5
266E
 10
51.3542
 20
59.4270
 30
0.000000
  70
    32
  0
VERTEX
  8
0
  5
266F
 10
51.3778
 20
59.3776
 30
0.000000
  70
    32
  0
VERTEX
  8
0
  5
2670
 10
51.4016
 20
59.3283
 30
0.000000
  70
    32
  0
VERTEX
  8
0
  5
2671
 10
51.4255
 20
59.2792
 30
0.000000
  70
    32
  0
VERTEX
  8
0
  5
2672
 10
51.4496
 20
59.2303
 30
0.000000
  70
    32
  0
VERTEX
  8
0
  5
2673
 10
51.4739
 20
59.1815
 30
0.000000
  70
    32
  0
VERTEX
  8
0
  5
2674
 10
51.4984
 20
59.1330
 30
0.000000
  70
    32
  0
VERTEX
  8
0
  5
2675
 10
51.5231
 20
59.0846
 30
0.000000
  70
    32
  0
VERTEX
  8
0
  5
2676
 10
51.5479
 20
59.0364
 30
0.000000
  70
    32
  0
VERTEX
  8
0
  5
2677
 10
51.5729
 20
58.9884
 30
0.000000
  70
    32
  0
VERTEX
  8
0
  5
2678
 10
51.5981
 20
58.9406
 30
0.000000
  70
    32
  0
VERTEX
  8
0
  5
2679
 10
51.6235
 20
58.8929
 30
0.000000
  70
    32
  0
VERTEX
  8
0
  5
267A
 10
51.6491
 20
58.8455
 30
0.000000
  70
    32
  0
VERTEX
  8
0
  5
267B
 10
51.6748
 20
58.7983
 30
0.000000
  70
    32
  0
VERTEX
  8
0
  5
267C
 10
51.7007
 20
58.7512
 30
0.000000
  70
    32
  0
VERTEX
  8
0
  5
267D
 10
51.7268
 20
58.7043
 30
0.000000
  70
    32
  0
VERTEX
  8
0
  5
267E
 10
51.7530
 20
58.6577
 30
0.000000
  70
    32
  0
SEQEND
  8
0
  5
267F
  0
LINE
  5
2104
  8
0
 10
49.999999999999893
 20
65.725279670175894
 30
0.0
 11
50.0
 21
74.274720290642421
 31
0.0
  0
POLYLINE
  5
2105
  8
0
 10
51.753049535888358
 20
81.342338005231781
 30
0.0
 66
     1
 70
     8
  0
VERTEX
  8
0
  5
2680
 10
51.7530
 20
81.3423
 30
0.000000
  70
    32
  0
VERTEX
  8
0
  5
2681
 10
51.7268
 20
81.2957
 30
0.000000
  70
    32
  0
VERTEX
  8
0
  5
2682
 10
51.7007
 20
81.2488
 30
0.000000
  70
    32
  0
VERTEX
  8
0
  5
2683
 10
51.6748
 20
81.2017
 30
0.000000
  70
    32
  0
VERTEX
  8
0
  5
2684
 10
51.6491
 20
81.1545
 30
0.000000
  70
    32
  0
VERTEX
  8
0
  5
2685
 10
51.6235
 20
81.1071
 30
0.000000
  70
    32
  0
VERTEX
  8
0
  5
2686
 10
51.5981
 20
81.0594
 30
0.000000
  70
    32
  0
VERTEX
  8
0
  5
2687
 10
51.5729
 20
81.0116
 30
0.000000
  70
    32
  0
VERTEX
  8
0
  5
2688
 10
51.5479
 20
80.9636
 30
0.000000
  70
    32
  0
VERTEX
  8
0
  5
2689
 10
51.5231
 20
80.9154
 30
0.000000
  70
    32
  0
VERTEX
  8
0
  5
268A
 10
51.4984
 20
80.8670
 30
0.000000
  70
    32
  0
VERTEX
  8
0
  5
268B
 10
51.4739
 20
80.8185
 30
0.000000
  70
    32
  0
VERTEX
  8
0
  5
268C
 10
51.4496
 20
80.7697
 30
0.000000
  70
    32
  0
VERTEX
  8
0
  5
268D
 10
51.4255
 20
80.7208
 30
0.000000
  70
    32
  0
VERTEX
  8
0
  5
268E
 10
51.4016
 20
80.6717
 30
0.000000
  70
    32
  0
VERTEX
  8
0
  5
268F
 10
51.3778
 20
80.6224
 30
0.000000
  70
    32
  0
VERTEX
  8
0
  5
2690
 10
51.3542
 20
80.5730
 30
0.000000
  70
    32
  0
VERTEX
  8
0
  5
2691
 10
51.3309
 20
80.5233
 30
0.000000
  70
    32
  0
VERTEX
  8
0
  5
2692
 10
51.3077
 20
80.4735
 30
0.000000
  70
    32
  0
VERTEX
  8
0
  5
2693
 10
51.2847
 20
80.4236
 30
0.000000
  70
    32
  0
VERTEX
  8
0
  5
2694
 10
51.2618
 20
80.3734
 30
0.000000
  70
    32
  0
VERTEX
  8
0
  5
2695
 10
51.2392
 20
80.3231
 30
0.000000
  70
    32
  0
VERTEX
  8
0
  5
2696
 10
51.2167
 20
80.2726
 30
0.000000
  70
    32
  0
VERTEX
  8
0
  5
2697
 10
51.1945
 20
80.2220
 30
0.000000
  70
    32
  0
VERTEX
  8
0
  5
2698
 10
51.1724
 20
80.1711
 30
0.000000
  70
    32
  0
VERTEX
  8
0
  5
2699
 10
51.1505
 20
80.1202
 30
0.000000
  70
    32
  0
VERTEX
  8
0
  5
269A
 10
51.1288
 20
80.0690
 30
0.000000
  70
    32
  0
VERTEX
  8
0
  5
269B
 10
51.1073
 20
80.0177
 30
0.000000
  70
    32
  0
VERTEX
  8
0
  5
269C
 10
51.0860
 20
79.9662
 30
0.000000
  70
    32
  0
VERTEX
  8
0
  5
269D
 10
51.0649
 20
79.9146
 30
0.000000
  70
    32
  0
VERTEX
  8
0
  5
269E
 10
51.0440
 20
79.8628
 30
0.000000
  70
    32
  0
VERTEX
  8
0
  5
269F
 10
51.0232
 20
79.8109
 30
0.000000
  70
    32
  0
VERTEX
  8
0
  5
26A0
 10
51.0027
 20
79.7588
 30
0.000000
  70
    32
  0
VERTEX
  8
0
  5
26A1
 10
50.9823
 20
79.7066
 30
0.000000
  70
    32
  0
VERTEX
  8
0
  5
26A2
 10
50.9622
 20
79.6542
 30
0.000000
  70
    32
  0
VERTEX
  8
0
  5
26A3
 10
50.9422
 20
79.6017
 30
0.000000
  70
    32
  0
VERTEX
  8
0
  5
26A4
 10
50.9225
 20
79.5490
 30
0.000000
  70
    32
  0
VERTEX
  8
0
  5
26A5
 10
50.9029
 20
79.4961
 30
0.000000
  70
    32
  0
VERTEX
  8
0
  5
26A6
 10
50.8836
 20
79.4432
 30
0.000000
  70
    32
  0
VERTEX
  8
0
  5
26A7
 10
50.8644
 20
79.3900
 30
0.000000
  70
    32
  0
VERTEX
  8
0
  5
26A8
 10
50.8454
 20
79.3368
 30
0.000000
  70
    32
  0
VERTEX
  8
0
  5
26A9
 10
50.8267
 20
79.2834
 30
0.000000
  70
    32
  0
VERTEX
  8
0
  5
26AA
 10
50.8081
 20
79.2298
 30
0.000000
  70
    32
  0
VERTEX
  8
0
  5
26AB
 10
50.7897
 20
79.1761
 30
0.000000
  70
    32
  0
VERTEX
  8
0
  5
26AC
 10
50.7716
 20
79.1223
 30
0.000000
  70
    32
  0
VERTEX
  8
0
  5
26AD
 10
50.7536
 20
79.0684
 30
0.000000
  70
    32
  0
VERTEX
  8
0
  5
26AE
 10
50.7358
 20
79.0143
 30
0.000000
  70
    32
  0
VERTEX
  8
0
  5
26AF
 10
50.7183
 20
78.9600
 30
0.000000
  70
    32
  0
VERTEX
  8
0
  5
26B0
 10
50.7009
 20
78.9057
 30
0.000000
  70
    32
  0
VERTEX
  8
0
  5
26B1
 10
50.6837
 20
78.8512
 30
0.000000
  70
    32
  0
VERTEX
  8
0
  5
26B2
 10
50.6668
 20
78.7966
 30
0.000000
  70
    32
  0
VERTEX
  8
0
  5
26B3
 10
50.6500
 20
78.7419
 30
0.000000
  70
    32
  0
VERTEX
  8
0
  5
26B4
 10
50.6335
 20
78.6870
 30
0.000000
  70
    32
  0
VERTEX
  8
0
  5
26B5
 10
50.6171
 20
78.6320
 30
0.000000
  70
    32
  0
VERTEX
  8
0
  5
26B6
 10
50.6010
 20
78.5769
 30
0.000000
  70
    32
  0
VERTEX
  8
0
  5
26B7
 10
50.5851
 20
78.5217
 30
0.000000
  70
    32
  0
VERTEX
  8
0
  5
26B8
 10
50.5693
 20
78.4664
 30
0.000000
  70
    32
  0
VERTEX
  8
0
  5
26B9
 10
50.5538
 20
78.4109
 30
0.000000
  70
    32
  0
VERTEX
  8
0
  5
26BA
 10
50.5385
 20
78.3554
 30
0.000000
  70
    32
  0
VERTEX
  8
0
  5
26BB
 10
50.5234
 20
78.2997
 30
0.000000
  70
    32
  0
VERTEX
  8
0
  5
26BC
 10
50.5085
 20
78.2439
 30
0.000000
  70
    32
  0
VERTEX
  8
0
  5
26BD
 10
50.4938
 20
78.1880
 30
0.000000
  70
    32
  0
VERTEX
  8
0
  5
26BE
 10
50.4793
 20
78.1320
 30
0.000000
  70
    32
  0
VERTEX
  8
0
  5
26BF
 10
50.4650
 20
78.0759
 30
0.000000
  70
    32
  0
VERTEX
  8
0
  5
26C0
 10
50.4510
 20
78.0196
 30
0.000000
  70
    32
  0
VERTEX
  8
0
  5
26C1
 10
50.4371
 20
77.9633
 30
0.000000
  70
    32
  0
VERTEX
  8
0
  5
26C2
 10
50.4235
 20
77.9069
 30
0.000000
  70
    32
  0
VERTEX
  8
0
  5
26C3
 10
50.4100
 20
77.8503
 30
0.000000
  70
    32
  0
VERTEX
  8
0
  5
26C4
 10
50.3968
 20
77.7937
 30
0.000000
  70
    32
  0
VERTEX
  8
0
  5
26C5
 10
50.3838
 20
77.7370
 30
0.000000
  70
    32
  0
VERTEX
  8
0
  5
26C6
 10
50.3710
 20
77.6802
 30
0.000000
  70
    32
  0
VERTEX
  8
0
  5
26C7
 10
50.3584
 20
77.6232
 30
0.000000
  70
    32
  0
VERTEX
  8
0
  5
26C8
 10
50.3460
 20
77.5662
 30
0.000000
  70
    32
  0
VERTEX
  8
0
  5
26C9
 10
50.3339
 20
77.5091
 30
0.000000
  70
    32
  0
VERTEX
  8
0
  5
26CA
 10
50.3219
 20
77.4519
 30
0.000000
  70
    32
  0
VERTEX
  8
0
  5
26CB
 10
50.3102
 20
77.3946
 30
0.000000
  70
    32
  0
VERTEX
  8
0
  5
26CC
 10
50.2987
 20
77.3373
 30
0.000000
  70
    32
  0
VERTEX
  8
0
  5
26CD
 10
50.2874
 20
77.2798
 30
0.000000
  70
    32
  0
VERTEX
  8
0
  5
26CE
 10
50.2763
 20
77.2223
 30
0.000000
  70
    32
  0
VERTEX
  8
0
  5
26CF
 10
50.2654
 20
77.1647
 30
0.000000
  70
    32
  0
VERTEX
  8
0
  5
26D0
 10
50.2547
 20
77.1070
 30
0.000000
  70
    32
  0
VERTEX
  8
0
  5
26D1
 10
50.2443
 20
77.0492
 30
0.000000
  70
    32
  0
VERTEX
  8
0
  5
26D2
 10
50.2340
 20
76.9913
 30
0.000000
  70
    32
  0
VERTEX
  8
0
  5
26D3
 10
50.2240
 20
76.9334
 30
0.000000
  70
    32
  0
VERTEX
  8
0
  5
26D4
 10
50.2142
 20
76.8754
 30
0.000000
  70
    32
  0
VERTEX
  8
0
  5
26D5
 10
50.2046
 20
76.8173
 30
0.000000
  70
    32
  0
VERTEX
  8
0
  5
26D6
 10
50.1953
 20
76.7592
 30
0.000000
  70
    32
  0
VERTEX
  8
0
  5
26D7
 10
50.1861
 20
76.7009
 30
0.000000
  70
    32
  0
VERTEX
  8
0
  5
26D8
 10
50.1772
 20
76.6427
 30
0.000000
  70
    32
  0
VERTEX
  8
0
  5
26D9
 10
50.1685
 20
76.5843
 30
0.000000
  70
    32
  0
VERTEX
  8
0
  5
26DA
 10
50.1600
 20
76.5259
 30
0.000000
  70
    32
  0
VERTEX
  8
0
  5
26DB
 10
50.1517
 20
76.4674
 30
0.000000
  70
    32
  0
VERTEX
  8
0
  5
26DC
 10
50.1436
 20
76.4089
 30
0.000000
  70
    32
  0
VERTEX
  8
0
  5
26DD
 10
50.1358
 20
76.3503
 30
0.000000
  70
    32
  0
VERTEX
  8
0
  5
26DE
 10
50.1281
 20
76.2916
 30
0.000000
  70
    32
  0
VERTEX
  8
0
  5
26DF
 10
50.1207
 20
76.2329
 30
0.000000
  70
    32
  0
VERTEX
  8
0
  5
26E0
 10
50.1135
 20
76.1741
 30
0.000000
  70
    32
  0
VERTEX
  8
0
  5
26E1
 10
50.1066
 20
76.1153
 30
0.000000
  70
    32
  0
VERTEX
  8
0
  5
26E2
 10
50.0998
 20
76.0564
 30
0.000000
  70
    32
  0
VERTEX
  8
0
  5
26E3
 10
50.0933
 20
75.9975
 30
0.000000
  70
    32
  0
VERTEX
  8
0
  5
26E4
 10
50.0870
 20
75.9386
 30
0.000000
  70
    32
  0
VERTEX
  8
0
  5
26E5
 10
50.0809
 20
75.8795
 30
0.000000
  70
    32
  0
VERTEX
  8
0
  5
26E6
 10
50.0750
 20
75.8205
 30
0.000000
  70
    32
  0
VERTEX
  8
0
  5
26E7
 10
50.0694
 20
75.7614
 30
0.000000
  70
    32
  0
VERTEX
  8
0
  5
26E8
 10
50.0639
 20
75.7022
 30
0.000000
  70
    32
  0
VERTEX
  8
0
  5
26E9
 10
50.0587
 20
75.6431
 30
0.000000
  70
    32
  0
VERTEX
  8
0
  5
26EA
 10
50.0537
 20
75.5838
 30
0.000000
  70
    32
  0
VERTEX
  8
0
  5
26EB
 10
50.0490
 20
75.5246
 30
0.000000
  70
    32
  0
VERTEX
  8
0
  5
26EC
 10
50.0444
 20
75.4653
 30
0.000000
  70
    32
  0
VERTEX
  8
0
  5
26ED
 10
50.0401
 20
75.4060
 30
0.000000
  70
    32
  0
VERTEX
  8
0
  5
26EE
 10
50.0360
 20
75.3466
 30
0.000000
  70
    32
  0
VERTEX
  8
0
  5
26EF
 10
50.0321
 20
75.2872
 30
0.000000
  70
    32
  0
VERTEX
  8
0
  5
26F0
 10
50.0284
 20
75.2278
 30
0.000000
  70
    32
  0
VERTEX
  8
0
  5
26F1
 10
50.0250
 20
75.1684
 30
0.000000
  70
    32
  0
VERTEX
  8
0
  5
26F2
 10
50.0218
 20
75.1089
 30
0.000000
  70
    32
  0
VERTEX
  8
0
  5
26F3
 10
50.0188
 20
75.0494
 30
0.000000
  70
    32
  0
VERTEX
  8
0
  5
26F4
 10
50.0160
 20
74.9899
 30
0.000000
  70
    32
  0
VERTEX
  8
0
  5
26F5
 10
50.0134
 20
74.9304
 30
0.000000
  70
    32
  0
VERTEX
  8
0
  5
26F6
 10
50.0111
 20
74.8708
 30
0.000000
  70
    32
  0
VERTEX
  8
0
  5
26F7
 10
50.0090
 20
74.8113
 30
0.000000
  70
    32
  0
VERTEX
  8
0
  5
26F8
 10
50.0071
 20
74.7517
 30
0.000000
  70
    32
  0
VERTEX
  8
0
  5
26F9
 10
50.0054
 20
74.6921
 30
0.000000
  70
    32
  0
VERTEX
  8
0
  5
26FA
 10
50.0040
 20
74.6325
 30
0.000000
  70
    32
  0
VERTEX
  8
0
  5
26FB
 10
50.0028
 20
74.5729
 30
0.000000
  70
    32
  0
VERTEX
  8
0
  5
26FC
 10
50.0018
 20
74.5133
 30
0.000000
  70
    32
  0
VERTEX
  8
0
  5
26FD
 10
50.0010
 20
74.4536
 30
0.000000
  70
    32
  0
VERTEX
  8
0
  5
26FE
 10
50.0004
 20
74.3940
 30
0.000000
  70
    32
  0
VERTEX
  8
0
  5
26FF
 10
50.0001
 20
74.3344
 30
0.000000
  70
    32
  0
VERTEX
  8
0
  5
2700
 10
50.0000
 20
74.2747
 30
0.000000
  70
    32
  0
SEQEND
  8
0
  5
2701
  0
LINE
  5
2106
  8
0
 10
53.59902415558372
 20
84.605590923322737
 30
0.0
 11
51.753049535890803
 21
81.342338005229237
 31
0.0
  0
POLYLINE
  5
2107
  8
0
 10
56.722499389999939
 20
86.728636328857803
 30
0.0
 66
     1
 70
     8
  0
VERTEX
  8
0
  5
2702
 10
56.7225
 20
86.7286
 30
0.000000
  70
    32
  0
VERTEX
  8
0
  5
2703
 10
56.6945
 20
86.7285
 30
0.000000
  70
    32
  0
VERTEX
  8
0
  5
2704
 10
56.6665
 20
86.7281
 30
0.000000
  70
    32
  0
VERTEX
  8
0
  5
2705
 10
56.6385
 20
86.7274
 30
0.000000
  70
    32
  0
VERTEX
  8
0
  5
2706
 10
56.6105
 20
86.7264
 30
0.000000
  70
    32
  0
VERTEX
  8
0
  5
2707
 10
56.5825
 20
86.7252
 30
0.000000
  70
    32
  0
VERTEX
  8
0
  5
2708
 10
56.5545
 20
86.7236
 30
0.000000
  70
    32
  0
VERTEX
  8
0
  5
2709
 10
56.5266
 20
86.7218
 30
0.000000
  70
    32
  0
VERTEX
  8
0
  5
270A
 10
56.4986
 20
86.7198
 30
0.000000
  70
    32
  0
VERTEX
  8
0
  5
270B
 10
56.4707
 20
86.7174
 30
0.000000
  70
    32
  0
VERTEX
  8
0
  5
270C
 10
56.4427
 20
86.7148
 30
0.000000
  70
    32
  0
VERTEX
  8
0
  5
270D
 10
56.4148
 20
86.7119
 30
0.000000
  70
    32
  0
VERTEX
  8
0
  5
270E
 10
56.3869
 20
86.7087
 30
0.000000
  70
    32
  0
VERTEX
  8
0
  5
270F
 10
56.3590
 20
86.7052
 30
0.000000
  70
    32
  0
VERTEX
  8
0
  5
2710
 10
56.3311
 20
86.7015
 30
0.000000
  70
    32
  0
VERTEX
  8
0
  5
2711
 10
56.3032
 20
86.6975
 30
0.000000
  70
    32
  0
VERTEX
  8
0
  5
2712
 10
56.2754
 20
86.6932
 30
0.000000
  70
    32
  0
VERTEX
  8
0
  5
2713
 10
56.2476
 20
86.6886
 30
0.000000
  70
    32
  0
VERTEX
  8
0
  5
2714
 10
56.2198
 20
86.6838
 30
0.000000
  70
    32
  0
VERTEX
  8
0
  5
2715
 10
56.1920
 20
86.6787
 30
0.000000
  70
    32
  0
VERTEX
  8
0
  5
2716
 10
56.1643
 20
86.6733
 30
0.000000
  70
    32
  0
VERTEX
  8
0
  5
2717
 10
56.1366
 20
86.6676
 30
0.000000
  70
    32
  0
VERTEX
  8
0
  5
2718
 10
56.1089
 20
86.6617
 30
0.000000
  70
    32
  0
VERTEX
  8
0
  5
2719
 10
56.0812
 20
86.6555
 30
0.000000
  70
    32
  0
VERTEX
  8
0
  5
271A
 10
56.0536
 20
86.6490
 30
0.000000
  70
    32
  0
VERTEX
  8
0
  5
271B
 10
56.0260
 20
86.6422
 30
0.000000
  70
    32
  0
VERTEX
  8
0
  5
271C
 10
55.9985
 20
86.6352
 30
0.000000
  70
    32
  0
VERTEX
  8
0
  5
271D
 10
55.9709
 20
86.6279
 30
0.000000
  70
    32
  0
VERTEX
  8
0
  5
271E
 10
55.9435
 20
86.6203
 30
0.000000
  70
    32
  0
VERTEX
  8
0
  5
271F
 10
55.9160
 20
86.6125
 30
0.000000
  70
    32
  0
VERTEX
  8
0
  5
2720
 10
55.8886
 20
86.6043
 30
0.000000
  70
    32
  0
VERTEX
  8
0
  5
2721
 10
55.8612
 20
86.5960
 30
0.000000
  70
    32
  0
VERTEX
  8
0
  5
2722
 10
55.8339
 20
86.5873
 30
0.000000
  70
    32
  0
VERTEX
  8
0
  5
2723
 10
55.8066
 20
86.5784
 30
0.000000
  70
    32
  0
VERTEX
  8
0
  5
2724
 10
55.7794
 20
86.5692
 30
0.000000
  70
    32
  0
VERTEX
  8
0
  5
2725
 10
55.7522
 20
86.5597
 30
0.000000
  70
    32
  0
VERTEX
  8
0
  5
2726
 10
55.7251
 20
86.5499
 30
0.000000
  70
    32
  0
VERTEX
  8
0
  5
2727
 10
55.6980
 20
86.5399
 30
0.000000
  70
    32
  0
VERTEX
  8
0
  5
2728
 10
55.6709
 20
86.5297
 30
0.000000
  70
    32
  0
VERTEX
  8
0
  5
2729
 10
55.6439
 20
86.5191
 30
0.000000
  70
    32
  0
VERTEX
  8
0
  5
272A
 10
55.6170
 20
86.5083
 30
0.000000
  70
    32
  0
VERTEX
  8
0
  5
272B
 10
55.5901
 20
86.4972
 30
0.000000
  70
    32
  0
VERTEX
  8
0
  5
272C
 10
55.5633
 20
86.4859
 30
0.000000
  70
    32
  0
VERTEX
  8
0
  5
272D
 10
55.5365
 20
86.4743
 30
0.000000
  70
    32
  0
VERTEX
  8
0
  5
272E
 10
55.5098
 20
86.4624
 30
0.000000
  70
    32
  0
VERTEX
  8
0
  5
272F
 10
55.4832
 20
86.4503
 30
0.000000
  70
    32
  0
VERTEX
  8
0
  5
2730
 10
55.4566
 20
86.4379
 30
0.000000
  70
    32
  0
VERTEX
  8
0
  5
2731
 10
55.4300
 20
86.4252
 30
0.000000
  70
    32
  0
VERTEX
  8
0
  5
2732
 10
55.4036
 20
86.4123
 30
0.000000
  70
    32
  0
VERTEX
  8
0
  5
2733
 10
55.3772
 20
86.3991
 30
0.000000
  70
    32
  0
VERTEX
  8
0
  5
2734
 10
55.3508
 20
86.3856
 30
0.000000
  70
    32
  0
VERTEX
  8
0
  5
2735
 10
55.3246
 20
86.3719
 30
0.000000
  70
    32
  0
VERTEX
  8
0
  5
2736
 10
55.2984
 20
86.3580
 30
0.000000
  70
    32
  0
VERTEX
  8
0
  5
2737
 10
55.2722
 20
86.3437
 30
0.000000
  70
    32
  0
VERTEX
  8
0
  5
2738
 10
55.2462
 20
86.3292
 30
0.000000
  70
    32
  0
VERTEX
  8
0
  5
2739
 10
55.2202
 20
86.3145
 30
0.000000
  70
    32
  0
VERTEX
  8
0
  5
273A
 10
55.1943
 20
86.2995
 30
0.000000
  70
    32
  0
VERTEX
  8
0
  5
273B
 10
55.1684
 20
86.2842
 30
0.000000
  70
    32
  0
VERTEX
  8
0
  5
273C
 10
55.1427
 20
86.2687
 30
0.000000
  70
    32
  0
VERTEX
  8
0
  5
273D
 10
55.1170
 20
86.2530
 30
0.000000
  70
    32
  0
VERTEX
  8
0
  5
273E
 10
55.0914
 20
86.2369
 30
0.000000
  70
    32
  0
VERTEX
  8
0
  5
273F
 10
55.0658
 20
86.2207
 30
0.000000
  70
    32
  0
VERTEX
  8
0
  5
2740
 10
55.0404
 20
86.2041
 30
0.000000
  70
    32
  0
VERTEX
  8
0
  5
2741
 10
55.0150
 20
86.1874
 30
0.000000
  70
    32
  0
VERTEX
  8
0
  5
2742
 10
54.9897
 20
86.1703
 30
0.000000
  70
    32
  0
VERTEX
  8
0
  5
2743
 10
54.9645
 20
86.1530
 30
0.000000
  70
    32
  0
VERTEX
  8
0
  5
2744
 10
54.9394
 20
86.1355
 30
0.000000
  70
    32
  0
VERTEX
  8
0
  5
2745
 10
54.9144
 20
86.1177
 30
0.000000
  70
    32
  0
VERTEX
  8
0
  5
2746
 10
54.8895
 20
86.0997
 30
0.000000
  70
    32
  0
VERTEX
  8
0
  5
2747
 10
54.8646
 20
86.0814
 30
0.000000
  70
    32
  0
VERTEX
  8
0
  5
2748
 10
54.8399
 20
86.0629
 30
0.000000
  70
    32
  0
VERTEX
  8
0
  5
2749
 10
54.8152
 20
86.0442
 30
0.000000
  70
    32
  0
VERTEX
  8
0
  5
274A
 10
54.7907
 20
86.0252
 30
0.000000
  70
    32
  0
VERTEX
  8
0
  5
274B
 10
54.7662
 20
86.0059
 30
0.000000
  70
    32
  0
VERTEX
  8
0
  5
274C
 10
54.7418
 20
85.9864
 30
0.000000
  70
    32
  0
VERTEX
  8
0
  5
274D
 10
54.7175
 20
85.9667
 30
0.000000
  70
    32
  0
VERTEX
  8
0
  5
274E
 10
54.6934
 20
85.9467
 30
0.000000
  70
    32
  0
VERTEX
  8
0
  5
274F
 10
54.6693
 20
85.9265
 30
0.000000
  70
    32
  0
VERTEX
  8
0
  5
2750
 10
54.6453
 20
85.9061
 30
0.000000
  70
    32
  0
VERTEX
  8
0
  5
2751
 10
54.6214
 20
85.8854
 30
0.000000
  70
    32
  0
VERTEX
  8
0
  5
2752
 10
54.5976
 20
85.8645
 30
0.000000
  70
    32
  0
VERTEX
  8
0
  5
2753
 10
54.5740
 20
85.8433
 30
0.000000
  70
    32
  0
VERTEX
  8
0
  5
2754
 10
54.5504
 20
85.8219
 30
0.000000
  70
    32
  0
VERTEX
  8
0
  5
2755
 10
54.5269
 20
85.8003
 30
0.000000
  70
    32
  0
VERTEX
  8
0
  5
2756
 10
54.5036
 20
85.7785
 30
0.000000
  70
    32
  0
VERTEX
  8
0
  5
2757
 10
54.4803
 20
85.7564
 30
0.000000
  70
    32
  0
VERTEX
  8
0
  5
2758
 10
54.4572
 20
85.7341
 30
0.000000
  70
    32
  0
VERTEX
  8
0
  5
2759
 10
54.4342
 20
85.7115
 30
0.000000
  70
    32
  0
VERTEX
  8
0
  5
275A
 10
54.4113
 20
85.6888
 30
0.000000
  70
    32
  0
VERTEX
  8
0
  5
275B
 10
54.3885
 20
85.6658
 30
0.000000
  70
    32
  0
VERTEX
  8
0
  5
275C
 10
54.3658
 20
85.6425
 30
0.000000
  70
    32
  0
VERTEX
  8
0
  5
275D
 10
54.3432
 20
85.6191
 30
0.000000
  70
    32
  0
VERTEX
  8
0
  5
275E
 10
54.3208
 20
85.5954
 30
0.000000
  70
    32
  0
VERTEX
  8
0
  5
275F
 10
54.2984
 20
85.5715
 30
0.000000
  70
    32
  0
VERTEX
  8
0
  5
2760
 10
54.2762
 20
85.5474
 30
0.000000
  70
    32
  0
VERTEX
  8
0
  5
2761
 10
54.2541
 20
85.5231
 30
0.000000
  70
    32
  0
VERTEX
  8
0
  5
2762
 10
54.2322
 20
85.4986
 30
0.000000
  70
    32
  0
VERTEX
  8
0
  5
2763
 10
54.2103
 20
85.4738
 30
0.000000
  70
    32
  0
VERTEX
  8
0
  5
2764
 10
54.1886
 20
85.4488
 30
0.000000
  70
    32
  0
VERTEX
  8
0
  5
2765
 10
54.1670
 20
85.4236
 30
0.000000
  70
    32
  0
VERTEX
  8
0
  5
2766
 10
54.1455
 20
85.3982
 30
0.000000
  70
    32
  0
VERTEX
  8
0
  5
2767
 10
54.1241
 20
85.3726
 30
0.000000
  70
    32
  0
VERTEX
  8
0
  5
2768
 10
54.1029
 20
85.3468
 30
0.000000
  70
    32
  0
VERTEX
  8
0
  5
2769
 10
54.0818
 20
85.3207
 30
0.000000
  70
    32
  0
VERTEX
  8
0
  5
276A
 10
54.0609
 20
85.2945
 30
0.000000
  70
    32
  0
VERTEX
  8
0
  5
276B
 10
54.0400
 20
85.2680
 30
0.000000
  70
    32
  0
VERTEX
  8
0
  5
276C
 10
54.0193
 20
85.2414
 30
0.000000
  70
    32
  0
VERTEX
  8
0
  5
276D
 10
53.9987
 20
85.2145
 30
0.000000
  70
    32
  0
VERTEX
  8
0
  5
276E
 10
53.9783
 20
85.1874
 30
0.000000
  70
    32
  0
VERTEX
  8
0
  5
276F
 10
53.9580
 20
85.1602
 30
0.000000
  70
    32
  0
VERTEX
  8
0
  5
2770
 10
53.9378
 20
85.1327
 30
0.000000
  70
    32
  0
VERTEX
  8
0
  5
2771
 10
53.9178
 20
85.1050
 30
0.000000
  70
    32
  0
VERTEX
  8
0
  5
2772
 10
53.8979
 20
85.0772
 30
0.000000
  70
    32
  0
VERTEX
  8
0
  5
2773
 10
53.8781
 20
85.0491
 30
0.000000
  70
    32
  0
VERTEX
  8
0
  5
2774
 10
53.8585
 20
85.0209
 30
0.000000
  70
    32
  0
VERTEX
  8
0
  5
2775
 10
53.8390
 20
84.9924
 30
0.000000
  70
    32
  0
VERTEX
  8
0
  5
2776
 10
53.8197
 20
84.9638
 30
0.000000
  70
    32
  0
VERTEX
  8
0
  5
2777
 10
53.8005
 20
84.9349
 30
0.000000
  70
    32
  0
VERTEX
  8
0
  5
2778
 10
53.7815
 20
84.9059
 30
0.000000
  70
    32
  0
VERTEX
  8
0
  5
2779
 10
53.7626
 20
84.8767
 30
0.000000
  70
    32
  0
VERTEX
  8
0
  5
277A
 10
53.7438
 20
84.8473
 30
0.000000
  70
    32
  0
VERTEX
  8
0
  5
277B
 10
53.7252
 20
84.8177
 30
0.000000
  70
    32
  0
VERTEX
  8
0
  5
277C
 10
53.7067
 20
84.7880
 30
0.000000
  70
    32
  0
VERTEX
  8
0
  5
277D
 10
53.6884
 20
84.7580
 30
0.000000
  70
    32
  0
VERTEX
  8
0
  5
277E
 10
53.6702
 20
84.7279
 30
0.000000
  70
    32
  0
VERTEX
  8
0
  5
277F
 10
53.6522
 20
84.6976
 30
0.000000
  70
    32
  0
VERTEX
  8
0
  5
2780
 10
53.6343
 20
84.6671
 30
0.000000
  70
    32
  0
VERTEX
  8
0
  5
2781
 10
53.6166
 20
84.6364
 30
0.000000
  70
    32
  0
VERTEX
  8
0
  5
2782
 10
53.5990
 20
84.6056
 30
0.000000
  70
    32
  0
SEQEND
  8
0
  5
2783
  0
LINE
  5
2108
  8
0
 10
56.722499389999939
 20
86.728636328857775
 30
0.0
 11
56.722499389999939
 21
53.271363671142062
 31
0.0
  0
POLYLINE
  5
210A
  8
0
 10
53.599024155579109
 20
103.39583761168518
 30
0.0
 66
     1
 70
     8
  0
VERTEX
  8
0
  5
2784
 10
53.5990
 20
103.396
 30
0.000000
  70
    32
  0
VERTEX
  8
0
  5
2785
 10
53.6166
 20
103.365
 30
0.000000
  70
    32
  0
VERTEX
  8
0
  5
2786
 10
53.6343
 20
103.334
 30
0.000000
  70
    32
  0
VERTEX
  8
0
  5
2787
 10
53.6522
 20
103.304
 30
0.000000
  70
    32
  0
VERTEX
  8
0
  5
2788
 10
53.6702
 20
103.274
 30
0.000000
  70
    32
  0
VERTEX
  8
0
  5
2789
 10
53.6884
 20
103.243
 30
0.000000
  70
    32
  0
VERTEX
  8
0
  5
278A
 10
53.7067
 20
103.213
 30
0.000000
  70
    32
  0
VERTEX
  8
0
  5
278B
 10
53.7252
 20
103.184
 30
0.000000
  70
    32
  0
VERTEX
  8
0
  5
278C
 10
53.7438
 20
103.154
 30
0.000000
  70
    32
  0
VERTEX
  8
0
  5
278D
 10
53.7626
 20
103.125
 30
0.000000
  70
    32
  0
VERTEX
  8
0
  5
278E
 10
53.7815
 20
103.096
 30
0.000000
  70
    32
  0
VERTEX
  8
0
  5
278F
 10
53.8005
 20
103.066
 30
0.000000
  70
    32
  0
VERTEX
  8
0
  5
2790
 10
53.8197
 20
103.038
 30
0.000000
  70
    32
  0
VERTEX
  8
0
  5
2791
 10
53.8390
 20
103.009
 30
0.000000
  70
    32
  0
VERTEX
  8
0
  5
2792
 10
53.8585
 20
102.981
 30
0.000000
  70
    32
  0
VERTEX
  8
0
  5
2793
 10
53.8781
 20
102.952
 30
0.000000
  70
    32
  0
VERTEX
  8
0
  5
2794
 10
53.8979
 20
102.924
 30
0.000000
  70
    32
  0
VERTEX
  8
0
  5
2795
 10
53.9178
 20
102.896
 30
0.000000
  70
    32
  0
VERTEX
  8
0
  5
2796
 10
53.9378
 20
102.869
 30
0.000000
  70
    32
  0
VERTEX
  8
0
  5
2797
 10
53.9580
 20
102.841
 30
0.000000
  70
    32
  0
VERTEX
  8
0
  5
2798
 10
53.9783
 20
102.814
 30
0.000000
  70
    32
  0
VERTEX
  8
0
  5
2799
 10
53.9987
 20
102.787
 30
0.000000
  70
    32
  0
VERTEX
  8
0
  5
279A
 10
54.0193
 20
102.760
 30
0.000000
  70
    32
  0
VERTEX
  8
0
  5
279B
 10
54.0400
 20
102.733
 30
0.000000
  70
    32
  0
VERTEX
  8
0
  5
279C
 10
54.0609
 20
102.707
 30
0.000000
  70
    32
  0
VERTEX
  8
0
  5
279D
 10
54.0818
 20
102.681
 30
0.000000
  70
    32
  0
VERTEX
  8
0
  5
279E
 10
54.1029
 20
102.655
 30
0.000000
  70
    32
  0
VERTEX
  8
0
  5
279F
 10
54.1241
 20
102.629
 30
0.000000
  70
    32
  0
VERTEX
  8
0
  5
27A0
 10
54.1455
 20
102.603
 30
0.000000
  70
    32
  0
VERTEX
  8
0
  5
27A1
 10
54.1670
 20
102.578
 30
0.000000
  70
    32
  0
VERTEX
  8
0
  5
27A2
 10
54.1886
 20
102.553
 30
0.000000
  70
    32
  0
VERTEX
  8
0
  5
27A3
 10
54.2103
 20
102.528
 30
0.000000
  70
    32
  0
VERTEX
  8
0
  5
27A4
 10
54.2322
 20
102.503
 30
0.000000
  70
    32
  0
VERTEX
  8
0
  5
27A5
 10
54.2541
 20
102.478
 30
0.000000
  70
    32
  0
VERTEX
  8
0
  5
27A6
 10
54.2762
 20
102.454
 30
0.000000
  70
    32
  0
VERTEX
  8
0
  5
27A7
 10
54.2984
 20
102.430
 30
0.000000
  70
    32
  0
VERTEX
  8
0
  5
27A8
 10
54.3208
 20
102.406
 30
0.000000
  70
    32
  0
VERTEX
  8
0
  5
27A9
 10
54.3432
 20
102.382
 30
0.000000
  70
    32
  0
VERTEX
  8
0
  5
27AA
 10
54.3658
 20
102.359
 30
0.000000
  70
    32
  0
VERTEX
  8
0
  5
27AB
 10
54.3885
 20
102.336
 30
0.000000
  70
    32
  0
VERTEX
  8
0
  5
27AC
 10
54.4113
 20
102.313
 30
0.000000
  70
    32
  0
VERTEX
  8
0
  5
27AD
 10
54.4342
 20
102.290
 30
0.000000
  70
    32
  0
VERTEX
  8
0
  5
27AE
 10
54.4572
 20
102.267
 30
0.000000
  70
    32
  0
VERTEX
  8
0
  5
27AF
 10
54.4803
 20
102.245
 30
0.000000
  70
    32
  0
VERTEX
  8
0
  5
27B0
 10
54.5036
 20
102.223
 30
0.000000
  70
    32
  0
VERTEX
  8
0
  5
27B1
 10
54.5269
 20
102.201
 30
0.000000
  70
    32
  0
VERTEX
  8
0
  5
27B2
 10
54.5504
 20
102.179
 30
0.000000
  70
    32
  0
VERTEX
  8
0
  5
27B3
 10
54.5740
 20
102.158
 30
0.000000
  70
    32
  0
VERTEX
  8
0
  5
27B4
 10
54.5976
 20
102.137
 30
0.000000
  70
    32
  0
VERTEX
  8
0
  5
27B5
 10
54.6214
 20
102.116
 30
0.000000
  70
    32
  0
VERTEX
  8
0
  5
27B6
 10
54.6453
 20
102.095
 30
0.000000
  70
    32
  0
VERTEX
  8
0
  5
27B7
 10
54.6693
 20
102.075
 30
0.000000
  70
    32
  0
VERTEX
  8
0
  5
27B8
 10
54.6934
 20
102.055
 30
0.000000
  70
    32
  0
VERTEX
  8
0
  5
27B9
 10
54.7175
 20
102.035
 30
0.000000
  70
    32
  0
VERTEX
  8
0
  5
27BA
 10
54.7418
 20
102.015
 30
0.000000
  70
    32
  0
VERTEX
  8
0
  5
27BB
 10
54.7662
 20
101.996
 30
0.000000
  70
    32
  0
VERTEX
  8
0
  5
27BC
 10
54.7907
 20
101.976
 30
0.000000
  70
    32
  0
VERTEX
  8
0
  5
27BD
 10
54.8152
 20
101.957
 30
0.000000
  70
    32
  0
VERTEX
  8
0
  5
27BE
 10
54.8399
 20
101.938
 30
0.000000
  70
    32
  0
VERTEX
  8
0
  5
27BF
 10
54.8646
 20
101.920
 30
0.000000
  70
    32
  0
VERTEX
  8
0
  5
27C0
 10
54.8895
 20
101.902
 30
0.000000
  70
    32
  0
VERTEX
  8
0
  5
27C1
 10
54.9144
 20
101.884
 30
0.000000
  70
    32
  0
VERTEX
  8
0
  5
27C2
 10
54.9394
 20
101.866
 30
0.000000
  70
    32
  0
VERTEX
  8
0
  5
27C3
 10
54.9645
 20
101.848
 30
0.000000
  70
    32
  0
VERTEX
  8
0
  5
27C4
 10
54.9897
 20
101.831
 30
0.000000
  70
    32
  0
VERTEX
  8
0
  5
27C5
 10
55.0150
 20
101.814
 30
0.000000
  70
    32
  0
VERTEX
  8
0
  5
27C6
 10
55.0404
 20
101.797
 30
0.000000
  70
    32
  0
VERTEX
  8
0
  5
27C7
 10
55.0658
 20
101.781
 30
0.000000
  70
    32
  0
VERTEX
  8
0
  5
27C8
 10
55.0914
 20
101.764
 30
0.000000
  70
    32
  0
VERTEX
  8
0
  5
27C9
 10
55.1170
 20
101.748
 30
0.000000
  70
    32
  0
VERTEX
  8
0
  5
27CA
 10
55.1427
 20
101.733
 30
0.000000
  70
    32
  0
VERTEX
  8
0
  5
27CB
 10
55.1684
 20
101.717
 30
0.000000
  70
    32
  0
VERTEX
  8
0
  5
27CC
 10
55.1943
 20
101.702
 30
0.000000
  70
    32
  0
VERTEX
  8
0
  5
27CD
 10
55.2202
 20
101.687
 30
0.000000
  70
    32
  0
VERTEX
  8
0
  5
27CE
 10
55.2462
 20
101.672
 30
0.000000
  70
    32
  0
VERTEX
  8
0
  5
27CF
 10
55.2722
 20
101.658
 30
0.000000
  70
    32
  0
VERTEX
  8
0
  5
27D0
 10
55.2984
 20
101.643
 30
0.000000
  70
    32
  0
VERTEX
  8
0
  5
27D1
 10
55.3246
 20
101.630
 30
0.000000
  70
    32
  0
VERTEX
  8
0
  5
27D2
 10
55.3508
 20
101.616
 30
0.000000
  70
    32
  0
VERTEX
  8
0
  5
27D3
 10
55.3772
 20
101.602
 30
0.000000
  70
    32
  0
VERTEX
  8
0
  5
27D4
 10
55.4036
 20
101.589
 30
0.000000
  70
    32
  0
VERTEX
  8
0
  5
27D5
 10
55.4300
 20
101.576
 30
0.000000
  70
    32
  0
VERTEX
  8
0
  5
27D6
 10
55.4566
 20
101.564
 30
0.000000
  70
    32
  0
VERTEX
  8
0
  5
27D7
 10
55.4832
 20
101.551
 30
0.000000
  70
    32
  0
VERTEX
  8
0
  5
27D8
 10
55.5098
 20
101.539
 30
0.000000
  70
    32
  0
VERTEX
  8
0
  5
27D9
 10
55.5365
 20
101.527
 30
0.000000
  70
    32
  0
VERTEX
  8
0
  5
27DA
 10
55.5633
 20
101.516
 30
0.000000
  70
    32
  0
VERTEX
  8
0
  5
27DB
 10
55.5901
 20
101.504
 30
0.000000
  70
    32
  0
VERTEX
  8
0
  5
27DC
 10
55.6170
 20
101.493
 30
0.000000
  70
    32
  0
VERTEX
  8
0
  5
27DD
 10
55.6439
 20
101.482
 30
0.000000
  70
    32
  0
VERTEX
  8
0
  5
27DE
 10
55.6709
 20
101.472
 30
0.000000
  70
    32
  0
VERTEX
  8
0
  5
27DF
 10
55.6980
 20
101.461
 30
0.000000
  70
    32
  0
VERTEX
  8
0
  5
27E0
 10
55.7251
 20
101.451
 30
0.000000
  70
    32
  0
VERTEX
  8
0
  5
27E1
 10
55.7522
 20
101.442
 30
0.000000
  70
    32
  0
VERTEX
  8
0
  5
27E2
 10
55.7794
 20
101.432
 30
0.000000
  70
    32
  0
VERTEX
  8
0
  5
27E3
 10
55.8066
 20
101.423
 30
0.000000
  70
    32
  0
VERTEX
  8
0
  5
27E4
 10
55.8339
 20
101.414
 30
0.000000
  70
    32
  0
VERTEX
  8
0
  5
27E5
 10
55.8612
 20
101.405
 30
0.000000
  70
    32
  0
VERTEX
  8
0
  5
27E6
 10
55.8886
 20
101.397
 30
0.000000
  70
    32
  0
VERTEX
  8
0
  5
27E7
 10
55.9160
 20
101.389
 30
0.000000
  70
    32
  0
VERTEX
  8
0
  5
27E8
 10
55.9435
 20
101.381
 30
0.000000
  70
    32
  0
VERTEX
  8
0
  5
27E9
 10
55.9709
 20
101.374
 30
0.000000
  70
    32
  0
VERTEX
  8
0
  5
27EA
 10
55.9985
 20
101.366
 30
0.000000
  70
    32
  0
VERTEX
  8
0
  5
27EB
 10
56.0260
 20
101.359
 30
0.000000
  70
    32
  0
VERTEX
  8
0
  5
27EC
 10
56.0536
 20
101.352
 30
0.000000
  70
    32
  0
VERTEX
  8
0
  5
27ED
 10
56.0812
 20
101.346
 30
0.000000
  70
    32
  0
VERTEX
  8
0
  5
27EE
 10
56.1089
 20
101.340
 30
0.000000
  70
    32
  0
VERTEX
  8
0
  5
27EF
 10
56.1366
 20
101.334
 30
0.000000
  70
    32
  0
VERTEX
  8
0
  5
27F0
 10
56.1643
 20
101.328
 30
0.000000
  70
    32
  0
VERTEX
  8
0
  5
27F1
 10
56.1920
 20
101.323
 30
0.000000
  70
    32
  0
VERTEX
  8
0
  5
27F2
 10
56.2198
 20
101.318
 30
0.000000
  70
    32
  0
VERTEX
  8
0
  5
27F3
 10
56.2476
 20
101.313
 30
0.000000
  70
    32
  0
VERTEX
  8
0
  5
27F4
 10
56.2754
 20
101.308
 30
0.000000
  70
    32
  0
VERTEX
  8
0
  5
27F5
 10
56.3032
 20
101.304
 30
0.000000
  70
    32
  0
VERTEX
  8
0
  5
27F6
 10
56.3311
 20
101.300
 30
0.000000
  70
    32
  0
VERTEX
  8
0
  5
27F7
 10
56.3590
 20
101.296
 30
0.000000
  70
    32
  0
VERTEX
  8
0
  5
27F8
 10
56.3869
 20
101.293
 30
0.000000
  70
    32
  0
VERTEX
  8
0
  5
27F9
 10
56.4148
 20
101.290
 30
0.000000
  70
    32
  0
VERTEX
  8
0
  5
27FA
 10
56.4427
 20
101.287
 30
0.000000
  70
    32
  0
VERTEX
  8
0
  5
27FB
 10
56.4707
 20
101.284
 30
0.000000
  70
    32
  0
VERTEX
  8
0
  5
27FC
 10
56.4986
 20
101.282
 30
0.000000
  70
    32
  0
VERTEX
  8
0
  5
27FD
 10
56.5266
 20
101.280
 30
0.000000
  70
    32
  0
VERTEX
  8
0
  5
27FE
 10
56.5545
 20
101.278
 30
0.000000
  70
    32
  0
VERTEX
  8
0
  5
27FF
 10
56.5825
 20
101.276
 30
0.000000
  70
    32
  0
VERTEX
  8
0
  5
2800
 10
56.6105
 20
101.275
 30
0.000000
  70
    32
  0
VERTEX
  8
0
  5
2801
 10
56.6385
 20
101.274
 30
0.000000
  70
    32
  0
VERTEX
  8
0
  5
2802
 10
56.6665
 20
101.273
 30
0.000000
  70
    32
  0
VERTEX
  8
0
  5
2803
 10
56.6945
 20
101.273
 30
0.000000
  70
    32
  0
VERTEX
  8
0
  5
2804
 10
56.7225
 20
101.273
 30
0.000000
  70
    32
  0
SEQEND
  8
0
  5
2805
  0
LINE
  5
210B
  8
0
 10
56.722499389999939
 20
126.7286363288578
 30
0.0
 11
56.722499389999939
 21
93.271363671142126
 31
0.0
  0
POLYLINE
  5
210C
  8
0
 10
53.599024155579102
 20
95.394409076685292
 30
0.0
 66
     1
 70
     8
  0
VERTEX
  8
0
  5
2806
 10
53.5990
 20
95.3944
 30
0.000000
  70
    32
  0
VERTEX
  8
0
  5
2807
 10
53.6166
 20
95.3636
 30
0.000000
  70
    32
  0
VERTEX
  8
0
  5
2808
 10
53.6343
 20
95.3329
 30
0.000000
  70
    32
  0
VERTEX
  8
0
  5
2809
 10
53.6522
 20
95.3024
 30
0.000000
  70
    32
  0
VERTEX
  8
0
  5
280A
 10
53.6702
 20
95.2721
 30
0.000000
  70
    32
  0
VERTEX
  8
0
  5
280B
 10
53.6884
 20
95.2420
 30
0.000000
  70
    32
  0
VERTEX
  8
0
  5
280C
 10
53.7067
 20
95.2120
 30
0.000000
  70
    32
  0
VERTEX
  8
0
  5
280D
 10
53.7252
 20
95.1823
 30
0.000000
  70
    32
  0
VERTEX
  8
0
  5
280E
 10
53.7438
 20
95.1527
 30
0.000000
  70
    32
  0
VERTEX
  8
0
  5
280F
 10
53.7626
 20
95.1233
 30
0.000000
  70
    32
  0
VERTEX
  8
0
  5
2810
 10
53.7815
 20
95.0941
 30
0.000000
  70
    32
  0
VERTEX
  8
0
  5
2811
 10
53.8005
 20
95.0651
 30
0.000000
  70
    32
  0
VERTEX
  8
0
  5
2812
 10
53.8197
 20
95.0362
 30
0.000000
  70
    32
  0
VERTEX
  8
0
  5
2813
 10
53.8390
 20
95.0076
 30
0.000000
  70
    32
  0
VERTEX
  8
0
  5
2814
 10
53.8585
 20
94.9791
 30
0.000000
  70
    32
  0
VERTEX
  8
0
  5
2815
 10
53.8781
 20
94.9509
 30
0.000000
  70
    32
  0
VERTEX
  8
0
  5
2816
 10
53.8979
 20
94.9228
 30
0.000000
  70
    32
  0
VERTEX
  8
0
  5
2817
 10
53.9178
 20
94.8950
 30
0.000000
  70
    32
  0
VERTEX
  8
0
  5
2818
 10
53.9378
 20
94.8673
 30
0.000000
  70
    32
  0
VERTEX
  8
0
  5
2819
 10
53.9580
 20
94.8398
 30
0.000000
  70
    32
  0
VERTEX
  8
0
  5
281A
 10
53.9783
 20
94.8126
 30
0.000000
  70
    32
  0
VERTEX
  8
0
  5
281B
 10
53.9987
 20
94.7855
 30
0.000000
  70
    32
  0
VERTEX
  8
0
  5
281C
 10
54.0193
 20
94.7586
 30
0.000000
  70
    32
  0
VERTEX
  8
0
  5
281D
 10
54.0400
 20
94.7320
 30
0.000000
  70
    32
  0
VERTEX
  8
0
  5
281E
 10
54.0609
 20
94.7055
 30
0.000000
  70
    32
  0
VERTEX
  8
0
  5
281F
 10
54.0818
 20
94.6793
 30
0.000000
  70
    32
  0
VERTEX
  8
0
  5
2820
 10
54.1029
 20
94.6532
 30
0.000000
  70
    32
  0
VERTEX
  8
0
  5
2821
 10
54.1241
 20
94.6274
 30
0.000000
  70
    32
  0
VERTEX
  8
0
  5
2822
 10
54.1455
 20
94.6018
 30
0.000000
  70
    32
  0
VERTEX
  8
0
  5
2823
 10
54.1670
 20
94.5764
 30
0.000000
  70
    32
  0
VERTEX
  8
0
  5
2824
 10
54.1886
 20
94.5512
 30
0.000000
  70
    32
  0
VERTEX
  8
0
  5
2825
 10
54.2103
 20
94.5262
 30
0.000000
  70
    32
  0
VERTEX
  8
0
  5
2826
 10
54.2322
 20
94.5014
 30
0.000000
  70
    32
  0
VERTEX
  8
0
  5
2827
 10
54.2541
 20
94.4769
 30
0.000000
  70
    32
  0
VERTEX
  8
0
  5
2828
 10
54.2762
 20
94.4526
 30
0.000000
  70
    32
  0
VERTEX
  8
0
  5
2829
 10
54.2984
 20
94.4285
 30
0.000000
  70
    32
  0
VERTEX
  8
0
  5
282A
 10
54.3208
 20
94.4046
 30
0.000000
  70
    32
  0
VERTEX
  8
0
  5
282B
 10
54.3432
 20
94.3809
 30
0.000000
  70
    32
  0
VERTEX
  8
0
  5
282C
 10
54.3658
 20
94.3575
 30
0.000000
  70
    32
  0
VERTEX
  8
0
  5
282D
 10
54.3885
 20
94.3342
 30
0.000000
  70
    32
  0
VERTEX
  8
0
  5
282E
 10
54.4113
 20
94.3112
 30
0.000000
  70
    32
  0
VERTEX
  8
0
  5
282F
 10
54.4342
 20
94.2885
 30
0.000000
  70
    32
  0
VERTEX
  8
0
  5
2830
 10
54.4572
 20
94.2659
 30
0.000000
  70
    32
  0
VERTEX
  8
0
  5
2831
 10
54.4803
 20
94.2436
 30
0.000000
  70
    32
  0
VERTEX
  8
0
  5
2832
 10
54.5036
 20
94.2215
 30
0.000000
  70
    32
  0
VERTEX
  8
0
  5
2833
 10
54.5269
 20
94.1997
 30
0.000000
  70
    32
  0
VERTEX
  8
0
  5
2834
 10
54.5504
 20
94.1781
 30
0.000000
  70
    32
  0
VERTEX
  8
0
  5
2835
 10
54.5740
 20
94.1567
 30
0.000000
  70
    32
  0
VERTEX
  8
0
  5
2836
 10
54.5976
 20
94.1355
 30
0.000000
  70
    32
  0
VERTEX
  8
0
  5
2837
 10
54.6214
 20
94.1146
 30
0.000000
  70
    32
  0
VERTEX
  8
0
  5
2838
 10
54.6453
 20
94.0939
 30
0.000000
  70
    32
  0
VERTEX
  8
0
  5
2839
 10
54.6693
 20
94.0735
 30
0.000000
  70
    32
  0
VERTEX
  8
0
  5
283A
 10
54.6934
 20
94.0533
 30
0.000000
  70
    32
  0
VERTEX
  8
0
  5
283B
 10
54.7175
 20
94.0333
 30
0.000000
  70
    32
  0
VERTEX
  8
0
  5
283C
 10
54.7418
 20
94.0136
 30
0.000000
  70
    32
  0
VERTEX
  8
0
  5
283D
 10
54.7662
 20
93.9941
 30
0.000000
  70
    32
  0
VERTEX
  8
0
  5
283E
 10
54.7907
 20
93.9748
 30
0.000000
  70
    32
  0
VERTEX
  8
0
  5
283F
 10
54.8152
 20
93.9558
 30
0.000000
  70
    32
  0
VERTEX
  8
0
  5
2840
 10
54.8399
 20
93.9371
 30
0.000000
  70
    32
  0
VERTEX
  8
0
  5
2841
 10
54.8646
 20
93.9186
 30
0.000000
  70
    32
  0
VERTEX
  8
0
  5
2842
 10
54.8895
 20
93.9003
 30
0.000000
  70
    32
  0
VERTEX
  8
0
  5
2843
 10
54.9144
 20
93.8823
 30
0.000000
  70
    32
  0
VERTEX
  8
0
  5
2844
 10
54.9394
 20
93.8645
 30
0.000000
  70
    32
  0
VERTEX
  8
0
  5
2845
 10
54.9645
 20
93.8470
 30
0.000000
  70
    32
  0
VERTEX
  8
0
  5
2846
 10
54.9897
 20
93.8297
 30
0.000000
  70
    32
  0
VERTEX
  8
0
  5
2847
 10
55.0150
 20
93.8126
 30
0.000000
  70
    32
  0
VERTEX
  8
0
  5
2848
 10
55.0404
 20
93.7959
 30
0.000000
  70
    32
  0
VERTEX
  8
0
  5
2849
 10
55.0658
 20
93.7793
 30
0.000000
  70
    32
  0
VERTEX
  8
0
  5
284A
 10
55.0914
 20
93.7631
 30
0.000000
  70
    32
  0
VERTEX
  8
0
  5
284B
 10
55.1170
 20
93.7470
 30
0.000000
  70
    32
  0
VERTEX
  8
0
  5
284C
 10
55.1427
 20
93.7313
 30
0.000000
  70
    32
  0
VERTEX
  8
0
  5
284D
 10
55.1684
 20
93.7158
 30
0.000000
  70
    32
  0
VERTEX
  8
0
  5
284E
 10
55.1943
 20
93.7005
 30
0.000000
  70
    32
  0
VERTEX
  8
0
  5
284F
 10
55.2202
 20
93.6855
 30
0.000000
  70
    32
  0
VERTEX
  8
0
  5
2850
 10
55.2462
 20
93.6708
 30
0.000000
  70
    32
  0
VERTEX
  8
0
  5
2851
 10
55.2722
 20
93.6563
 30
0.000000
  70
    32
  0
VERTEX
  8
0
  5
2852
 10
55.2984
 20
93.6420
 30
0.000000
  70
    32
  0
VERTEX
  8
0
  5
2853
 10
55.3246
 20
93.6281
 30
0.000000
  70
    32
  0
VERTEX
  8
0
  5
2854
 10
55.3508
 20
93.6144
 30
0.000000
  70
    32
  0
VERTEX
  8
0
  5
2855
 10
55.3772
 20
93.6009
 30
0.000000
  70
    32
  0
VERTEX
  8
0
  5
2856
 10
55.4036
 20
93.5877
 30
0.000000
  70
    32
  0
VERTEX
  8
0
  5
2857
 10
55.4300
 20
93.5748
 30
0.000000
  70
    32
  0
VERTEX
  8
0
  5
2858
 10
55.4566
 20
93.5621
 30
0.000000
  70
    32
  0
VERTEX
  8
0
  5
2859
 10
55.4832
 20
93.5497
 30
0.000000
  70
    32
  0
VERTEX
  8
0
  5
285A
 10
55.5098
 20
93.5376
 30
0.000000
  70
    32
  0
VERTEX
  8
0
  5
285B
 10
55.5365
 20
93.5257
 30
0.000000
  70
    32
  0
VERTEX
  8
0
  5
285C
 10
55.5633
 20
93.5141
 30
0.000000
  70
    32
  0
VERTEX
  8
0
  5
285D
 10
55.5901
 20
93.5028
 30
0.000000
  70
    32
  0
VERTEX
  8
0
  5
285E
 10
55.6170
 20
93.4917
 30
0.000000
  70
    32
  0
VERTEX
  8
0
  5
285F
 10
55.6439
 20
93.4809
 30
0.000000
  70
    32
  0
VERTEX
  8
0
  5
2860
 10
55.6709
 20
93.4703
 30
0.000000
  70
    32
  0
VERTEX
  8
0
  5
2861
 10
55.6980
 20
93.4601
 30
0.000000
  70
    32
  0
VERTEX
  8
0
  5
2862
 10
55.7251
 20
93.4501
 30
0.000000
  70
    32
  0
VERTEX
  8
0
  5
2863
 10
55.7522
 20
93.4403
 30
0.000000
  70
    32
  0
VERTEX
  8
0
  5
2864
 10
55.7794
 20
93.4308
 30
0.000000
  70
    32
  0
VERTEX
  8
0
  5
2865
 10
55.8066
 20
93.4216
 30
0.000000
  70
    32
  0
VERTEX
  8
0
  5
2866
 10
55.8339
 20
93.4127
 30
0.000000
  70
    32
  0
VERTEX
  8
0
  5
2867
 10
55.8612
 20
93.4040
 30
0.000000
  70
    32
  0
VERTEX
  8
0
  5
2868
 10
55.8886
 20
93.3957
 30
0.000000
  70
    32
  0
VERTEX
  8
0
  5
2869
 10
55.9160
 20
93.3875
 30
0.000000
  70
    32
  0
VERTEX
  8
0
  5
286A
 10
55.9435
 20
93.3797
 30
0.000000
  70
    32
  0
VERTEX
  8
0
  5
286B
 10
55.9709
 20
93.3721
 30
0.000000
  70
    32
  0
VERTEX
  8
0
  5
286C
 10
55.9985
 20
93.3648
 30
0.000000
  70
    32
  0
VERTEX
  8
0
  5
286D
 10
56.0260
 20
93.3578
 30
0.000000
  70
    32
  0
VERTEX
  8
0
  5
286E
 10
56.0536
 20
93.3510
 30
0.000000
  70
    32
  0
VERTEX
  8
0
  5
286F
 10
56.0812
 20
93.3445
 30
0.000000
  70
    32
  0
VERTEX
  8
0
  5
2870
 10
56.1089
 20
93.3383
 30
0.000000
  70
    32
  0
VERTEX
  8
0
  5
2871
 10
56.1366
 20
93.3324
 30
0.000000
  70
    32
  0
VERTEX
  8
0
  5
2872
 10
56.1643
 20
93.3267
 30
0.000000
  70
    32
  0
VERTEX
  8
0
  5
2873
 10
56.1920
 20
93.3213
 30
0.000000
  70
    32
  0
VERTEX
  8
0
  5
2874
 10
56.2198
 20
93.3162
 30
0.000000
  70
    32
  0
VERTEX
  8
0
  5
2875
 10
56.2476
 20
93.3114
 30
0.000000
  70
    32
  0
VERTEX
  8
0
  5
2876
 10
56.2754
 20
93.3068
 30
0.000000
  70
    32
  0
VERTEX
  8
0
  5
2877
 10
56.3032
 20
93.3025
 30
0.000000
  70
    32
  0
VERTEX
  8
0
  5
2878
 10
56.3311
 20
93.2985
 30
0.000000
  70
    32
  0
VERTEX
  8
0
  5
2879
 10
56.3590
 20
93.2948
 30
0.000000
  70
    32
  0
VERTEX
  8
0
  5
287A
 10
56.3869
 20
93.2913
 30
0.000000
  70
    32
  0
VERTEX
  8
0
  5
287B
 10
56.4148
 20
93.2881
 30
0.000000
  70
    32
  0
VERTEX
  8
0
  5
287C
 10
56.4427
 20
93.2852
 30
0.000000
  70
    32
  0
VERTEX
  8
0
  5
287D
 10
56.4707
 20
93.2826
 30
0.000000
  70
    32
  0
VERTEX
  8
0
  5
287E
 10
56.4986
 20
93.2802
 30
0.000000
  70
    32
  0
VERTEX
  8
0
  5
287F
 10
56.5266
 20
93.2782
 30
0.000000
  70
    32
  0
VERTEX
  8
0
  5
2880
 10
56.5545
 20
93.2764
 30
0.000000
  70
    32
  0
VERTEX
  8
0
  5
2881
 10
56.5825
 20
93.2748
 30
0.000000
  70
    32
  0
VERTEX
  8
0
  5
2882
 10
56.6105
 20
93.2736
 30
0.000000
  70
    32
  0
VERTEX
  8
0
  5
2883
 10
56.6385
 20
93.2726
 30
0.000000
  70
    32
  0
VERTEX
  8
0
  5
2884
 10
56.6665
 20
93.2719
 30
0.000000
  70
    32
  0
VERTEX
  8
0
  5
2885
 10
56.6945
 20
93.2715
 30
0.000000
  70
    32
  0
VERTEX
  8
0
  5
2886
 10
56.7225
 20
93.2714
 30
0.000000
  70
    32
  0
SEQEND
  8
0
  5
2887
  0
LINE
  5
210E
  8
0
 10
51.753049518586181
 20
106.65909056035321
 30
0.0
 11
53.599024155579059
 21
103.39583761168529
 31
0.0
  0
LINE
  5
210F
  8
0
 10
51.75304951858606
 20
98.657662025353204
 30
0.0
 11
53.599024155579059
 21
95.394409076685335
 31
0.0
  0
LINE
  5
2110
  8
0
 10
50.0
 20
114.27472029064231
 30
0.0
 11
50.0
 21
105.72527967017599
 31
0.0
  0
POLYLINE
  5
2111
  8
0
 10
49.999999999999915
 20
113.72670820517591
 30
0.0
 66
     1
 70
     8
  0
VERTEX
  8
0
  5
2888
 10
50.0000
 20
113.727
 30
0.000000
  70
    32
  0
VERTEX
  8
0
  5
2889
 10
50.0001
 20
113.667
 30
0.000000
  70
    32
  0
VERTEX
  8
0
  5
288A
 10
50.0004
 20
113.607
 30
0.000000
  70
    32
  0
VERTEX
  8
0
  5
288B
 10
50.0010
 20
113.548
 30
0.000000
  70
    32
  0
VERTEX
  8
0
  5
288C
 10
50.0018
 20
113.488
 30
0.000000
  70
    32
  0
VERTEX
  8
0
  5
288D
 10
50.0028
 20
113.429
 30
0.000000
  70
    32
  0
VERTEX
  8
0
  5
288E
 10
50.0040
 20
113.369
 30
0.000000
  70
    32
  0
VERTEX
  8
0
  5
288F
 10
50.0054
 20
113.309
 30
0.000000
  70
    32
  0
VERTEX
  8
0
  5
2890
 10
50.0071
 20
113.250
 30
0.000000
  70
    32
  0
VERTEX
  8
0
  5
2891
 10
50.0090
 20
113.190
 30
0.000000
  70
    32
  0
VERTEX
  8
0
  5
2892
 10
50.0111
 20
113.131
 30
0.000000
  70
    32
  0
VERTEX
  8
0
  5
2893
 10
50.0134
 20
113.071
 30
0.000000
  70
    32
  0
VERTEX
  8
0
  5
2894
 10
50.0160
 20
113.012
 30
0.000000
  70
    32
  0
VERTEX
  8
0
  5
2895
 10
50.0188
 20
112.952
 30
0.000000
  70
    32
  0
VERTEX
  8
0
  5
2896
 10
50.0218
 20
112.893
 30
0.000000
  70
    32
  0
VERTEX
  8
0
  5
2897
 10
50.0250
 20
112.833
 30
0.000000
  70
    32
  0
VERTEX
  8
0
  5
2898
 10
50.0284
 20
112.774
 30
0.000000
  70
    32
  0
VERTEX
  8
0
  5
2899
 10
50.0321
 20
112.714
 30
0.000000
  70
    32
  0
VERTEX
  8
0
  5
289A
 10
50.0360
 20
112.655
 30
0.000000
  70
    32
  0
VERTEX
  8
0
  5
289B
 10
50.0401
 20
112.595
 30
0.000000
  70
    32
  0
VERTEX
  8
0
  5
289C
 10
50.0444
 20
112.536
 30
0.000000
  70
    32
  0
VERTEX
  8
0
  5
289D
 10
50.0490
 20
112.477
 30
0.000000
  70
    32
  0
VERTEX
  8
0
  5
289E
 10
50.0537
 20
112.418
 30
0.000000
  70
    32
  0
VERTEX
  8
0
  5
289F
 10
50.0587
 20
112.358
 30
0.000000
  70
    32
  0
VERTEX
  8
0
  5
28A0
 10
50.0639
 20
112.299
 30
0.000000
  70
    32
  0
VERTEX
  8
0
  5
28A1
 10
50.0694
 20
112.240
 30
0.000000
  70
    32
  0
VERTEX
  8
0
  5
28A2
 10
50.0750
 20
112.181
 30
0.000000
  70
    32
  0
VERTEX
  8
0
  5
28A3
 10
50.0809
 20
112.122
 30
0.000000
  70
    32
  0
VERTEX
  8
0
  5
28A4
 10
50.0870
 20
112.063
 30
0.000000
  70
    32
  0
VERTEX
  8
0
  5
28A5
 10
50.0933
 20
112.004
 30
0.000000
  70
    32
  0
VERTEX
  8
0
  5
28A6
 10
50.0998
 20
111.945
 30
0.000000
  70
    32
  0
VERTEX
  8
0
  5
28A7
 10
50.1066
 20
111.886
 30
0.000000
  70
    32
  0
VERTEX
  8
0
  5
28A8
 10
50.1135
 20
111.827
 30
0.000000
  70
    32
  0
VERTEX
  8
0
  5
28A9
 10
50.1207
 20
111.769
 30
0.000000
  70
    32
  0
VERTEX
  8
0
  5
28AA
 10
50.1281
 20
111.710
 30
0.000000
  70
    32
  0
VERTEX
  8
0
  5
28AB
 10
50.1358
 20
111.651
 30
0.000000
  70
    32
  0
VERTEX
  8
0
  5
28AC
 10
50.1436
 20
111.593
 30
0.000000
  70
    32
  0
VERTEX
  8
0
  5
28AD
 10
50.1517
 20
111.534
 30
0.000000
  70
    32
  0
VERTEX
  8
0
  5
28AE
 10
50.1600
 20
111.476
 30
0.000000
  70
    32
  0
VERTEX
  8
0
  5
28AF
 10
50.1685
 20
111.417
 30
0.000000
  70
    32
  0
VERTEX
  8
0
  5
28B0
 10
50.1772
 20
111.359
 30
0.000000
  70
    32
  0
VERTEX
  8
0
  5
28B1
 10
50.1861
 20
111.300
 30
0.000000
  70
    32
  0
VERTEX
  8
0
  5
28B2
 10
50.1953
 20
111.242
 30
0.000000
  70
    32
  0
VERTEX
  8
0
  5
28B3
 10
50.2046
 20
111.184
 30
0.000000
  70
    32
  0
VERTEX
  8
0
  5
28B4
 10
50.2142
 20
111.126
 30
0.000000
  70
    32
  0
VERTEX
  8
0
  5
28B5
 10
50.2240
 20
111.068
 30
0.000000
  70
    32
  0
VERTEX
  8
0
  5
28B6
 10
50.2340
 20
111.010
 30
0.000000
  70
    32
  0
VERTEX
  8
0
  5
28B7
 10
50.2443
 20
110.952
 30
0.000000
  70
    32
  0
VERTEX
  8
0
  5
28B8
 10
50.2547
 20
110.894
 30
0.000000
  70
    32
  0
VERTEX
  8
0
  5
28B9
 10
50.2654
 20
110.837
 30
0.000000
  70
    32
  0
VERTEX
  8
0
  5
28BA
 10
50.2763
 20
110.779
 30
0.000000
  70
    32
  0
VERTEX
  8
0
  5
28BB
 10
50.2874
 20
110.722
 30
0.000000
  70
    32
  0
VERTEX
  8
0
  5
28BC
 10
50.2987
 20
110.664
 30
0.000000
  70
    32
  0
VERTEX
  8
0
  5
28BD
 10
50.3102
 20
110.607
 30
0.000000
  70
    32
  0
VERTEX
  8
0
  5
28BE
 10
50.3219
 20
110.550
 30
0.000000
  70
    32
  0
VERTEX
  8
0
  5
28BF
 10
50.3339
 20
110.492
 30
0.000000
  70
    32
  0
VERTEX
  8
0
  5
28C0
 10
50.3460
 20
110.435
 30
0.000000
  70
    32
  0
VERTEX
  8
0
  5
28C1
 10
50.3584
 20
110.378
 30
0.000000
  70
    32
  0
VERTEX
  8
0
  5
28C2
 10
50.3710
 20
110.321
 30
0.000000
  70
    32
  0
VERTEX
  8
0
  5
28C3
 10
50.3838
 20
110.264
 30
0.000000
  70
    32
  0
VERTEX
  8
0
  5
28C4
 10
50.3968
 20
110.208
 30
0.000000
  70
    32
  0
VERTEX
  8
0
  5
28C5
 10
50.4100
 20
110.151
 30
0.000000
  70
    32
  0
VERTEX
  8
0
  5
28C6
 10
50.4235
 20
110.095
 30
0.000000
  70
    32
  0
VERTEX
  8
0
  5
28C7
 10
50.4371
 20
110.038
 30
0.000000
  70
    32
  0
VERTEX
  8
0
  5
28C8
 10
50.4510
 20
109.982
 30
0.000000
  70
    32
  0
VERTEX
  8
0
  5
28C9
 10
50.4650
 20
109.926
 30
0.000000
  70
    32
  0
VERTEX
  8
0
  5
28CA
 10
50.4793
 20
109.869
 30
0.000000
  70
    32
  0
VERTEX
  8
0
  5
28CB
 10
50.4938
 20
109.813
 30
0.000000
  70
    32
  0
VERTEX
  8
0
  5
28CC
 10
50.5085
 20
109.758
 30
0.000000
  70
    32
  0
VERTEX
  8
0
  5
28CD
 10
50.5234
 20
109.702
 30
0.000000
  70
    32
  0
VERTEX
  8
0
  5
28CE
 10
50.5385
 20
109.646
 30
0.000000
  70
    32
  0
VERTEX
  8
0
  5
28CF
 10
50.5538
 20
109.590
 30
0.000000
  70
    32
  0
VERTEX
  8
0
  5
28D0
 10
50.5693
 20
109.535
 30
0.000000
  70
    32
  0
VERTEX
  8
0
  5
28D1
 10
50.5851
 20
109.480
 30
0.000000
  70
    32
  0
VERTEX
  8
0
  5
28D2
 10
50.6010
 20
109.424
 30
0.000000
  70
    32
  0
VERTEX
  8
0
  5
28D3
 10
50.6171
 20
109.369
 30
0.000000
  70
    32
  0
VERTEX
  8
0
  5
28D4
 10
50.6335
 20
109.314
 30
0.000000
  70
    32
  0
VERTEX
  8
0
  5
28D5
 10
50.6500
 20
109.260
 30
0.000000
  70
    32
  0
VERTEX
  8
0
  5
28D6
 10
50.6668
 20
109.205
 30
0.000000
  70
    32
  0
VERTEX
  8
0
  5
28D7
 10
50.6837
 20
109.150
 30
0.000000
  70
    32
  0
VERTEX
  8
0
  5
28D8
 10
50.7009
 20
109.096
 30
0.000000
  70
    32
  0
VERTEX
  8
0
  5
28D9
 10
50.7183
 20
109.041
 30
0.000000
  70
    32
  0
VERTEX
  8
0
  5
28DA
 10
50.7358
 20
108.987
 30
0.000000
  70
    32
  0
VERTEX
  8
0
  5
28DB
 10
50.7536
 20
108.933
 30
0.000000
  70
    32
  0
VERTEX
  8
0
  5
28DC
 10
50.7716
 20
108.879
 30
0.000000
  70
    32
  0
VERTEX
  8
0
  5
28DD
 10
50.7897
 20
108.825
 30
0.000000
  70
    32
  0
VERTEX
  8
0
  5
28DE
 10
50.8081
 20
108.772
 30
0.000000
  70
    32
  0
VERTEX
  8
0
  5
28DF
 10
50.8267
 20
108.718
 30
0.000000
  70
    32
  0
VERTEX
  8
0
  5
28E0
 10
50.8454
 20
108.665
 30
0.000000
  70
    32
  0
VERTEX
  8
0
  5
28E1
 10
50.8644
 20
108.611
 30
0.000000
  70
    32
  0
VERTEX
  8
0
  5
28E2
 10
50.8836
 20
108.558
 30
0.000000
  70
    32
  0
VERTEX
  8
0
  5
28E3
 10
50.9029
 20
108.505
 30
0.000000
  70
    32
  0
VERTEX
  8
0
  5
28E4
 10
50.9225
 20
108.452
 30
0.000000
  70
    32
  0
VERTEX
  8
0
  5
28E5
 10
50.9422
 20
108.400
 30
0.000000
  70
    32
  0
VERTEX
  8
0
  5
28E6
 10
50.9622
 20
108.347
 30
0.000000
  70
    32
  0
VERTEX
  8
0
  5
28E7
 10
50.9823
 20
108.295
 30
0.000000
  70
    32
  0
VERTEX
  8
0
  5
28E8
 10
51.0027
 20
108.243
 30
0.000000
  70
    32
  0
VERTEX
  8
0
  5
28E9
 10
51.0232
 20
108.191
 30
0.000000
  70
    32
  0
VERTEX
  8
0
  5
28EA
 10
51.0440
 20
108.139
 30
0.000000
  70
    32
  0
VERTEX
  8
0
  5
28EB
 10
51.0649
 20
108.087
 30
0.000000
  70
    32
  0
VERTEX
  8
0
  5
28EC
 10
51.0860
 20
108.035
 30
0.000000
  70
    32
  0
VERTEX
  8
0
  5
28ED
 10
51.1073
 20
107.984
 30
0.000000
  70
    32
  0
VERTEX
  8
0
  5
28EE
 10
51.1288
 20
107.932
 30
0.000000
  70
    32
  0
VERTEX
  8
0
  5
28EF
 10
51.1505
 20
107.881
 30
0.000000
  70
    32
  0
VERTEX
  8
0
  5
28F0
 10
51.1724
 20
107.830
 30
0.000000
  70
    32
  0
VERTEX
  8
0
  5
28F1
 10
51.1945
 20
107.779
 30
0.000000
  70
    32
  0
VERTEX
  8
0
  5
28F2
 10
51.2167
 20
107.729
 30
0.000000
  70
    32
  0
VERTEX
  8
0
  5
28F3
 10
51.2392
 20
107.678
 30
0.000000
  70
    32
  0
VERTEX
  8
0
  5
28F4
 10
51.2618
 20
107.628
 30
0.000000
  70
    32
  0
VERTEX
  8
0
  5
28F5
 10
51.2847
 20
107.578
 30
0.000000
  70
    32
  0
VERTEX
  8
0
  5
28F6
 10
51.3077
 20
107.528
 30
0.000000
  70
    32
  0
VERTEX
  8
0
  5
28F7
 10
51.3309
 20
107.478
 30
0.000000
  70
    32
  0
VERTEX
  8
0
  5
28F8
 10
51.3542
 20
107.428
 30
0.000000
  70
    32
  0
VERTEX
  8
0
  5
28F9
 10
51.3778
 20
107.379
 30
0.000000
  70
    32
  0
VERTEX
  8
0
  5
28FA
 10
51.4016
 20
107.330
 30
0.000000
  70
    32
  0
VERTEX
  8
0
  5
28FB
 10
51.4255
 20
107.281
 30
0.000000
  70
    32
  0
VERTEX
  8
0
  5
28FC
 10
51.4496
 20
107.232
 30
0.000000
  70
    32
  0
VERTEX
  8
0
  5
28FD
 10
51.4739
 20
107.183
 30
0.000000
  70
    32
  0
VERTEX
  8
0
  5
28FE
 10
51.4984
 20
107.134
 30
0.000000
  70
    32
  0
VERTEX
  8
0
  5
28FF
 10
51.5231
 20
107.086
 30
0.000000
  70
    32
  0
VERTEX
  8
0
  5
2900
 10
51.5479
 20
107.038
 30
0.000000
  70
    32
  0
VERTEX
  8
0
  5
2901
 10
51.5729
 20
106.990
 30
0.000000
  70
    32
  0
VERTEX
  8
0
  5
2902
 10
51.5981
 20
106.942
 30
0.000000
  70
    32
  0
VERTEX
  8
0
  5
2903
 10
51.6235
 20
106.894
 30
0.000000
  70
    32
  0
VERTEX
  8
0
  5
2904
 10
51.6491
 20
106.847
 30
0.000000
  70
    32
  0
VERTEX
  8
0
  5
2905
 10
51.6748
 20
106.800
 30
0.000000
  70
    32
  0
VERTEX
  8
0
  5
2906
 10
51.7007
 20
106.753
 30
0.000000
  70
    32
  0
VERTEX
  8
0
  5
2907
 10
51.7268
 20
106.706
 30
0.000000
  70
    32
  0
VERTEX
  8
0
  5
2908
 10
51.7530
 20
106.659
 30
0.000000
  70
    32
  0
SEQEND
  8
0
  5
2909
  0
POLYLINE
  5
2112
  8
0
 10
49.999999999999915
 20
105.72527967017589
 30
0.0
 66
     1
 70
     8
  0
VERTEX
  8
0
  5
290A
 10
50.0000
 20
105.725
 30
0.000000
  70
    32
  0
VERTEX
  8
0
  5
290B
 10
50.0001
 20
105.666
 30
0.000000
  70
    32
  0
VERTEX
  8
0
  5
290C
 10
50.0004
 20
105.606
 30
0.000000
  70
    32
  0
VERTEX
  8
0
  5
290D
 10
50.0010
 20
105.546
 30
0.000000
  70
    32
  0
VERTEX
  8
0
  5
290E
 10
50.0018
 20
105.487
 30
0.000000
  70
    32
  0
VERTEX
  8
0
  5
290F
 10
50.0028
 20
105.427
 30
0.000000
  70
    32
  0
VERTEX
  8
0
  5
2910
 10
50.0040
 20
105.368
 30
0.000000
  70
    32
  0
VERTEX
  8
0
  5
2911
 10
50.0054
 20
105.308
 30
0.000000
  70
    32
  0
VERTEX
  8
0
  5
2912
 10
50.0071
 20
105.248
 30
0.000000
  70
    32
  0
VERTEX
  8
0
  5
2913
 10
50.0090
 20
105.189
 30
0.000000
  70
    32
  0
VERTEX
  8
0
  5
2914
 10
50.0111
 20
105.129
 30
0.000000
  70
    32
  0
VERTEX
  8
0
  5
2915
 10
50.0134
 20
105.070
 30
0.000000
  70
    32
  0
VERTEX
  8
0
  5
2916
 10
50.0160
 20
105.010
 30
0.000000
  70
    32
  0
VERTEX
  8
0
  5
2917
 10
50.0188
 20
104.951
 30
0.000000
  70
    32
  0
VERTEX
  8
0
  5
2918
 10
50.0218
 20
104.891
 30
0.000000
  70
    32
  0
VERTEX
  8
0
  5
2919
 10
50.0250
 20
104.832
 30
0.000000
  70
    32
  0
VERTEX
  8
0
  5
291A
 10
50.0284
 20
104.772
 30
0.000000
  70
    32
  0
VERTEX
  8
0
  5
291B
 10
50.0321
 20
104.713
 30
0.000000
  70
    32
  0
VERTEX
  8
0
  5
291C
 10
50.0360
 20
104.653
 30
0.000000
  70
    32
  0
VERTEX
  8
0
  5
291D
 10
50.0401
 20
104.594
 30
0.000000
  70
    32
  0
VERTEX
  8
0
  5
291E
 10
50.0444
 20
104.535
 30
0.000000
  70
    32
  0
VERTEX
  8
0
  5
291F
 10
50.0490
 20
104.475
 30
0.000000
  70
    32
  0
VERTEX
  8
0
  5
2920
 10
50.0537
 20
104.416
 30
0.000000
  70
    32
  0
VERTEX
  8
0
  5
2921
 10
50.0587
 20
104.357
 30
0.000000
  70
    32
  0
VERTEX
  8
0
  5
2922
 10
50.0639
 20
104.298
 30
0.000000
  70
    32
  0
VERTEX
  8
0
  5
2923
 10
50.0694
 20
104.239
 30
0.000000
  70
    32
  0
VERTEX
  8
0
  5
2924
 10
50.0750
 20
104.180
 30
0.000000
  70
    32
  0
VERTEX
  8
0
  5
2925
 10
50.0809
 20
104.120
 30
0.000000
  70
    32
  0
VERTEX
  8
0
  5
2926
 10
50.0870
 20
104.061
 30
0.000000
  70
    32
  0
VERTEX
  8
0
  5
2927
 10
50.0933
 20
104.002
 30
0.000000
  70
    32
  0
VERTEX
  8
0
  5
2928
 10
50.0998
 20
103.944
 30
0.000000
  70
    32
  0
VERTEX
  8
0
  5
2929
 10
50.1066
 20
103.885
 30
0.000000
  70
    32
  0
VERTEX
  8
0
  5
292A
 10
50.1135
 20
103.826
 30
0.000000
  70
    32
  0
VERTEX
  8
0
  5
292B
 10
50.1207
 20
103.767
 30
0.000000
  70
    32
  0
VERTEX
  8
0
  5
292C
 10
50.1281
 20
103.708
 30
0.000000
  70
    32
  0
VERTEX
  8
0
  5
292D
 10
50.1358
 20
103.650
 30
0.000000
  70
    32
  0
VERTEX
  8
0
  5
292E
 10
50.1436
 20
103.591
 30
0.000000
  70
    32
  0
VERTEX
  8
0
  5
292F
 10
50.1517
 20
103.533
 30
0.000000
  70
    32
  0
VERTEX
  8
0
  5
2930
 10
50.1600
 20
103.474
 30
0.000000
  70
    32
  0
VERTEX
  8
0
  5
2931
 10
50.1685
 20
103.416
 30
0.000000
  70
    32
  0
VERTEX
  8
0
  5
2932
 10
50.1772
 20
103.357
 30
0.000000
  70
    32
  0
VERTEX
  8
0
  5
2933
 10
50.1861
 20
103.299
 30
0.000000
  70
    32
  0
VERTEX
  8
0
  5
2934
 10
50.1953
 20
103.241
 30
0.000000
  70
    32
  0
VERTEX
  8
0
  5
2935
 10
50.2046
 20
103.183
 30
0.000000
  70
    32
  0
VERTEX
  8
0
  5
2936
 10
50.2142
 20
103.125
 30
0.000000
  70
    32
  0
VERTEX
  8
0
  5
2937
 10
50.2240
 20
103.067
 30
0.000000
  70
    32
  0
VERTEX
  8
0
  5
2938
 10
50.2340
 20
103.009
 30
0.000000
  70
    32
  0
VERTEX
  8
0
  5
2939
 10
50.2443
 20
102.951
 30
0.000000
  70
    32
  0
VERTEX
  8
0
  5
293A
 10
50.2547
 20
102.893
 30
0.000000
  70
    32
  0
VERTEX
  8
0
  5
293B
 10
50.2654
 20
102.835
 30
0.000000
  70
    32
  0
VERTEX
  8
0
  5
293C
 10
50.2763
 20
102.778
 30
0.000000
  70
    32
  0
VERTEX
  8
0
  5
293D
 10
50.2874
 20
102.720
 30
0.000000
  70
    32
  0
VERTEX
  8
0
  5
293E
 10
50.2987
 20
102.663
 30
0.000000
  70
    32
  0
VERTEX
  8
0
  5
293F
 10
50.3102
 20
102.605
 30
0.000000
  70
    32
  0
VERTEX
  8
0
  5
2940
 10
50.3219
 20
102.548
 30
0.000000
  70
    32
  0
VERTEX
  8
0
  5
2941
 10
50.3339
 20
102.491
 30
0.000000
  70
    32
  0
VERTEX
  8
0
  5
2942
 10
50.3460
 20
102.434
 30
0.000000
  70
    32
  0
VERTEX
  8
0
  5
2943
 10
50.3584
 20
102.377
 30
0.000000
  70
    32
  0
VERTEX
  8
0
  5
2944
 10
50.3710
 20
102.320
 30
0.000000
  70
    32
  0
VERTEX
  8
0
  5
2945
 10
50.3838
 20
102.263
 30
0.000000
  70
    32
  0
VERTEX
  8
0
  5
2946
 10
50.3968
 20
102.206
 30
0.000000
  70
    32
  0
VERTEX
  8
0
  5
2947
 10
50.4100
 20
102.150
 30
0.000000
  70
    32
  0
VERTEX
  8
0
  5
2948
 10
50.4235
 20
102.093
 30
0.000000
  70
    32
  0
VERTEX
  8
0
  5
2949
 10
50.4371
 20
102.037
 30
0.000000
  70
    32
  0
VERTEX
  8
0
  5
294A
 10
50.4510
 20
101.980
 30
0.000000
  70
    32
  0
VERTEX
  8
0
  5
294B
 10
50.4650
 20
101.924
 30
0.000000
  70
    32
  0
VERTEX
  8
0
  5
294C
 10
50.4793
 20
101.868
 30
0.000000
  70
    32
  0
VERTEX
  8
0
  5
294D
 10
50.4938
 20
101.812
 30
0.000000
  70
    32
  0
VERTEX
  8
0
  5
294E
 10
50.5085
 20
101.756
 30
0.000000
  70
    32
  0
VERTEX
  8
0
  5
294F
 10
50.5234
 20
101.700
 30
0.000000
  70
    32
  0
VERTEX
  8
0
  5
2950
 10
50.5385
 20
101.645
 30
0.000000
  70
    32
  0
VERTEX
  8
0
  5
2951
 10
50.5538
 20
101.589
 30
0.000000
  70
    32
  0
VERTEX
  8
0
  5
2952
 10
50.5693
 20
101.534
 30
0.000000
  70
    32
  0
VERTEX
  8
0
  5
2953
 10
50.5851
 20
101.478
 30
0.000000
  70
    32
  0
VERTEX
  8
0
  5
2954
 10
50.6010
 20
101.423
 30
0.000000
  70
    32
  0
VERTEX
  8
0
  5
2955
 10
50.6171
 20
101.368
 30
0.000000
  70
    32
  0
VERTEX
  8
0
  5
2956
 10
50.6335
 20
101.313
 30
0.000000
  70
    32
  0
VERTEX
  8
0
  5
2957
 10
50.6500
 20
101.258
 30
0.000000
  70
    32
  0
VERTEX
  8
0
  5
2958
 10
50.6668
 20
101.203
 30
0.000000
  70
    32
  0
VERTEX
  8
0
  5
2959
 10
50.6837
 20
101.149
 30
0.000000
  70
    32
  0
VERTEX
  8
0
  5
295A
 10
50.7009
 20
101.094
 30
0.000000
  70
    32
  0
VERTEX
  8
0
  5
295B
 10
50.7183
 20
101.040
 30
0.000000
  70
    32
  0
VERTEX
  8
0
  5
295C
 10
50.7358
 20
100.986
 30
0.000000
  70
    32
  0
VERTEX
  8
0
  5
295D
 10
50.7536
 20
100.932
 30
0.000000
  70
    32
  0
VERTEX
  8
0
  5
295E
 10
50.7716
 20
100.878
 30
0.000000
  70
    32
  0
VERTEX
  8
0
  5
295F
 10
50.7897
 20
100.824
 30
0.000000
  70
    32
  0
VERTEX
  8
0
  5
2960
 10
50.8081
 20
100.770
 30
0.000000
  70
    32
  0
VERTEX
  8
0
  5
2961
 10
50.8267
 20
100.717
 30
0.000000
  70
    32
  0
VERTEX
  8
0
  5
2962
 10
50.8454
 20
100.663
 30
0.000000
  70
    32
  0
VERTEX
  8
0
  5
2963
 10
50.8644
 20
100.610
 30
0.000000
  70
    32
  0
VERTEX
  8
0
  5
2964
 10
50.8836
 20
100.557
 30
0.000000
  70
    32
  0
VERTEX
  8
0
  5
2965
 10
50.9029
 20
100.504
 30
0.000000
  70
    32
  0
VERTEX
  8
0
  5
2966
 10
50.9225
 20
100.451
 30
0.000000
  70
    32
  0
VERTEX
  8
0
  5
2967
 10
50.9422
 20
100.398
 30
0.000000
  70
    32
  0
VERTEX
  8
0
  5
2968
 10
50.9622
 20
100.346
 30
0.000000
  70
    32
  0
VERTEX
  8
0
  5
2969
 10
50.9823
 20
100.293
 30
0.000000
  70
    32
  0
VERTEX
  8
0
  5
296A
 10
51.0027
 20
100.241
 30
0.000000
  70
    32
  0
VERTEX
  8
0
  5
296B
 10
51.0232
 20
100.189
 30
0.000000
  70
    32
  0
VERTEX
  8
0
  5
296C
 10
51.0440
 20
100.137
 30
0.000000
  70
    32
  0
VERTEX
  8
0
  5
296D
 10
51.0649
 20
100.085
 30
0.000000
  70
    32
  0
VERTEX
  8
0
  5
296E
 10
51.0860
 20
100.034
 30
0.000000
  70
    32
  0
VERTEX
  8
0
  5
296F
 10
51.1073
 20
99.9823
 30
0.000000
  70
    32
  0
VERTEX
  8
0
  5
2970
 10
51.1288
 20
99.9310
 30
0.000000
  70
    32
  0
VERTEX
  8
0
  5
2971
 10
51.1505
 20
99.8798
 30
0.000000
  70
    32
  0
VERTEX
  8
0
  5
2972
 10
51.1724
 20
99.8289
 30
0.000000
  70
    32
  0
VERTEX
  8
0
  5
2973
 10
51.1945
 20
99.7780
 30
0.000000
  70
    32
  0
VERTEX
  8
0
  5
2974
 10
51.2167
 20
99.7274
 30
0.000000
  70
    32
  0
VERTEX
  8
0
  5
2975
 10
51.2392
 20
99.6769
 30
0.000000
  70
    32
  0
VERTEX
  8
0
  5
2976
 10
51.2618
 20
99.6266
 30
0.000000
  70
    32
  0
VERTEX
  8
0
  5
2977
 10
51.2847
 20
99.5764
 30
0.000000
  70
    32
  0
VERTEX
  8
0
  5
2978
 10
51.3077
 20
99.5265
 30
0.000000
  70
    32
  0
VERTEX
  8
0
  5
2979
 10
51.3309
 20
99.4767
 30
0.000000
  70
    32
  0
VERTEX
  8
0
  5
297A
 10
51.3542
 20
99.4270
 30
0.000000
  70
    32
  0
VERTEX
  8
0
  5
297B
 10
51.3778
 20
99.3776
 30
0.000000
  70
    32
  0
VERTEX
  8
0
  5
297C
 10
51.4016
 20
99.3283
 30
0.000000
  70
    32
  0
VERTEX
  8
0
  5
297D
 10
51.4255
 20
99.2792
 30
0.000000
  70
    32
  0
VERTEX
  8
0
  5
297E
 10
51.4496
 20
99.2303
 30
0.000000
  70
    32
  0
VERTEX
  8
0
  5
297F
 10
51.4739
 20
99.1815
 30
0.000000
  70
    32
  0
VERTEX
  8
0
  5
2980
 10
51.4984
 20
99.1330
 30
0.000000
  70
    32
  0
VERTEX
  8
0
  5
2981
 10
51.5231
 20
99.0846
 30
0.000000
  70
    32
  0
VERTEX
  8
0
  5
2982
 10
51.5479
 20
99.0364
 30
0.000000
  70
    32
  0
VERTEX
  8
0
  5
2983
 10
51.5729
 20
98.9884
 30
0.000000
  70
    32
  0
VERTEX
  8
0
  5
2984
 10
51.5981
 20
98.9406
 30
0.000000
  70
    32
  0
VERTEX
  8
0
  5
2985
 10
51.6235
 20
98.8929
 30
0.000000
  70
    32
  0
VERTEX
  8
0
  5
2986
 10
51.6491
 20
98.8455
 30
0.000000
  70
    32
  0
VERTEX
  8
0
  5
2987
 10
51.6748
 20
98.7983
 30
0.000000
  70
    32
  0
VERTEX
  8
0
  5
2988
 10
51.7007
 20
98.7512
 30
0.000000
  70
    32
  0
VERTEX
  8
0
  5
2989
 10
51.7268
 20
98.7043
 30
0.000000
  70
    32
  0
VERTEX
  8
0
  5
298A
 10
51.7530
 20
98.6577
 30
0.000000
  70
    32
  0
SEQEND
  8
0
  5
298B
  0
POLYLINE
  5
2114
  8
0
 10
51.75304953588838
 20
121.34233800523185
 30
0.0
 66
     1
 70
     8
  0
VERTEX
  8
0
  5
298C
 10
51.7530
 20
121.342
 30
0.000000
  70
    32
  0
VERTEX
  8
0
  5
298D
 10
51.7268
 20
121.296
 30
0.000000
  70
    32
  0
VERTEX
  8
0
  5
298E
 10
51.7007
 20
121.249
 30
0.000000
  70
    32
  0
VERTEX
  8
0
  5
298F
 10
51.6748
 20
121.202
 30
0.000000
  70
    32
  0
VERTEX
  8
0
  5
2990
 10
51.6491
 20
121.154
 30
0.000000
  70
    32
  0
VERTEX
  8
0
  5
2991
 10
51.6235
 20
121.107
 30
0.000000
  70
    32
  0
VERTEX
  8
0
  5
2992
 10
51.5981
 20
121.059
 30
0.000000
  70
    32
  0
VERTEX
  8
0
  5
2993
 10
51.5729
 20
121.012
 30
0.000000
  70
    32
  0
VERTEX
  8
0
  5
2994
 10
51.5479
 20
120.964
 30
0.000000
  70
    32
  0
VERTEX
  8
0
  5
2995
 10
51.5231
 20
120.915
 30
0.000000
  70
    32
  0
VERTEX
  8
0
  5
2996
 10
51.4984
 20
120.867
 30
0.000000
  70
    32
  0
VERTEX
  8
0
  5
2997
 10
51.4739
 20
120.818
 30
0.000000
  70
    32
  0
VERTEX
  8
0
  5
2998
 10
51.4496
 20
120.770
 30
0.000000
  70
    32
  0
VERTEX
  8
0
  5
2999
 10
51.4255
 20
120.721
 30
0.000000
  70
    32
  0
VERTEX
  8
0
  5
299A
 10
51.4016
 20
120.672
 30
0.000000
  70
    32
  0
VERTEX
  8
0
  5
299B
 10
51.3778
 20
120.622
 30
0.000000
  70
    32
  0
VERTEX
  8
0
  5
299C
 10
51.3542
 20
120.573
 30
0.000000
  70
    32
  0
VERTEX
  8
0
  5
299D
 10
51.3309
 20
120.523
 30
0.000000
  70
    32
  0
VERTEX
  8
0
  5
299E
 10
51.3077
 20
120.474
 30
0.000000
  70
    32
  0
VERTEX
  8
0
  5
299F
 10
51.2847
 20
120.424
 30
0.000000
  70
    32
  0
VERTEX
  8
0
  5
29A0
 10
51.2618
 20
120.373
 30
0.000000
  70
    32
  0
VERTEX
  8
0
  5
29A1
 10
51.2392
 20
120.323
 30
0.000000
  70
    32
  0
VERTEX
  8
0
  5
29A2
 10
51.2167
 20
120.273
 30
0.000000
  70
    32
  0
VERTEX
  8
0
  5
29A3
 10
51.1945
 20
120.222
 30
0.000000
  70
    32
  0
VERTEX
  8
0
  5
29A4
 10
51.1724
 20
120.171
 30
0.000000
  70
    32
  0
VERTEX
  8
0
  5
29A5
 10
51.1505
 20
120.120
 30
0.000000
  70
    32
  0
VERTEX
  8
0
  5
29A6
 10
51.1288
 20
120.069
 30
0.000000
  70
    32
  0
VERTEX
  8
0
  5
29A7
 10
51.1073
 20
120.018
 30
0.000000
  70
    32
  0
VERTEX
  8
0
  5
29A8
 10
51.0860
 20
119.966
 30
0.000000
  70
    32
  0
VERTEX
  8
0
  5
29A9
 10
51.0649
 20
119.915
 30
0.000000
  70
    32
  0
VERTEX
  8
0
  5
29AA
 10
51.0440
 20
119.863
 30
0.000000
  70
    32
  0
VERTEX
  8
0
  5
29AB
 10
51.0232
 20
119.811
 30
0.000000
  70
    32
  0
VERTEX
  8
0
  5
29AC
 10
51.0027
 20
119.759
 30
0.000000
  70
    32
  0
VERTEX
  8
0
  5
29AD
 10
50.9823
 20
119.707
 30
0.000000
  70
    32
  0
VERTEX
  8
0
  5
29AE
 10
50.9622
 20
119.654
 30
0.000000
  70
    32
  0
VERTEX
  8
0
  5
29AF
 10
50.9422
 20
119.602
 30
0.000000
  70
    32
  0
VERTEX
  8
0
  5
29B0
 10
50.9225
 20
119.549
 30
0.000000
  70
    32
  0
VERTEX
  8
0
  5
29B1
 10
50.9029
 20
119.496
 30
0.000000
  70
    32
  0
VERTEX
  8
0
  5
29B2
 10
50.8836
 20
119.443
 30
0.000000
  70
    32
  0
VERTEX
  8
0
  5
29B3
 10
50.8644
 20
119.390
 30
0.000000
  70
    32
  0
VERTEX
  8
0
  5
29B4
 10
50.8454
 20
119.337
 30
0.000000
  70
    32
  0
VERTEX
  8
0
  5
29B5
 10
50.8267
 20
119.283
 30
0.000000
  70
    32
  0
VERTEX
  8
0
  5
29B6
 10
50.8081
 20
119.230
 30
0.000000
  70
    32
  0
VERTEX
  8
0
  5
29B7
 10
50.7897
 20
119.176
 30
0.000000
  70
    32
  0
VERTEX
  8
0
  5
29B8
 10
50.7716
 20
119.122
 30
0.000000
  70
    32
  0
VERTEX
  8
0
  5
29B9
 10
50.7536
 20
119.068
 30
0.000000
  70
    32
  0
VERTEX
  8
0
  5
29BA
 10
50.7358
 20
119.014
 30
0.000000
  70
    32
  0
VERTEX
  8
0
  5
29BB
 10
50.7183
 20
118.960
 30
0.000000
  70
    32
  0
VERTEX
  8
0
  5
29BC
 10
50.7009
 20
118.906
 30
0.000000
  70
    32
  0
VERTEX
  8
0
  5
29BD
 10
50.6837
 20
118.851
 30
0.000000
  70
    32
  0
VERTEX
  8
0
  5
29BE
 10
50.6668
 20
118.797
 30
0.000000
  70
    32
  0
VERTEX
  8
0
  5
29BF
 10
50.6500
 20
118.742
 30
0.000000
  70
    32
  0
VERTEX
  8
0
  5
29C0
 10
50.6335
 20
118.687
 30
0.000000
  70
    32
  0
VERTEX
  8
0
  5
29C1
 10
50.6171
 20
118.632
 30
0.000000
  70
    32
  0
VERTEX
  8
0
  5
29C2
 10
50.6010
 20
118.577
 30
0.000000
  70
    32
  0
VERTEX
  8
0
  5
29C3
 10
50.5851
 20
118.522
 30
0.000000
  70
    32
  0
VERTEX
  8
0
  5
29C4
 10
50.5693
 20
118.466
 30
0.000000
  70
    32
  0
VERTEX
  8
0
  5
29C5
 10
50.5538
 20
118.411
 30
0.000000
  70
    32
  0
VERTEX
  8
0
  5
29C6
 10
50.5385
 20
118.355
 30
0.000000
  70
    32
  0
VERTEX
  8
0
  5
29C7
 10
50.5234
 20
118.300
 30
0.000000
  70
    32
  0
VERTEX
  8
0
  5
29C8
 10
50.5085
 20
118.244
 30
0.000000
  70
    32
  0
VERTEX
  8
0
  5
29C9
 10
50.4938
 20
118.188
 30
0.000000
  70
    32
  0
VERTEX
  8
0
  5
29CA
 10
50.4793
 20
118.132
 30
0.000000
  70
    32
  0
VERTEX
  8
0
  5
29CB
 10
50.4650
 20
118.076
 30
0.000000
  70
    32
  0
VERTEX
  8
0
  5
29CC
 10
50.4510
 20
118.020
 30
0.000000
  70
    32
  0
VERTEX
  8
0
  5
29CD
 10
50.4371
 20
117.963
 30
0.000000
  70
    32
  0
VERTEX
  8
0
  5
29CE
 10
50.4235
 20
117.907
 30
0.000000
  70
    32
  0
VERTEX
  8
0
  5
29CF
 10
50.4100
 20
117.850
 30
0.000000
  70
    32
  0
VERTEX
  8
0
  5
29D0
 10
50.3968
 20
117.794
 30
0.000000
  70
    32
  0
VERTEX
  8
0
  5
29D1
 10
50.3838
 20
117.737
 30
0.000000
  70
    32
  0
VERTEX
  8
0
  5
29D2
 10
50.3710
 20
117.680
 30
0.000000
  70
    32
  0
VERTEX
  8
0
  5
29D3
 10
50.3584
 20
117.623
 30
0.000000
  70
    32
  0
VERTEX
  8
0
  5
29D4
 10
50.3460
 20
117.566
 30
0.000000
  70
    32
  0
VERTEX
  8
0
  5
29D5
 10
50.3339
 20
117.509
 30
0.000000
  70
    32
  0
VERTEX
  8
0
  5
29D6
 10
50.3219
 20
117.452
 30
0.000000
  70
    32
  0
VERTEX
  8
0
  5
29D7
 10
50.3102
 20
117.395
 30
0.000000
  70
    32
  0
VERTEX
  8
0
  5
29D8
 10
50.2987
 20
117.337
 30
0.000000
  70
    32
  0
VERTEX
  8
0
  5
29D9
 10
50.2874
 20
117.280
 30
0.000000
  70
    32
  0
VERTEX
  8
0
  5
29DA
 10
50.2763
 20
117.222
 30
0.000000
  70
    32
  0
VERTEX
  8
0
  5
29DB
 10
50.2654
 20
117.165
 30
0.000000
  70
    32
  0
VERTEX
  8
0
  5
29DC
 10
50.2547
 20
117.107
 30
0.000000
  70
    32
  0
VERTEX
  8
0
  5
29DD
 10
50.2443
 20
117.049
 30
0.000000
  70
    32
  0
VERTEX
  8
0
  5
29DE
 10
50.2340
 20
116.991
 30
0.000000
  70
    32
  0
VERTEX
  8
0
  5
29DF
 10
50.2240
 20
116.933
 30
0.000000
  70
    32
  0
VERTEX
  8
0
  5
29E0
 10
50.2142
 20
116.875
 30
0.000000
  70
    32
  0
VERTEX
  8
0
  5
29E1
 10
50.2046
 20
116.817
 30
0.000000
  70
    32
  0
VERTEX
  8
0
  5
29E2
 10
50.1953
 20
116.759
 30
0.000000
  70
    32
  0
VERTEX
  8
0
  5
29E3
 10
50.1861
 20
116.701
 30
0.000000
  70
    32
  0
VERTEX
  8
0
  5
29E4
 10
50.1772
 20
116.643
 30
0.000000
  70
    32
  0
VERTEX
  8
0
  5
29E5
 10
50.1685
 20
116.584
 30
0.000000
  70
    32
  0
VERTEX
  8
0
  5
29E6
 10
50.1600
 20
116.526
 30
0.000000
  70
    32
  0
VERTEX
  8
0
  5
29E7
 10
50.1517
 20
116.467
 30
0.000000
  70
    32
  0
VERTEX
  8
0
  5
29E8
 10
50.1436
 20
116.409
 30
0.000000
  70
    32
  0
VERTEX
  8
0
  5
29E9
 10
50.1358
 20
116.350
 30
0.000000
  70
    32
  0
VERTEX
  8
0
  5
29EA
 10
50.1281
 20
116.292
 30
0.000000
  70
    32
  0
VERTEX
  8
0
  5
29EB
 10
50.1207
 20
116.233
 30
0.000000
  70
    32
  0
VERTEX
  8
0
  5
29EC
 10
50.1135
 20
116.174
 30
0.000000
  70
    32
  0
VERTEX
  8
0
  5
29ED
 10
50.1066
 20
116.115
 30
0.000000
  70
    32
  0
VERTEX
  8
0
  5
29EE
 10
50.0998
 20
116.056
 30
0.000000
  70
    32
  0
VERTEX
  8
0
  5
29EF
 10
50.0933
 20
115.998
 30
0.000000
  70
    32
  0
VERTEX
  8
0
  5
29F0
 10
50.0870
 20
115.939
 30
0.000000
  70
    32
  0
VERTEX
  8
0
  5
29F1
 10
50.0809
 20
115.880
 30
0.000000
  70
    32
  0
VERTEX
  8
0
  5
29F2
 10
50.0750
 20
115.820
 30
0.000000
  70
    32
  0
VERTEX
  8
0
  5
29F3
 10
50.0694
 20
115.761
 30
0.000000
  70
    32
  0
VERTEX
  8
0
  5
29F4
 10
50.0639
 20
115.702
 30
0.000000
  70
    32
  0
VERTEX
  8
0
  5
29F5
 10
50.0587
 20
115.643
 30
0.000000
  70
    32
  0
VERTEX
  8
0
  5
29F6
 10
50.0537
 20
115.584
 30
0.000000
  70
    32
  0
VERTEX
  8
0
  5
29F7
 10
50.0490
 20
115.525
 30
0.000000
  70
    32
  0
VERTEX
  8
0
  5
29F8
 10
50.0444
 20
115.465
 30
0.000000
  70
    32
  0
VERTEX
  8
0
  5
29F9
 10
50.0401
 20
115.406
 30
0.000000
  70
    32
  0
VERTEX
  8
0
  5
29FA
 10
50.0360
 20
115.347
 30
0.000000
  70
    32
  0
VERTEX
  8
0
  5
29FB
 10
50.0321
 20
115.287
 30
0.000000
  70
    32
  0
VERTEX
  8
0
  5
29FC
 10
50.0284
 20
115.228
 30
0.000000
  70
    32
  0
VERTEX
  8
0
  5
29FD
 10
50.0250
 20
115.168
 30
0.000000
  70
    32
  0
VERTEX
  8
0
  5
29FE
 10
50.0218
 20
115.109
 30
0.000000
  70
    32
  0
VERTEX
  8
0
  5
29FF
 10
50.0188
 20
115.049
 30
0.000000
  70
    32
  0
VERTEX
  8
0
  5
2A00
 10
50.0160
 20
114.990
 30
0.000000
  70
    32
  0
VERTEX
  8
0
  5
2A01
 10
50.0134
 20
114.930
 30
0.000000
  70
    32
  0
VERTEX
  8
0
  5
2A02
 10
50.0111
 20
114.871
 30
0.000000
  70
    32
  0
VERTEX
  8
0
  5
2A03
 10
50.0090
 20
114.811
 30
0.000000
  70
    32
  0
VERTEX
  8
0
  5
2A04
 10
50.0071
 20
114.752
 30
0.000000
  70
    32
  0
VERTEX
  8
0
  5
2A05
 10
50.0054
 20
114.692
 30
0.000000
  70
    32
  0
VERTEX
  8
0
  5
2A06
 10
50.0040
 20
114.632
 30
0.000000
  70
    32
  0
VERTEX
  8
0
  5
2A07
 10
50.0028
 20
114.573
 30
0.000000
  70
    32
  0
VERTEX
  8
0
  5
2A08
 10
50.0018
 20
114.513
 30
0.000000
  70
    32
  0
VERTEX
  8
0
  5
2A09
 10
50.0010
 20
114.454
 30
0.000000
  70
    32
  0
VERTEX
  8
0
  5
2A0A
 10
50.0004
 20
114.394
 30
0.000000
  70
    32
  0
VERTEX
  8
0
  5
2A0B
 10
50.0001
 20
114.334
 30
0.000000
  70
    32
  0
VERTEX
  8
0
  5
2A0C
 10
50.0000
 20
114.275
 30
0.000000
  70
    32
  0
SEQEND
  8
0
  5
2A0D
  0
LINE
  5
2115
  8
0
 10
53.59902415558372
 20
124.60559092332279
 30
0.0
 11
51.753049535890803
 21
121.34233800522919
 31
0.0
  0
POLYLINE
  5
2116
  8
0
 10
56.722499389999939
 20
126.72863632885777
 30
0.0
 66
     1
 70
     8
  0
VERTEX
  8
0
  5
2A0E
 10
56.7225
 20
126.729
 30
0.000000
  70
    32
  0
VERTEX
  8
0
  5
2A0F
 10
56.6945
 20
126.728
 30
0.000000
  70
    32
  0
VERTEX
  8
0
  5
2A10
 10
56.6665
 20
126.728
 30
0.000000
  70
    32
  0
VERTEX
  8
0
  5
2A11
 10
56.6385
 20
126.727
 30
0.000000
  70
    32
  0
VERTEX
  8
0
  5
2A12
 10
56.6105
 20
126.726
 30
0.000000
  70
    32
  0
VERTEX
  8
0
  5
2A13
 10
56.5825
 20
126.725
 30
0.000000
  70
    32
  0
VERTEX
  8
0
  5
2A14
 10
56.5545
 20
126.724
 30
0.000000
  70
    32
  0
VERTEX
  8
0
  5
2A15
 10
56.5266
 20
126.722
 30
0.000000
  70
    32
  0
VERTEX
  8
0
  5
2A16
 10
56.4986
 20
126.720
 30
0.000000
  70
    32
  0
VERTEX
  8
0
  5
2A17
 10
56.4707
 20
126.717
 30
0.000000
  70
    32
  0
VERTEX
  8
0
  5
2A18
 10
56.4427
 20
126.715
 30
0.000000
  70
    32
  0
VERTEX
  8
0
  5
2A19
 10
56.4148
 20
126.712
 30
0.000000
  70
    32
  0
VERTEX
  8
0
  5
2A1A
 10
56.3869
 20
126.709
 30
0.000000
  70
    32
  0
VERTEX
  8
0
  5
2A1B
 10
56.3590
 20
126.705
 30
0.000000
  70
    32
  0
VERTEX
  8
0
  5
2A1C
 10
56.3311
 20
126.701
 30
0.000000
  70
    32
  0
VERTEX
  8
0
  5
2A1D
 10
56.3032
 20
126.697
 30
0.000000
  70
    32
  0
VERTEX
  8
0
  5
2A1E
 10
56.2754
 20
126.693
 30
0.000000
  70
    32
  0
VERTEX
  8
0
  5
2A1F
 10
56.2476
 20
126.689
 30
0.000000
  70
    32
  0
VERTEX
  8
0
  5
2A20
 10
56.2198
 20
126.684
 30
0.000000
  70
    32
  0
VERTEX
  8
0
  5
2A21
 10
56.1920
 20
126.679
 30
0.000000
  70
    32
  0
VERTEX
  8
0
  5
2A22
 10
56.1643
 20
126.673
 30
0.000000
  70
    32
  0
VERTEX
  8
0
  5
2A23
 10
56.1366
 20
126.668
 30
0.000000
  70
    32
  0
VERTEX
  8
0
  5
2A24
 10
56.1089
 20
126.662
 30
0.000000
  70
    32
  0
VERTEX
  8
0
  5
2A25
 10
56.0812
 20
126.655
 30
0.000000
  70
    32
  0
VERTEX
  8
0
  5
2A26
 10
56.0536
 20
126.649
 30
0.000000
  70
    32
  0
VERTEX
  8
0
  5
2A27
 10
56.0260
 20
126.642
 30
0.000000
  70
    32
  0
VERTEX
  8
0
  5
2A28
 10
55.9985
 20
126.635
 30
0.000000
  70
    32
  0
VERTEX
  8
0
  5
2A29
 10
55.9709
 20
126.628
 30
0.000000
  70
    32
  0
VERTEX
  8
0
  5
2A2A
 10
55.9435
 20
126.620
 30
0.000000
  70
    32
  0
VERTEX
  8
0
  5
2A2B
 10
55.9160
 20
126.612
 30
0.000000
  70
    32
  0
VERTEX
  8
0
  5
2A2C
 10
55.8886
 20
126.604
 30
0.000000
  70
    32
  0
VERTEX
  8
0
  5
2A2D
 10
55.8612
 20
126.596
 30
0.000000
  70
    32
  0
VERTEX
  8
0
  5
2A2E
 10
55.8339
 20
126.587
 30
0.000000
  70
    32
  0
VERTEX
  8
0
  5
2A2F
 10
55.8066
 20
126.578
 30
0.000000
  70
    32
  0
VERTEX
  8
0
  5
2A30
 10
55.7794
 20
126.569
 30
0.000000
  70
    32
  0
VERTEX
  8
0
  5
2A31
 10
55.7522
 20
126.560
 30
0.000000
  70
    32
  0
VERTEX
  8
0
  5
2A32
 10
55.7251
 20
126.550
 30
0.000000
  70
    32
  0
VERTEX
  8
0
  5
2A33
 10
55.6980
 20
126.540
 30
0.000000
  70
    32
  0
VERTEX
  8
0
  5
2A34
 10
55.6709
 20
126.530
 30
0.000000
  70
    32
  0
VERTEX
  8
0
  5
2A35
 10
55.6439
 20
126.519
 30
0.000000
  70
    32
  0
VERTEX
  8
0
  5
2A36
 10
55.6170
 20
126.508
 30
0.000000
  70
    32
  0
VERTEX
  8
0
  5
2A37
 10
55.5901
 20
126.497
 30
0.000000
  70
    32
  0
VERTEX
  8
0
  5
2A38
 10
55.5633
 20
126.486
 30
0.000000
  70
    32
  0
VERTEX
  8
0
  5
2A39
 10
55.5365
 20
126.474
 30
0.000000
  70
    32
  0
VERTEX
  8
0
  5
2A3A
 10
55.5098
 20
126.462
 30
0.000000
  70
    32
  0
VERTEX
  8
0
  5
2A3B
 10
55.4832
 20
126.450
 30
0.000000
  70
    32
  0
VERTEX
  8
0
  5
2A3C
 10
55.4566
 20
126.438
 30
0.000000
  70
    32
  0
VERTEX
  8
0
  5
2A3D
 10
55.4300
 20
126.425
 30
0.000000
  70
    32
  0
VERTEX
  8
0
  5
2A3E
 10
55.4036
 20
126.412
 30
0.000000
  70
    32
  0
VERTEX
  8
0
  5
2A3F
 10
55.3772
 20
126.399
 30
0.000000
  70
    32
  0
VERTEX
  8
0
  5
2A40
 10
55.3508
 20
126.386
 30
0.000000
  70
    32
  0
VERTEX
  8
0
  5
2A41
 10
55.3246
 20
126.372
 30
0.000000
  70
    32
  0
VERTEX
  8
0
  5
2A42
 10
55.2984
 20
126.358
 30
0.000000
  70
    32
  0
VERTEX
  8
0
  5
2A43
 10
55.2722
 20
126.344
 30
0.000000
  70
    32
  0
VERTEX
  8
0
  5
2A44
 10
55.2462
 20
126.329
 30
0.000000
  70
    32
  0
VERTEX
  8
0
  5
2A45
 10
55.2202
 20
126.314
 30
0.000000
  70
    32
  0
VERTEX
  8
0
  5
2A46
 10
55.1943
 20
126.299
 30
0.000000
  70
    32
  0
VERTEX
  8
0
  5
2A47
 10
55.1684
 20
126.284
 30
0.000000
  70
    32
  0
VERTEX
  8
0
  5
2A48
 10
55.1427
 20
126.269
 30
0.000000
  70
    32
  0
VERTEX
  8
0
  5
2A49
 10
55.1170
 20
126.253
 30
0.000000
  70
    32
  0
VERTEX
  8
0
  5
2A4A
 10
55.0914
 20
126.237
 30
0.000000
  70
    32
  0
VERTEX
  8
0
  5
2A4B
 10
55.0658
 20
126.221
 30
0.000000
  70
    32
  0
VERTEX
  8
0
  5
2A4C
 10
55.0404
 20
126.204
 30
0.000000
  70
    32
  0
VERTEX
  8
0
  5
2A4D
 10
55.0150
 20
126.187
 30
0.000000
  70
    32
  0
VERTEX
  8
0
  5
2A4E
 10
54.9897
 20
126.170
 30
0.000000
  70
    32
  0
VERTEX
  8
0
  5
2A4F
 10
54.9645
 20
126.153
 30
0.000000
  70
    32
  0
VERTEX
  8
0
  5
2A50
 10
54.9394
 20
126.136
 30
0.000000
  70
    32
  0
VERTEX
  8
0
  5
2A51
 10
54.9144
 20
126.118
 30
0.000000
  70
    32
  0
VERTEX
  8
0
  5
2A52
 10
54.8895
 20
126.100
 30
0.000000
  70
    32
  0
VERTEX
  8
0
  5
2A53
 10
54.8646
 20
126.081
 30
0.000000
  70
    32
  0
VERTEX
  8
0
  5
2A54
 10
54.8399
 20
126.063
 30
0.000000
  70
    32
  0
VERTEX
  8
0
  5
2A55
 10
54.8152
 20
126.044
 30
0.000000
  70
    32
  0
VERTEX
  8
0
  5
2A56
 10
54.7907
 20
126.025
 30
0.000000
  70
    32
  0
VERTEX
  8
0
  5
2A57
 10
54.7662
 20
126.006
 30
0.000000
  70
    32
  0
VERTEX
  8
0
  5
2A58
 10
54.7418
 20
125.986
 30
0.000000
  70
    32
  0
VERTEX
  8
0
  5
2A59
 10
54.7175
 20
125.967
 30
0.000000
  70
    32
  0
VERTEX
  8
0
  5
2A5A
 10
54.6934
 20
125.947
 30
0.000000
  70
    32
  0
VERTEX
  8
0
  5
2A5B
 10
54.6693
 20
125.927
 30
0.000000
  70
    32
  0
VERTEX
  8
0
  5
2A5C
 10
54.6453
 20
125.906
 30
0.000000
  70
    32
  0
VERTEX
  8
0
  5
2A5D
 10
54.6214
 20
125.885
 30
0.000000
  70
    32
  0
VERTEX
  8
0
  5
2A5E
 10
54.5976
 20
125.864
 30
0.000000
  70
    32
  0
VERTEX
  8
0
  5
2A5F
 10
54.5740
 20
125.843
 30
0.000000
  70
    32
  0
VERTEX
  8
0
  5
2A60
 10
54.5504
 20
125.822
 30
0.000000
  70
    32
  0
VERTEX
  8
0
  5
2A61
 10
54.5269
 20
125.800
 30
0.000000
  70
    32
  0
VERTEX
  8
0
  5
2A62
 10
54.5036
 20
125.778
 30
0.000000
  70
    32
  0
VERTEX
  8
0
  5
2A63
 10
54.4803
 20
125.756
 30
0.000000
  70
    32
  0
VERTEX
  8
0
  5
2A64
 10
54.4572
 20
125.734
 30
0.000000
  70
    32
  0
VERTEX
  8
0
  5
2A65
 10
54.4342
 20
125.712
 30
0.000000
  70
    32
  0
VERTEX
  8
0
  5
2A66
 10
54.4113
 20
125.689
 30
0.000000
  70
    32
  0
VERTEX
  8
0
  5
2A67
 10
54.3885
 20
125.666
 30
0.000000
  70
    32
  0
VERTEX
  8
0
  5
2A68
 10
54.3658
 20
125.643
 30
0.000000
  70
    32
  0
VERTEX
  8
0
  5
2A69
 10
54.3432
 20
125.619
 30
0.000000
  70
    32
  0
VERTEX
  8
0
  5
2A6A
 10
54.3208
 20
125.595
 30
0.000000
  70
    32
  0
VERTEX
  8
0
  5
2A6B
 10
54.2984
 20
125.572
 30
0.000000
  70
    32
  0
VERTEX
  8
0
  5
2A6C
 10
54.2762
 20
125.547
 30
0.000000
  70
    32
  0
VERTEX
  8
0
  5
2A6D
 10
54.2541
 20
125.523
 30
0.000000
  70
    32
  0
VERTEX
  8
0
  5
2A6E
 10
54.2322
 20
125.499
 30
0.000000
  70
    32
  0
VERTEX
  8
0
  5
2A6F
 10
54.2103
 20
125.474
 30
0.000000
  70
    32
  0
VERTEX
  8
0
  5
2A70
 10
54.1886
 20
125.449
 30
0.000000
  70
    32
  0
VERTEX
  8
0
  5
2A71
 10
54.1670
 20
125.424
 30
0.000000
  70
    32
  0
VERTEX
  8
0
  5
2A72
 10
54.1455
 20
125.398
 30
0.000000
  70
    32
  0
VERTEX
  8
0
  5
2A73
 10
54.1241
 20
125.373
 30
0.000000
  70
    32
  0
VERTEX
  8
0
  5
2A74
 10
54.1029
 20
125.347
 30
0.000000
  70
    32
  0
VERTEX
  8
0
  5
2A75
 10
54.0818
 20
125.321
 30
0.000000
  70
    32
  0
VERTEX
  8
0
  5
2A76
 10
54.0609
 20
125.294
 30
0.000000
  70
    32
  0
VERTEX
  8
0
  5
2A77
 10
54.0400
 20
125.268
 30
0.000000
  70
    32
  0
VERTEX
  8
0
  5
2A78
 10
54.0193
 20
125.241
 30
0.000000
  70
    32
  0
VERTEX
  8
0
  5
2A79
 10
53.9987
 20
125.215
 30
0.000000
  70
    32
  0
VERTEX
  8
0
  5
2A7A
 10
53.9783
 20
125.187
 30
0.000000
  70
    32
  0
VERTEX
  8
0
  5
2A7B
 10
53.9580
 20
125.160
 30
0.000000
  70
    32
  0
VERTEX
  8
0
  5
2A7C
 10
53.9378
 20
125.133
 30
0.000000
  70
    32
  0
VERTEX
  8
0
  5
2A7D
 10
53.9178
 20
125.105
 30
0.000000
  70
    32
  0
VERTEX
  8
0
  5
2A7E
 10
53.8979
 20
125.077
 30
0.000000
  70
    32
  0
VERTEX
  8
0
  5
2A7F
 10
53.8781
 20
125.049
 30
0.000000
  70
    32
  0
VERTEX
  8
0
  5
2A80
 10
53.8585
 20
125.021
 30
0.000000
  70
    32
  0
VERTEX
  8
0
  5
2A81
 10
53.8390
 20
124.992
 30
0.000000
  70
    32
  0
VERTEX
  8
0
  5
2A82
 10
53.8197
 20
124.964
 30
0.000000
  70
    32
  0
VERTEX
  8
0
  5
2A83
 10
53.8005
 20
124.935
 30
0.000000
  70
    32
  0
VERTEX
  8
0
  5
2A84
 10
53.7815
 20
124.906
 30
0.000000
  70
    32
  0
VERTEX
  8
0
  5
2A85
 10
53.7626
 20
124.877
 30
0.000000
  70
    32
  0
VERTEX
  8
0
  5
2A86
 10
53.7438
 20
124.847
 30
0.000000
  70
    32
  0
VERTEX
  8
0
  5
2A87
 10
53.7252
 20
124.818
 30
0.000000
  70
    32
  0
VERTEX
  8
0
  5
2A88
 10
53.7067
 20
124.788
 30
0.000000
  70
    32
  0
VERTEX
  8
0
  5
2A89
 10
53.6884
 20
124.758
 30
0.000000
  70
    32
  0
VERTEX
  8
0
  5
2A8A
 10
53.6702
 20
124.728
 30
0.000000
  70
    32
  0
VERTEX
  8
0
  5
2A8B
 10
53.6522
 20
124.698
 30
0.000000
  70
    32
  0
VERTEX
  8
0
  5
2A8C
 10
53.6343
 20
124.667
 30
0.000000
  70
    32
  0
VERTEX
  8
0
  5
2A8D
 10
53.6166
 20
124.636
 30
0.000000
  70
    32
  0
VERTEX
  8
0
  5
2A8E
 10
53.5990
 20
124.606
 30
0.000000
  70
    32
  0
SEQEND
  8
0
  5
2A8F
  0
POLYLINE
  5
2119
  8
0
 10
74.618337001685234
 20
137.62347523442082
 30
0.0
 66
     1
 70
     8
  0
VERTEX
  8
0
  5
2A90
 10
74.6183
 20
137.623
 30
0.000000
  70
    32
  0
VERTEX
  8
0
  5
2A91
 10
74.5875
 20
137.606
 30
0.000000
  70
    32
  0
VERTEX
  8
0
  5
2A92
 10
74.5568
 20
137.588
 30
0.000000
  70
    32
  0
VERTEX
  8
0
  5
2A93
 10
74.5264
 20
137.570
 30
0.000000
  70
    32
  0
VERTEX
  8
0
  5
2A94
 10
74.4960
 20
137.552
 30
0.000000
  70
    32
  0
VERTEX
  8
0
  5
2A95
 10
74.4659
 20
137.534
 30
0.000000
  70
    32
  0
VERTEX
  8
0
  5
2A96
 10
74.4360
 20
137.516
 30
0.000000
  70
    32
  0
VERTEX
  8
0
  5
2A97
 10
74.4062
 20
137.497
 30
0.000000
  70
    32
  0
VERTEX
  8
0
  5
2A98
 10
74.3766
 20
137.479
 30
0.000000
  70
    32
  0
VERTEX
  8
0
  5
2A99
 10
74.3472
 20
137.460
 30
0.000000
  70
    32
  0
VERTEX
  8
0
  5
2A9A
 10
74.3180
 20
137.441
 30
0.000000
  70
    32
  0
VERTEX
  8
0
  5
2A9B
 10
74.2890
 20
137.422
 30
0.000000
  70
    32
  0
VERTEX
  8
0
  5
2A9C
 10
74.2602
 20
137.403
 30
0.000000
  70
    32
  0
VERTEX
  8
0
  5
2A9D
 10
74.2315
 20
137.383
 30
0.000000
  70
    32
  0
VERTEX
  8
0
  5
2A9E
 10
74.2031
 20
137.364
 30
0.000000
  70
    32
  0
VERTEX
  8
0
  5
2A9F
 10
74.1748
 20
137.344
 30
0.000000
  70
    32
  0
VERTEX
  8
0
  5
2AA0
 10
74.1468
 20
137.325
 30
0.000000
  70
    32
  0
VERTEX
  8
0
  5
2AA1
 10
74.1189
 20
137.305
 30
0.000000
  70
    32
  0
VERTEX
  8
0
  5
2AA2
 10
74.0912
 20
137.285
 30
0.000000
  70
    32
  0
VERTEX
  8
0
  5
2AA3
 10
74.0637
 20
137.265
 30
0.000000
  70
    32
  0
VERTEX
  8
0
  5
2AA4
 10
74.0365
 20
137.244
 30
0.000000
  70
    32
  0
VERTEX
  8
0
  5
2AA5
 10
74.0094
 20
137.224
 30
0.000000
  70
    32
  0
VERTEX
  8
0
  5
2AA6
 10
73.9825
 20
137.203
 30
0.000000
  70
    32
  0
VERTEX
  8
0
  5
2AA7
 10
73.9559
 20
137.182
 30
0.000000
  70
    32
  0
VERTEX
  8
0
  5
2AA8
 10
73.9294
 20
137.162
 30
0.000000
  70
    32
  0
VERTEX
  8
0
  5
2AA9
 10
73.9032
 20
137.141
 30
0.000000
  70
    32
  0
VERTEX
  8
0
  5
2AAA
 10
73.8772
 20
137.120
 30
0.000000
  70
    32
  0
VERTEX
  8
0
  5
2AAB
 10
73.8513
 20
137.098
 30
0.000000
  70
    32
  0
VERTEX
  8
0
  5
2AAC
 10
73.8257
 20
137.077
 30
0.000000
  70
    32
  0
VERTEX
  8
0
  5
2AAD
 10
73.8003
 20
137.056
 30
0.000000
  70
    32
  0
VERTEX
  8
0
  5
2AAE
 10
73.7751
 20
137.034
 30
0.000000
  70
    32
  0
VERTEX
  8
0
  5
2AAF
 10
73.7501
 20
137.012
 30
0.000000
  70
    32
  0
VERTEX
  8
0
  5
2AB0
 10
73.7254
 20
136.990
 30
0.000000
  70
    32
  0
VERTEX
  8
0
  5
2AB1
 10
73.7008
 20
136.968
 30
0.000000
  70
    32
  0
VERTEX
  8
0
  5
2AB2
 10
73.6765
 20
136.946
 30
0.000000
  70
    32
  0
VERTEX
  8
0
  5
2AB3
 10
73.6524
 20
136.924
 30
0.000000
  70
    32
  0
VERTEX
  8
0
  5
2AB4
 10
73.6285
 20
136.902
 30
0.000000
  70
    32
  0
VERTEX
  8
0
  5
2AB5
 10
73.6048
 20
136.879
 30
0.000000
  70
    32
  0
VERTEX
  8
0
  5
2AB6
 10
73.5814
 20
136.857
 30
0.000000
  70
    32
  0
VERTEX
  8
0
  5
2AB7
 10
73.5582
 20
136.834
 30
0.000000
  70
    32
  0
VERTEX
  8
0
  5
2AB8
 10
73.5352
 20
136.811
 30
0.000000
  70
    32
  0
VERTEX
  8
0
  5
2AB9
 10
73.5124
 20
136.788
 30
0.000000
  70
    32
  0
VERTEX
  8
0
  5
2ABA
 10
73.4899
 20
136.765
 30
0.000000
  70
    32
  0
VERTEX
  8
0
  5
2ABB
 10
73.4675
 20
136.742
 30
0.000000
  70
    32
  0
VERTEX
  8
0
  5
2ABC
 10
73.4455
 20
136.719
 30
0.000000
  70
    32
  0
VERTEX
  8
0
  5
2ABD
 10
73.4236
 20
136.696
 30
0.000000
  70
    32
  0
VERTEX
  8
0
  5
2ABE
 10
73.4020
 20
136.672
 30
0.000000
  70
    32
  0
VERTEX
  8
0
  5
2ABF
 10
73.3806
 20
136.649
 30
0.000000
  70
    32
  0
VERTEX
  8
0
  5
2AC0
 10
73.3595
 20
136.625
 30
0.000000
  70
    32
  0
VERTEX
  8
0
  5
2AC1
 10
73.3385
 20
136.601
 30
0.000000
  70
    32
  0
VERTEX
  8
0
  5
2AC2
 10
73.3178
 20
136.577
 30
0.000000
  70
    32
  0
VERTEX
  8
0
  5
2AC3
 10
73.2974
 20
136.553
 30
0.000000
  70
    32
  0
VERTEX
  8
0
  5
2AC4
 10
73.2772
 20
136.529
 30
0.000000
  70
    32
  0
VERTEX
  8
0
  5
2AC5
 10
73.2572
 20
136.505
 30
0.000000
  70
    32
  0
VERTEX
  8
0
  5
2AC6
 10
73.2375
 20
136.481
 30
0.000000
  70
    32
  0
VERTEX
  8
0
  5
2AC7
 10
73.2180
 20
136.456
 30
0.000000
  70
    32
  0
VERTEX
  8
0
  5
2AC8
 10
73.1988
 20
136.432
 30
0.000000
  70
    32
  0
VERTEX
  8
0
  5
2AC9
 10
73.1798
 20
136.407
 30
0.000000
  70
    32
  0
VERTEX
  8
0
  5
2ACA
 10
73.1610
 20
136.383
 30
0.000000
  70
    32
  0
VERTEX
  8
0
  5
2ACB
 10
73.1425
 20
136.358
 30
0.000000
  70
    32
  0
VERTEX
  8
0
  5
2ACC
 10
73.1242
 20
136.333
 30
0.000000
  70
    32
  0
VERTEX
  8
0
  5
2ACD
 10
73.1062
 20
136.308
 30
0.000000
  70
    32
  0
VERTEX
  8
0
  5
2ACE
 10
73.0884
 20
136.283
 30
0.000000
  70
    32
  0
VERTEX
  8
0
  5
2ACF
 10
73.0709
 20
136.258
 30
0.000000
  70
    32
  0
VERTEX
  8
0
  5
2AD0
 10
73.0536
 20
136.233
 30
0.000000
  70
    32
  0
VERTEX
  8
0
  5
2AD1
 10
73.0366
 20
136.207
 30
0.000000
  70
    32
  0
VERTEX
  8
0
  5
2AD2
 10
73.0198
 20
136.182
 30
0.000000
  70
    32
  0
VERTEX
  8
0
  5
2AD3
 10
73.0033
 20
136.157
 30
0.000000
  70
    32
  0
VERTEX
  8
0
  5
2AD4
 10
72.9870
 20
136.131
 30
0.000000
  70
    32
  0
VERTEX
  8
0
  5
2AD5
 10
72.9710
 20
136.106
 30
0.000000
  70
    32
  0
VERTEX
  8
0
  5
2AD6
 10
72.9552
 20
136.080
 30
0.000000
  70
    32
  0
VERTEX
  8
0
  5
2AD7
 10
72.9397
 20
136.054
 30
0.000000
  70
    32
  0
VERTEX
  8
0
  5
2AD8
 10
72.9244
 20
136.028
 30
0.000000
  70
    32
  0
VERTEX
  8
0
  5
2AD9
 10
72.9094
 20
136.002
 30
0.000000
  70
    32
  0
VERTEX
  8
0
  5
2ADA
 10
72.8947
 20
135.976
 30
0.000000
  70
    32
  0
VERTEX
  8
0
  5
2ADB
 10
72.8802
 20
135.950
 30
0.000000
  70
    32
  0
VERTEX
  8
0
  5
2ADC
 10
72.8660
 20
135.924
 30
0.000000
  70
    32
  0
VERTEX
  8
0
  5
2ADD
 10
72.8520
 20
135.898
 30
0.000000
  70
    32
  0
VERTEX
  8
0
  5
2ADE
 10
72.8383
 20
135.872
 30
0.000000
  70
    32
  0
VERTEX
  8
0
  5
2ADF
 10
72.8248
 20
135.845
 30
0.000000
  70
    32
  0
VERTEX
  8
0
  5
2AE0
 10
72.8117
 20
135.819
 30
0.000000
  70
    32
  0
VERTEX
  8
0
  5
2AE1
 10
72.7987
 20
135.792
 30
0.000000
  70
    32
  0
VERTEX
  8
0
  5
2AE2
 10
72.7861
 20
135.766
 30
0.000000
  70
    32
  0
VERTEX
  8
0
  5
2AE3
 10
72.7737
 20
135.739
 30
0.000000
  70
    32
  0
VERTEX
  8
0
  5
2AE4
 10
72.7615
 20
135.713
 30
0.000000
  70
    32
  0
VERTEX
  8
0
  5
2AE5
 10
72.7497
 20
135.686
 30
0.000000
  70
    32
  0
VERTEX
  8
0
  5
2AE6
 10
72.7380
 20
135.659
 30
0.000000
  70
    32
  0
VERTEX
  8
0
  5
2AE7
 10
72.7267
 20
135.632
 30
0.000000
  70
    32
  0
VERTEX
  8
0
  5
2AE8
 10
72.7156
 20
135.605
 30
0.000000
  70
    32
  0
VERTEX
  8
0
  5
2AE9
 10
72.7048
 20
135.579
 30
0.000000
  70
    32
  0
VERTEX
  8
0
  5
2AEA
 10
72.6943
 20
135.552
 30
0.000000
  70
    32
  0
VERTEX
  8
0
  5
2AEB
 10
72.6840
 20
135.525
 30
0.000000
  70
    32
  0
VERTEX
  8
0
  5
2AEC
 10
72.6740
 20
135.497
 30
0.000000
  70
    32
  0
VERTEX
  8
0
  5
2AED
 10
72.6642
 20
135.470
 30
0.000000
  70
    32
  0
VERTEX
  8
0
  5
2AEE
 10
72.6548
 20
135.443
 30
0.000000
  70
    32
  0
VERTEX
  8
0
  5
2AEF
 10
72.6456
 20
135.416
 30
0.000000
  70
    32
  0
VERTEX
  8
0
  5
2AF0
 10
72.6366
 20
135.389
 30
0.000000
  70
    32
  0
VERTEX
  8
0
  5
2AF1
 10
72.6280
 20
135.361
 30
0.000000
  70
    32
  0
VERTEX
  8
0
  5
2AF2
 10
72.6196
 20
135.334
 30
0.000000
  70
    32
  0
VERTEX
  8
0
  5
2AF3
 10
72.6115
 20
135.306
 30
0.000000
  70
    32
  0
VERTEX
  8
0
  5
2AF4
 10
72.6036
 20
135.279
 30
0.000000
  70
    32
  0
VERTEX
  8
0
  5
2AF5
 10
72.5960
 20
135.252
 30
0.000000
  70
    32
  0
VERTEX
  8
0
  5
2AF6
 10
72.5887
 20
135.224
 30
0.000000
  70
    32
  0
VERTEX
  8
0
  5
2AF7
 10
72.5817
 20
135.196
 30
0.000000
  70
    32
  0
VERTEX
  8
0
  5
2AF8
 10
72.5749
 20
135.169
 30
0.000000
  70
    32
  0
VERTEX
  8
0
  5
2AF9
 10
72.5685
 20
135.141
 30
0.000000
  70
    32
  0
VERTEX
  8
0
  5
2AFA
 10
72.5622
 20
135.114
 30
0.000000
  70
    32
  0
VERTEX
  8
0
  5
2AFB
 10
72.5563
 20
135.086
 30
0.000000
  70
    32
  0
VERTEX
  8
0
  5
2AFC
 10
72.5506
 20
135.058
 30
0.000000
  70
    32
  0
VERTEX
  8
0
  5
2AFD
 10
72.5453
 20
135.030
 30
0.000000
  70
    32
  0
VERTEX
  8
0
  5
2AFE
 10
72.5401
 20
135.003
 30
0.000000
  70
    32
  0
VERTEX
  8
0
  5
2AFF
 10
72.5353
 20
134.975
 30
0.000000
  70
    32
  0
VERTEX
  8
0
  5
2B00
 10
72.5307
 20
134.947
 30
0.000000
  70
    32
  0
VERTEX
  8
0
  5
2B01
 10
72.5265
 20
134.919
 30
0.000000
  70
    32
  0
VERTEX
  8
0
  5
2B02
 10
72.5224
 20
134.891
 30
0.000000
  70
    32
  0
VERTEX
  8
0
  5
2B03
 10
72.5187
 20
134.864
 30
0.000000
  70
    32
  0
VERTEX
  8
0
  5
2B04
 10
72.5152
 20
134.836
 30
0.000000
  70
    32
  0
VERTEX
  8
0
  5
2B05
 10
72.5121
 20
134.808
 30
0.000000
  70
    32
  0
VERTEX
  8
0
  5
2B06
 10
72.5091
 20
134.780
 30
0.000000
  70
    32
  0
VERTEX
  8
0
  5
2B07
 10
72.5065
 20
134.752
 30
0.000000
  70
    32
  0
VERTEX
  8
0
  5
2B08
 10
72.5042
 20
134.724
 30
0.000000
  70
    32
  0
VERTEX
  8
0
  5
2B09
 10
72.5021
 20
134.696
 30
0.000000
  70
    32
  0
VERTEX
  8
0
  5
2B0A
 10
72.5003
 20
134.668
 30
0.000000
  70
    32
  0
VERTEX
  8
0
  5
2B0B
 10
72.4988
 20
134.640
 30
0.000000
  70
    32
  0
VERTEX
  8
0
  5
2B0C
 10
72.4975
 20
134.612
 30
0.000000
  70
    32
  0
VERTEX
  8
0
  5
2B0D
 10
72.4965
 20
134.584
 30
0.000000
  70
    32
  0
VERTEX
  8
0
  5
2B0E
 10
72.4958
 20
134.556
 30
0.000000
  70
    32
  0
VERTEX
  8
0
  5
2B0F
 10
72.4954
 20
134.528
 30
0.000000
  70
    32
  0
VERTEX
  8
0
  5
2B10
 10
72.4953
 20
134.500
 30
0.000000
  70
    32
  0
SEQEND
  8
0
  5
2B11
  0
POLYLINE
  5
211B
  8
0
 10
66.61690846668526
 20
137.62347523442088
 30
0.0
 66
     1
 70
     8
  0
VERTEX
  8
0
  5
2B12
 10
66.6169
 20
137.623
 30
0.000000
  70
    32
  0
VERTEX
  8
0
  5
2B13
 10
66.5861
 20
137.606
 30
0.000000
  70
    32
  0
VERTEX
  8
0
  5
2B14
 10
66.5554
 20
137.588
 30
0.000000
  70
    32
  0
VERTEX
  8
0
  5
2B15
 10
66.5249
 20
137.570
 30
0.000000
  70
    32
  0
VERTEX
  8
0
  5
2B16
 10
66.4946
 20
137.552
 30
0.000000
  70
    32
  0
VERTEX
  8
0
  5
2B17
 10
66.4645
 20
137.534
 30
0.000000
  70
    32
  0
VERTEX
  8
0
  5
2B18
 10
66.4345
 20
137.516
 30
0.000000
  70
    32
  0
VERTEX
  8
0
  5
2B19
 10
66.4048
 20
137.497
 30
0.000000
  70
    32
  0
VERTEX
  8
0
  5
2B1A
 10
66.3752
 20
137.479
 30
0.000000
  70
    32
  0
VERTEX
  8
0
  5
2B1B
 10
66.3458
 20
137.460
 30
0.000000
  70
    32
  0
VERTEX
  8
0
  5
2B1C
 10
66.3166
 20
137.441
 30
0.000000
  70
    32
  0
VERTEX
  8
0
  5
2B1D
 10
66.2876
 20
137.422
 30
0.000000
  70
    32
  0
VERTEX
  8
0
  5
2B1E
 10
66.2587
 20
137.403
 30
0.000000
  70
    32
  0
VERTEX
  8
0
  5
2B1F
 10
66.2301
 20
137.383
 30
0.000000
  70
    32
  0
VERTEX
  8
0
  5
2B20
 10
66.2016
 20
137.364
 30
0.000000
  70
    32
  0
VERTEX
  8
0
  5
2B21
 10
66.1734
 20
137.344
 30
0.000000
  70
    32
  0
VERTEX
  8
0
  5
2B22
 10
66.1453
 20
137.325
 30
0.000000
  70
    32
  0
VERTEX
  8
0
  5
2B23
 10
66.1175
 20
137.305
 30
0.000000
  70
    32
  0
VERTEX
  8
0
  5
2B24
 10
66.0898
 20
137.285
 30
0.000000
  70
    32
  0
VERTEX
  8
0
  5
2B25
 10
66.0623
 20
137.265
 30
0.000000
  70
    32
  0
VERTEX
  8
0
  5
2B26
 10
66.0351
 20
137.244
 30
0.000000
  70
    32
  0
VERTEX
  8
0
  5
2B27
 10
66.0080
 20
137.224
 30
0.000000
  70
    32
  0
VERTEX
  8
0
  5
2B28
 10
65.9811
 20
137.203
 30
0.000000
  70
    32
  0
VERTEX
  8
0
  5
2B29
 10
65.9545
 20
137.182
 30
0.000000
  70
    32
  0
VERTEX
  8
0
  5
2B2A
 10
65.9280
 20
137.162
 30
0.000000
  70
    32
  0
VERTEX
  8
0
  5
2B2B
 10
65.9018
 20
137.141
 30
0.000000
  70
    32
  0
VERTEX
  8
0
  5
2B2C
 10
65.8757
 20
137.120
 30
0.000000
  70
    32
  0
VERTEX
  8
0
  5
2B2D
 10
65.8499
 20
137.098
 30
0.000000
  70
    32
  0
VERTEX
  8
0
  5
2B2E
 10
65.8243
 20
137.077
 30
0.000000
  70
    32
  0
VERTEX
  8
0
  5
2B2F
 10
65.7989
 20
137.056
 30
0.000000
  70
    32
  0
VERTEX
  8
0
  5
2B30
 10
65.7737
 20
137.034
 30
0.000000
  70
    32
  0
VERTEX
  8
0
  5
2B31
 10
65.7487
 20
137.012
 30
0.000000
  70
    32
  0
VERTEX
  8
0
  5
2B32
 10
65.7239
 20
136.990
 30
0.000000
  70
    32
  0
VERTEX
  8
0
  5
2B33
 10
65.6994
 20
136.968
 30
0.000000
  70
    32
  0
VERTEX
  8
0
  5
2B34
 10
65.6751
 20
136.946
 30
0.000000
  70
    32
  0
VERTEX
  8
0
  5
2B35
 10
65.6510
 20
136.924
 30
0.000000
  70
    32
  0
VERTEX
  8
0
  5
2B36
 10
65.6271
 20
136.902
 30
0.000000
  70
    32
  0
VERTEX
  8
0
  5
2B37
 10
65.6034
 20
136.879
 30
0.000000
  70
    32
  0
VERTEX
  8
0
  5
2B38
 10
65.5800
 20
136.857
 30
0.000000
  70
    32
  0
VERTEX
  8
0
  5
2B39
 10
65.5567
 20
136.834
 30
0.000000
  70
    32
  0
VERTEX
  8
0
  5
2B3A
 10
65.5337
 20
136.811
 30
0.000000
  70
    32
  0
VERTEX
  8
0
  5
2B3B
 10
65.5110
 20
136.788
 30
0.000000
  70
    32
  0
VERTEX
  8
0
  5
2B3C
 10
65.4884
 20
136.765
 30
0.000000
  70
    32
  0
VERTEX
  8
0
  5
2B3D
 10
65.4661
 20
136.742
 30
0.000000
  70
    32
  0
VERTEX
  8
0
  5
2B3E
 10
65.4440
 20
136.719
 30
0.000000
  70
    32
  0
VERTEX
  8
0
  5
2B3F
 10
65.4222
 20
136.696
 30
0.000000
  70
    32
  0
VERTEX
  8
0
  5
2B40
 10
65.4006
 20
136.672
 30
0.000000
  70
    32
  0
VERTEX
  8
0
  5
2B41
 10
65.3792
 20
136.649
 30
0.000000
  70
    32
  0
VERTEX
  8
0
  5
2B42
 10
65.3580
 20
136.625
 30
0.000000
  70
    32
  0
VERTEX
  8
0
  5
2B43
 10
65.3371
 20
136.601
 30
0.000000
  70
    32
  0
VERTEX
  8
0
  5
2B44
 10
65.3164
 20
136.577
 30
0.000000
  70
    32
  0
VERTEX
  8
0
  5
2B45
 10
65.2960
 20
136.553
 30
0.000000
  70
    32
  0
VERTEX
  8
0
  5
2B46
 10
65.2758
 20
136.529
 30
0.000000
  70
    32
  0
VERTEX
  8
0
  5
2B47
 10
65.2558
 20
136.505
 30
0.000000
  70
    32
  0
VERTEX
  8
0
  5
2B48
 10
65.2361
 20
136.481
 30
0.000000
  70
    32
  0
VERTEX
  8
0
  5
2B49
 10
65.2166
 20
136.456
 30
0.000000
  70
    32
  0
VERTEX
  8
0
  5
2B4A
 10
65.1973
 20
136.432
 30
0.000000
  70
    32
  0
VERTEX
  8
0
  5
2B4B
 10
65.1783
 20
136.407
 30
0.000000
  70
    32
  0
VERTEX
  8
0
  5
2B4C
 10
65.1596
 20
136.383
 30
0.000000
  70
    32
  0
VERTEX
  8
0
  5
2B4D
 10
65.1411
 20
136.358
 30
0.000000
  70
    32
  0
VERTEX
  8
0
  5
2B4E
 10
65.1228
 20
136.333
 30
0.000000
  70
    32
  0
VERTEX
  8
0
  5
2B4F
 10
65.1048
 20
136.308
 30
0.000000
  70
    32
  0
VERTEX
  8
0
  5
2B50
 10
65.0870
 20
136.283
 30
0.000000
  70
    32
  0
VERTEX
  8
0
  5
2B51
 10
65.0695
 20
136.258
 30
0.000000
  70
    32
  0
VERTEX
  8
0
  5
2B52
 10
65.0522
 20
136.233
 30
0.000000
  70
    32
  0
VERTEX
  8
0
  5
2B53
 10
65.0351
 20
136.207
 30
0.000000
  70
    32
  0
VERTEX
  8
0
  5
2B54
 10
65.0184
 20
136.182
 30
0.000000
  70
    32
  0
VERTEX
  8
0
  5
2B55
 10
65.0018
 20
136.157
 30
0.000000
  70
    32
  0
VERTEX
  8
0
  5
2B56
 10
64.9856
 20
136.131
 30
0.000000
  70
    32
  0
VERTEX
  8
0
  5
2B57
 10
64.9695
 20
136.106
 30
0.000000
  70
    32
  0
VERTEX
  8
0
  5
2B58
 10
64.9538
 20
136.080
 30
0.000000
  70
    32
  0
VERTEX
  8
0
  5
2B59
 10
64.9383
 20
136.054
 30
0.000000
  70
    32
  0
VERTEX
  8
0
  5
2B5A
 10
64.9230
 20
136.028
 30
0.000000
  70
    32
  0
VERTEX
  8
0
  5
2B5B
 10
64.9080
 20
136.002
 30
0.000000
  70
    32
  0
VERTEX
  8
0
  5
2B5C
 10
64.8933
 20
135.976
 30
0.000000
  70
    32
  0
VERTEX
  8
0
  5
2B5D
 10
64.8788
 20
135.950
 30
0.000000
  70
    32
  0
VERTEX
  8
0
  5
2B5E
 10
64.8645
 20
135.924
 30
0.000000
  70
    32
  0
VERTEX
  8
0
  5
2B5F
 10
64.8506
 20
135.898
 30
0.000000
  70
    32
  0
VERTEX
  8
0
  5
2B60
 10
64.8369
 20
135.872
 30
0.000000
  70
    32
  0
VERTEX
  8
0
  5
2B61
 10
64.8234
 20
135.845
 30
0.000000
  70
    32
  0
VERTEX
  8
0
  5
2B62
 10
64.8102
 20
135.819
 30
0.000000
  70
    32
  0
VERTEX
  8
0
  5
2B63
 10
64.7973
 20
135.792
 30
0.000000
  70
    32
  0
VERTEX
  8
0
  5
2B64
 10
64.7846
 20
135.766
 30
0.000000
  70
    32
  0
VERTEX
  8
0
  5
2B65
 10
64.7722
 20
135.739
 30
0.000000
  70
    32
  0
VERTEX
  8
0
  5
2B66
 10
64.7601
 20
135.713
 30
0.000000
  70
    32
  0
VERTEX
  8
0
  5
2B67
 10
64.7482
 20
135.686
 30
0.000000
  70
    32
  0
VERTEX
  8
0
  5
2B68
 10
64.7366
 20
135.659
 30
0.000000
  70
    32
  0
VERTEX
  8
0
  5
2B69
 10
64.7253
 20
135.632
 30
0.000000
  70
    32
  0
VERTEX
  8
0
  5
2B6A
 10
64.7142
 20
135.605
 30
0.000000
  70
    32
  0
VERTEX
  8
0
  5
2B6B
 10
64.7034
 20
135.579
 30
0.000000
  70
    32
  0
VERTEX
  8
0
  5
2B6C
 10
64.6928
 20
135.552
 30
0.000000
  70
    32
  0
VERTEX
  8
0
  5
2B6D
 10
64.6826
 20
135.525
 30
0.000000
  70
    32
  0
VERTEX
  8
0
  5
2B6E
 10
64.6726
 20
135.497
 30
0.000000
  70
    32
  0
VERTEX
  8
0
  5
2B6F
 10
64.6628
 20
135.470
 30
0.000000
  70
    32
  0
VERTEX
  8
0
  5
2B70
 10
64.6533
 20
135.443
 30
0.000000
  70
    32
  0
VERTEX
  8
0
  5
2B71
 10
64.6441
 20
135.416
 30
0.000000
  70
    32
  0
VERTEX
  8
0
  5
2B72
 10
64.6352
 20
135.389
 30
0.000000
  70
    32
  0
VERTEX
  8
0
  5
2B73
 10
64.6265
 20
135.361
 30
0.000000
  70
    32
  0
VERTEX
  8
0
  5
2B74
 10
64.6182
 20
135.334
 30
0.000000
  70
    32
  0
VERTEX
  8
0
  5
2B75
 10
64.6100
 20
135.306
 30
0.000000
  70
    32
  0
VERTEX
  8
0
  5
2B76
 10
64.6022
 20
135.279
 30
0.000000
  70
    32
  0
VERTEX
  8
0
  5
2B77
 10
64.5946
 20
135.252
 30
0.000000
  70
    32
  0
VERTEX
  8
0
  5
2B78
 10
64.5873
 20
135.224
 30
0.000000
  70
    32
  0
VERTEX
  8
0
  5
2B79
 10
64.5803
 20
135.196
 30
0.000000
  70
    32
  0
VERTEX
  8
0
  5
2B7A
 10
64.5735
 20
135.169
 30
0.000000
  70
    32
  0
VERTEX
  8
0
  5
2B7B
 10
64.5670
 20
135.141
 30
0.000000
  70
    32
  0
VERTEX
  8
0
  5
2B7C
 10
64.5608
 20
135.114
 30
0.000000
  70
    32
  0
VERTEX
  8
0
  5
2B7D
 10
64.5549
 20
135.086
 30
0.000000
  70
    32
  0
VERTEX
  8
0
  5
2B7E
 10
64.5492
 20
135.058
 30
0.000000
  70
    32
  0
VERTEX
  8
0
  5
2B7F
 10
64.5438
 20
135.030
 30
0.000000
  70
    32
  0
VERTEX
  8
0
  5
2B80
 10
64.5387
 20
135.003
 30
0.000000
  70
    32
  0
VERTEX
  8
0
  5
2B81
 10
64.5339
 20
134.975
 30
0.000000
  70
    32
  0
VERTEX
  8
0
  5
2B82
 10
64.5293
 20
134.947
 30
0.000000
  70
    32
  0
VERTEX
  8
0
  5
2B83
 10
64.5250
 20
134.919
 30
0.000000
  70
    32
  0
VERTEX
  8
0
  5
2B84
 10
64.5210
 20
134.891
 30
0.000000
  70
    32
  0
VERTEX
  8
0
  5
2B85
 10
64.5173
 20
134.864
 30
0.000000
  70
    32
  0
VERTEX
  8
0
  5
2B86
 10
64.5138
 20
134.836
 30
0.000000
  70
    32
  0
VERTEX
  8
0
  5
2B87
 10
64.5106
 20
134.808
 30
0.000000
  70
    32
  0
VERTEX
  8
0
  5
2B88
 10
64.5077
 20
134.780
 30
0.000000
  70
    32
  0
VERTEX
  8
0
  5
2B89
 10
64.5051
 20
134.752
 30
0.000000
  70
    32
  0
VERTEX
  8
0
  5
2B8A
 10
64.5027
 20
134.724
 30
0.000000
  70
    32
  0
VERTEX
  8
0
  5
2B8B
 10
64.5007
 20
134.696
 30
0.000000
  70
    32
  0
VERTEX
  8
0
  5
2B8C
 10
64.4989
 20
134.668
 30
0.000000
  70
    32
  0
VERTEX
  8
0
  5
2B8D
 10
64.4973
 20
134.640
 30
0.000000
  70
    32
  0
VERTEX
  8
0
  5
2B8E
 10
64.4961
 20
134.612
 30
0.000000
  70
    32
  0
VERTEX
  8
0
  5
2B8F
 10
64.4951
 20
134.584
 30
0.000000
  70
    32
  0
VERTEX
  8
0
  5
2B90
 10
64.4944
 20
134.556
 30
0.000000
  70
    32
  0
VERTEX
  8
0
  5
2B91
 10
64.4940
 20
134.528
 30
0.000000
  70
    32
  0
VERTEX
  8
0
  5
2B92
 10
64.4939
 20
134.500
 30
0.000000
  70
    32
  0
SEQEND
  8
0
  5
2B93
  0
POLYLINE
  5
211D
  8
0
 10
92.564837395231905
 20
139.46944985411147
 30
0.0
 66
     1
 70
     8
  0
VERTEX
  8
0
  5
2B94
 10
92.5648
 20
139.469
 30
0.000000
  70
    32
  0
VERTEX
  8
0
  5
2B95
 10
92.5182
 20
139.496
 30
0.000000
  70
    32
  0
VERTEX
  8
0
  5
2B96
 10
92.4713
 20
139.522
 30
0.000000
  70
    32
  0
VERTEX
  8
0
  5
2B97
 10
92.4242
 20
139.548
 30
0.000000
  70
    32
  0
VERTEX
  8
0
  5
2B98
 10
92.3770
 20
139.573
 30
0.000000
  70
    32
  0
VERTEX
  8
0
  5
2B99
 10
92.3296
 20
139.599
 30
0.000000
  70
    32
  0
VERTEX
  8
0
  5
2B9A
 10
92.2819
 20
139.624
 30
0.000000
  70
    32
  0
VERTEX
  8
0
  5
2B9B
 10
92.2341
 20
139.650
 30
0.000000
  70
    32
  0
VERTEX
  8
0
  5
2B9C
 10
92.1861
 20
139.675
 30
0.000000
  70
    32
  0
VERTEX
  8
0
  5
2B9D
 10
92.1379
 20
139.699
 30
0.000000
  70
    32
  0
VERTEX
  8
0
  5
2B9E
 10
92.0895
 20
139.724
 30
0.000000
  70
    32
  0
VERTEX
  8
0
  5
2B9F
 10
92.0410
 20
139.749
 30
0.000000
  70
    32
  0
VERTEX
  8
0
  5
2BA0
 10
91.9922
 20
139.773
 30
0.000000
  70
    32
  0
VERTEX
  8
0
  5
2BA1
 10
91.9433
 20
139.797
 30
0.000000
  70
    32
  0
VERTEX
  8
0
  5
2BA2
 10
91.8942
 20
139.821
 30
0.000000
  70
    32
  0
VERTEX
  8
0
  5
2BA3
 10
91.8449
 20
139.845
 30
0.000000
  70
    32
  0
VERTEX
  8
0
  5
2BA4
 10
91.7955
 20
139.868
 30
0.000000
  70
    32
  0
VERTEX
  8
0
  5
2BA5
 10
91.7458
 20
139.892
 30
0.000000
  70
    32
  0
VERTEX
  8
0
  5
2BA6
 10
91.6960
 20
139.915
 30
0.000000
  70
    32
  0
VERTEX
  8
0
  5
2BA7
 10
91.6461
 20
139.938
 30
0.000000
  70
    32
  0
VERTEX
  8
0
  5
2BA8
 10
91.5959
 20
139.961
 30
0.000000
  70
    32
  0
VERTEX
  8
0
  5
2BA9
 10
91.5456
 20
139.983
 30
0.000000
  70
    32
  0
VERTEX
  8
0
  5
2BAA
 10
91.4951
 20
140.006
 30
0.000000
  70
    32
  0
VERTEX
  8
0
  5
2BAB
 10
91.4445
 20
140.028
 30
0.000000
  70
    32
  0
VERTEX
  8
0
  5
2BAC
 10
91.3936
 20
140.050
 30
0.000000
  70
    32
  0
VERTEX
  8
0
  5
2BAD
 10
91.3427
 20
140.072
 30
0.000000
  70
    32
  0
VERTEX
  8
0
  5
2BAE
 10
91.2915
 20
140.094
 30
0.000000
  70
    32
  0
VERTEX
  8
0
  5
2BAF
 10
91.2402
 20
140.115
 30
0.000000
  70
    32
  0
VERTEX
  8
0
  5
2BB0
 10
91.1887
 20
140.136
 30
0.000000
  70
    32
  0
VERTEX
  8
0
  5
2BB1
 10
91.1371
 20
140.158
 30
0.000000
  70
    32
  0
VERTEX
  8
0
  5
2BB2
 10
91.0853
 20
140.179
 30
0.000000
  70
    32
  0
VERTEX
  8
0
  5
2BB3
 10
91.0334
 20
140.199
 30
0.000000
  70
    32
  0
VERTEX
  8
0
  5
2BB4
 10
90.9813
 20
140.220
 30
0.000000
  70
    32
  0
VERTEX
  8
0
  5
2BB5
 10
90.9291
 20
140.240
 30
0.000000
  70
    32
  0
VERTEX
  8
0
  5
2BB6
 10
90.8767
 20
140.260
 30
0.000000
  70
    32
  0
VERTEX
  8
0
  5
2BB7
 10
90.8242
 20
140.280
 30
0.000000
  70
    32
  0
VERTEX
  8
0
  5
2BB8
 10
90.7715
 20
140.300
 30
0.000000
  70
    32
  0
VERTEX
  8
0
  5
2BB9
 10
90.7186
 20
140.320
 30
0.000000
  70
    32
  0
VERTEX
  8
0
  5
2BBA
 10
90.6656
 20
140.339
 30
0.000000
  70
    32
  0
VERTEX
  8
0
  5
2BBB
 10
90.6125
 20
140.358
 30
0.000000
  70
    32
  0
VERTEX
  8
0
  5
2BBC
 10
90.5593
 20
140.377
 30
0.000000
  70
    32
  0
VERTEX
  8
0
  5
2BBD
 10
90.5059
 20
140.396
 30
0.000000
  70
    32
  0
VERTEX
  8
0
  5
2BBE
 10
90.4523
 20
140.414
 30
0.000000
  70
    32
  0
VERTEX
  8
0
  5
2BBF
 10
90.3986
 20
140.433
 30
0.000000
  70
    32
  0
VERTEX
  8
0
  5
2BC0
 10
90.3448
 20
140.451
 30
0.000000
  70
    32
  0
VERTEX
  8
0
  5
2BC1
 10
90.2908
 20
140.469
 30
0.000000
  70
    32
  0
VERTEX
  8
0
  5
2BC2
 10
90.2368
 20
140.487
 30
0.000000
  70
    32
  0
VERTEX
  8
0
  5
2BC3
 10
90.1825
 20
140.504
 30
0.000000
  70
    32
  0
VERTEX
  8
0
  5
2BC4
 10
90.1282
 20
140.522
 30
0.000000
  70
    32
  0
VERTEX
  8
0
  5
2BC5
 10
90.0737
 20
140.539
 30
0.000000
  70
    32
  0
VERTEX
  8
0
  5
2BC6
 10
90.0191
 20
140.556
 30
0.000000
  70
    32
  0
VERTEX
  8
0
  5
2BC7
 10
89.9644
 20
140.572
 30
0.000000
  70
    32
  0
VERTEX
  8
0
  5
2BC8
 10
89.9095
 20
140.589
 30
0.000000
  70
    32
  0
VERTEX
  8
0
  5
2BC9
 10
89.8545
 20
140.605
 30
0.000000
  70
    32
  0
VERTEX
  8
0
  5
2BCA
 10
89.7994
 20
140.622
 30
0.000000
  70
    32
  0
VERTEX
  8
0
  5
2BCB
 10
89.7442
 20
140.637
 30
0.000000
  70
    32
  0
VERTEX
  8
0
  5
2BCC
 10
89.6889
 20
140.653
 30
0.000000
  70
    32
  0
VERTEX
  8
0
  5
2BCD
 10
89.6334
 20
140.669
 30
0.000000
  70
    32
  0
VERTEX
  8
0
  5
2BCE
 10
89.5779
 20
140.684
 30
0.000000
  70
    32
  0
VERTEX
  8
0
  5
2BCF
 10
89.5222
 20
140.699
 30
0.000000
  70
    32
  0
VERTEX
  8
0
  5
2BD0
 10
89.4664
 20
140.714
 30
0.000000
  70
    32
  0
VERTEX
  8
0
  5
2BD1
 10
89.4105
 20
140.729
 30
0.000000
  70
    32
  0
VERTEX
  8
0
  5
2BD2
 10
89.3545
 20
140.743
 30
0.000000
  70
    32
  0
VERTEX
  8
0
  5
2BD3
 10
89.2984
 20
140.757
 30
0.000000
  70
    32
  0
VERTEX
  8
0
  5
2BD4
 10
89.2421
 20
140.772
 30
0.000000
  70
    32
  0
VERTEX
  8
0
  5
2BD5
 10
89.1858
 20
140.785
 30
0.000000
  70
    32
  0
VERTEX
  8
0
  5
2BD6
 10
89.1294
 20
140.799
 30
0.000000
  70
    32
  0
VERTEX
  8
0
  5
2BD7
 10
89.0728
 20
140.812
 30
0.000000
  70
    32
  0
VERTEX
  8
0
  5
2BD8
 10
89.0162
 20
140.826
 30
0.000000
  70
    32
  0
VERTEX
  8
0
  5
2BD9
 10
88.9595
 20
140.839
 30
0.000000
  70
    32
  0
VERTEX
  8
0
  5
2BDA
 10
88.9027
 20
140.851
 30
0.000000
  70
    32
  0
VERTEX
  8
0
  5
2BDB
 10
88.8457
 20
140.864
 30
0.000000
  70
    32
  0
VERTEX
  8
0
  5
2BDC
 10
88.7887
 20
140.876
 30
0.000000
  70
    32
  0
VERTEX
  8
0
  5
2BDD
 10
88.7316
 20
140.889
 30
0.000000
  70
    32
  0
VERTEX
  8
0
  5
2BDE
 10
88.6744
 20
140.901
 30
0.000000
  70
    32
  0
VERTEX
  8
0
  5
2BDF
 10
88.6171
 20
140.912
 30
0.000000
  70
    32
  0
VERTEX
  8
0
  5
2BE0
 10
88.5598
 20
140.924
 30
0.000000
  70
    32
  0
VERTEX
  8
0
  5
2BE1
 10
88.5023
 20
140.935
 30
0.000000
  70
    32
  0
VERTEX
  8
0
  5
2BE2
 10
88.4448
 20
140.946
 30
0.000000
  70
    32
  0
VERTEX
  8
0
  5
2BE3
 10
88.3872
 20
140.957
 30
0.000000
  70
    32
  0
VERTEX
  8
0
  5
2BE4
 10
88.3295
 20
140.968
 30
0.000000
  70
    32
  0
VERTEX
  8
0
  5
2BE5
 10
88.2717
 20
140.978
 30
0.000000
  70
    32
  0
VERTEX
  8
0
  5
2BE6
 10
88.2138
 20
140.988
 30
0.000000
  70
    32
  0
VERTEX
  8
0
  5
2BE7
 10
88.1559
 20
140.998
 30
0.000000
  70
    32
  0
VERTEX
  8
0
  5
2BE8
 10
88.0979
 20
141.008
 30
0.000000
  70
    32
  0
VERTEX
  8
0
  5
2BE9
 10
88.0398
 20
141.018
 30
0.000000
  70
    32
  0
VERTEX
  8
0
  5
2BEA
 10
87.9817
 20
141.027
 30
0.000000
  70
    32
  0
VERTEX
  8
0
  5
2BEB
 10
87.9234
 20
141.036
 30
0.000000
  70
    32
  0
VERTEX
  8
0
  5
2BEC
 10
87.8652
 20
141.045
 30
0.000000
  70
    32
  0
VERTEX
  8
0
  5
2BED
 10
87.8068
 20
141.054
 30
0.000000
  70
    32
  0
VERTEX
  8
0
  5
2BEE
 10
87.7484
 20
141.063
 30
0.000000
  70
    32
  0
VERTEX
  8
0
  5
2BEF
 10
87.6899
 20
141.071
 30
0.000000
  70
    32
  0
VERTEX
  8
0
  5
2BF0
 10
87.6314
 20
141.079
 30
0.000000
  70
    32
  0
VERTEX
  8
0
  5
2BF1
 10
87.5728
 20
141.087
 30
0.000000
  70
    32
  0
VERTEX
  8
0
  5
2BF2
 10
87.5141
 20
141.094
 30
0.000000
  70
    32
  0
VERTEX
  8
0
  5
2BF3
 10
87.4554
 20
141.102
 30
0.000000
  70
    32
  0
VERTEX
  8
0
  5
2BF4
 10
87.3966
 20
141.109
 30
0.000000
  70
    32
  0
VERTEX
  8
0
  5
2BF5
 10
87.3378
 20
141.116
 30
0.000000
  70
    32
  0
VERTEX
  8
0
  5
2BF6
 10
87.2789
 20
141.123
 30
0.000000
  70
    32
  0
VERTEX
  8
0
  5
2BF7
 10
87.2200
 20
141.129
 30
0.000000
  70
    32
  0
VERTEX
  8
0
  5
2BF8
 10
87.1611
 20
141.136
 30
0.000000
  70
    32
  0
VERTEX
  8
0
  5
2BF9
 10
87.1020
 20
141.142
 30
0.000000
  70
    32
  0
VERTEX
  8
0
  5
2BFA
 10
87.0430
 20
141.147
 30
0.000000
  70
    32
  0
VERTEX
  8
0
  5
2BFB
 10
86.9839
 20
141.153
 30
0.000000
  70
    32
  0
VERTEX
  8
0
  5
2BFC
 10
86.9247
 20
141.159
 30
0.000000
  70
    32
  0
VERTEX
  8
0
  5
2BFD
 10
86.8656
 20
141.164
 30
0.000000
  70
    32
  0
VERTEX
  8
0
  5
2BFE
 10
86.8063
 20
141.169
 30
0.000000
  70
    32
  0
VERTEX
  8
0
  5
2BFF
 10
86.7471
 20
141.174
 30
0.000000
  70
    32
  0
VERTEX
  8
0
  5
2C00
 10
86.6878
 20
141.178
 30
0.000000
  70
    32
  0
VERTEX
  8
0
  5
2C01
 10
86.6285
 20
141.182
 30
0.000000
  70
    32
  0
VERTEX
  8
0
  5
2C02
 10
86.5691
 20
141.187
 30
0.000000
  70
    32
  0
VERTEX
  8
0
  5
2C03
 10
86.5097
 20
141.190
 30
0.000000
  70
    32
  0
VERTEX
  8
0
  5
2C04
 10
86.4503
 20
141.194
 30
0.000000
  70
    32
  0
VERTEX
  8
0
  5
2C05
 10
86.3909
 20
141.198
 30
0.000000
  70
    32
  0
VERTEX
  8
0
  5
2C06
 10
86.3314
 20
141.201
 30
0.000000
  70
    32
  0
VERTEX
  8
0
  5
2C07
 10
86.2719
 20
141.204
 30
0.000000
  70
    32
  0
VERTEX
  8
0
  5
2C08
 10
86.2124
 20
141.206
 30
0.000000
  70
    32
  0
VERTEX
  8
0
  5
2C09
 10
86.1529
 20
141.209
 30
0.000000
  70
    32
  0
VERTEX
  8
0
  5
2C0A
 10
86.0933
 20
141.211
 30
0.000000
  70
    32
  0
VERTEX
  8
0
  5
2C0B
 10
86.0338
 20
141.213
 30
0.000000
  70
    32
  0
VERTEX
  8
0
  5
2C0C
 10
85.9742
 20
141.215
 30
0.000000
  70
    32
  0
VERTEX
  8
0
  5
2C0D
 10
85.9146
 20
141.217
 30
0.000000
  70
    32
  0
VERTEX
  8
0
  5
2C0E
 10
85.8550
 20
141.218
 30
0.000000
  70
    32
  0
VERTEX
  8
0
  5
2C0F
 10
85.7954
 20
141.220
 30
0.000000
  70
    32
  0
VERTEX
  8
0
  5
2C10
 10
85.7358
 20
141.221
 30
0.000000
  70
    32
  0
VERTEX
  8
0
  5
2C11
 10
85.6761
 20
141.221
 30
0.000000
  70
    32
  0
VERTEX
  8
0
  5
2C12
 10
85.6165
 20
141.222
 30
0.000000
  70
    32
  0
VERTEX
  8
0
  5
2C13
 10
85.5569
 20
141.222
 30
0.000000
  70
    32
  0
VERTEX
  8
0
  5
2C14
 10
85.4972
 20
141.222
 30
0.000000
  70
    32
  0
SEQEND
  8
0
  5
2C15
  0
LINE
  5
211E
  8
0
 10
95.828090313322832
 20
137.62347523441619
 30
0.0
 11
92.564837395229347
 21
139.469449854109
 31
0.0
  0
POLYLINE
  5
211F
  8
0
 10
97.951135718857714
 20
134.49999999999994
 30
0.0
 66
     1
 70
     8
  0
VERTEX
  8
0
  5
2C16
 10
97.9511
 20
134.500
 30
0.000000
  70
    32
  0
VERTEX
  8
0
  5
2C17
 10
97.9510
 20
134.528
 30
0.000000
  70
    32
  0
VERTEX
  8
0
  5
2C18
 10
97.9506
 20
134.556
 30
0.000000
  70
    32
  0
VERTEX
  8
0
  5
2C19
 10
97.9499
 20
134.584
 30
0.000000
  70
    32
  0
VERTEX
  8
0
  5
2C1A
 10
97.9489
 20
134.612
 30
0.000000
  70
    32
  0
VERTEX
  8
0
  5
2C1B
 10
97.9477
 20
134.640
 30
0.000000
  70
    32
  0
VERTEX
  8
0
  5
2C1C
 10
97.9461
 20
134.668
 30
0.000000
  70
    32
  0
VERTEX
  8
0
  5
2C1D
 10
97.9443
 20
134.696
 30
0.000000
  70
    32
  0
VERTEX
  8
0
  5
2C1E
 10
97.9423
 20
134.724
 30
0.000000
  70
    32
  0
VERTEX
  8
0
  5
2C1F
 10
97.9399
 20
134.752
 30
0.000000
  70
    32
  0
VERTEX
  8
0
  5
2C20
 10
97.9373
 20
134.780
 30
0.000000
  70
    32
  0
VERTEX
  8
0
  5
2C21
 10
97.9344
 20
134.808
 30
0.000000
  70
    32
  0
VERTEX
  8
0
  5
2C22
 10
97.9312
 20
134.836
 30
0.000000
  70
    32
  0
VERTEX
  8
0
  5
2C23
 10
97.9277
 20
134.864
 30
0.000000
  70
    32
  0
VERTEX
  8
0
  5
2C24
 10
97.9240
 20
134.891
 30
0.000000
  70
    32
  0
VERTEX
  8
0
  5
2C25
 10
97.9200
 20
134.919
 30
0.000000
  70
    32
  0
VERTEX
  8
0
  5
2C26
 10
97.9157
 20
134.947
 30
0.000000
  70
    32
  0
VERTEX
  8
0
  5
2C27
 10
97.9111
 20
134.975
 30
0.000000
  70
    32
  0
VERTEX
  8
0
  5
2C28
 10
97.9063
 20
135.003
 30
0.000000
  70
    32
  0
VERTEX
  8
0
  5
2C29
 10
97.9012
 20
135.030
 30
0.000000
  70
    32
  0
VERTEX
  8
0
  5
2C2A
 10
97.8958
 20
135.058
 30
0.000000
  70
    32
  0
VERTEX
  8
0
  5
2C2B
 10
97.8901
 20
135.086
 30
0.000000
  70
    32
  0
VERTEX
  8
0
  5
2C2C
 10
97.8842
 20
135.114
 30
0.000000
  70
    32
  0
VERTEX
  8
0
  5
2C2D
 10
97.8780
 20
135.141
 30
0.000000
  70
    32
  0
VERTEX
  8
0
  5
2C2E
 10
97.8715
 20
135.169
 30
0.000000
  70
    32
  0
VERTEX
  8
0
  5
2C2F
 10
97.8647
 20
135.196
 30
0.000000
  70
    32
  0
VERTEX
  8
0
  5
2C30
 10
97.8577
 20
135.224
 30
0.000000
  70
    32
  0
VERTEX
  8
0
  5
2C31
 10
97.8504
 20
135.252
 30
0.000000
  70
    32
  0
VERTEX
  8
0
  5
2C32
 10
97.8428
 20
135.279
 30
0.000000
  70
    32
  0
VERTEX
  8
0
  5
2C33
 10
97.8350
 20
135.306
 30
0.000000
  70
    32
  0
VERTEX
  8
0
  5
2C34
 10
97.8268
 20
135.334
 30
0.000000
  70
    32
  0
VERTEX
  8
0
  5
2C35
 10
97.8185
 20
135.361
 30
0.000000
  70
    32
  0
VERTEX
  8
0
  5
2C36
 10
97.8098
 20
135.389
 30
0.000000
  70
    32
  0
VERTEX
  8
0
  5
2C37
 10
97.8009
 20
135.416
 30
0.000000
  70
    32
  0
VERTEX
  8
0
  5
2C38
 10
97.7917
 20
135.443
 30
0.000000
  70
    32
  0
VERTEX
  8
0
  5
2C39
 10
97.7822
 20
135.470
 30
0.000000
  70
    32
  0
VERTEX
  8
0
  5
2C3A
 10
97.7724
 20
135.497
 30
0.000000
  70
    32
  0
VERTEX
  8
0
  5
2C3B
 10
97.7624
 20
135.525
 30
0.000000
  70
    32
  0
VERTEX
  8
0
  5
2C3C
 10
97.7522
 20
135.552
 30
0.000000
  70
    32
  0
VERTEX
  8
0
  5
2C3D
 10
97.7416
 20
135.579
 30
0.000000
  70
    32
  0
VERTEX
  8
0
  5
2C3E
 10
97.7308
 20
135.605
 30
0.000000
  70
    32
  0
VERTEX
  8
0
  5
2C3F
 10
97.7197
 20
135.632
 30
0.000000
  70
    32
  0
VERTEX
  8
0
  5
2C40
 10
97.7084
 20
135.659
 30
0.000000
  70
    32
  0
VERTEX
  8
0
  5
2C41
 10
97.6968
 20
135.686
 30
0.000000
  70
    32
  0
VERTEX
  8
0
  5
2C42
 10
97.6849
 20
135.713
 30
0.000000
  70
    32
  0
VERTEX
  8
0
  5
2C43
 10
97.6728
 20
135.739
 30
0.000000
  70
    32
  0
VERTEX
  8
0
  5
2C44
 10
97.6604
 20
135.766
 30
0.000000
  70
    32
  0
VERTEX
  8
0
  5
2C45
 10
97.6477
 20
135.792
 30
0.000000
  70
    32
  0
VERTEX
  8
0
  5
2C46
 10
97.6348
 20
135.819
 30
0.000000
  70
    32
  0
VERTEX
  8
0
  5
2C47
 10
97.6216
 20
135.845
 30
0.000000
  70
    32
  0
VERTEX
  8
0
  5
2C48
 10
97.6081
 20
135.872
 30
0.000000
  70
    32
  0
VERTEX
  8
0
  5
2C49
 10
97.5944
 20
135.898
 30
0.000000
  70
    32
  0
VERTEX
  8
0
  5
2C4A
 10
97.5805
 20
135.924
 30
0.000000
  70
    32
  0
VERTEX
  8
0
  5
2C4B
 10
97.5662
 20
135.950
 30
0.000000
  70
    32
  0
VERTEX
  8
0
  5
2C4C
 10
97.5517
 20
135.976
 30
0.000000
  70
    32
  0
VERTEX
  8
0
  5
2C4D
 10
97.5370
 20
136.002
 30
0.000000
  70
    32
  0
VERTEX
  8
0
  5
2C4E
 10
97.5220
 20
136.028
 30
0.000000
  70
    32
  0
VERTEX
  8
0
  5
2C4F
 10
97.5067
 20
136.054
 30
0.000000
  70
    32
  0
VERTEX
  8
0
  5
2C50
 10
97.4912
 20
136.080
 30
0.000000
  70
    32
  0
VERTEX
  8
0
  5
2C51
 10
97.4755
 20
136.106
 30
0.000000
  70
    32
  0
VERTEX
  8
0
  5
2C52
 10
97.4594
 20
136.131
 30
0.000000
  70
    32
  0
VERTEX
  8
0
  5
2C53
 10
97.4432
 20
136.157
 30
0.000000
  70
    32
  0
VERTEX
  8
0
  5
2C54
 10
97.4266
 20
136.182
 30
0.000000
  70
    32
  0
VERTEX
  8
0
  5
2C55
 10
97.4099
 20
136.207
 30
0.000000
  70
    32
  0
VERTEX
  8
0
  5
2C56
 10
97.3928
 20
136.233
 30
0.000000
  70
    32
  0
VERTEX
  8
0
  5
2C57
 10
97.3755
 20
136.258
 30
0.000000
  70
    32
  0
VERTEX
  8
0
  5
2C58
 10
97.3580
 20
136.283
 30
0.000000
  70
    32
  0
VERTEX
  8
0
  5
2C59
 10
97.3402
 20
136.308
 30
0.000000
  70
    32
  0
VERTEX
  8
0
  5
2C5A
 10
97.3222
 20
136.333
 30
0.000000
  70
    32
  0
VERTEX
  8
0
  5
2C5B
 10
97.3039
 20
136.358
 30
0.000000
  70
    32
  0
VERTEX
  8
0
  5
2C5C
 10
97.2854
 20
136.383
 30
0.000000
  70
    32
  0
VERTEX
  8
0
  5
2C5D
 10
97.2667
 20
136.407
 30
0.000000
  70
    32
  0
VERTEX
  8
0
  5
2C5E
 10
97.2477
 20
136.432
 30
0.000000
  70
    32
  0
VERTEX
  8
0
  5
2C5F
 10
97.2284
 20
136.456
 30
0.000000
  70
    32
  0
VERTEX
  8
0
  5
2C60
 10
97.2089
 20
136.481
 30
0.000000
  70
    32
  0
VERTEX
  8
0
  5
2C61
 10
97.1892
 20
136.505
 30
0.000000
  70
    32
  0
VERTEX
  8
0
  5
2C62
 10
97.1692
 20
136.529
 30
0.000000
  70
    32
  0
VERTEX
  8
0
  5
2C63
 10
97.1490
 20
136.553
 30
0.000000
  70
    32
  0
VERTEX
  8
0
  5
2C64
 10
97.1286
 20
136.577
 30
0.000000
  70
    32
  0
VERTEX
  8
0
  5
2C65
 10
97.1079
 20
136.601
 30
0.000000
  70
    32
  0
VERTEX
  8
0
  5
2C66
 10
97.0870
 20
136.625
 30
0.000000
  70
    32
  0
VERTEX
  8
0
  5
2C67
 10
97.0658
 20
136.649
 30
0.000000
  70
    32
  0
VERTEX
  8
0
  5
2C68
 10
97.0444
 20
136.672
 30
0.000000
  70
    32
  0
VERTEX
  8
0
  5
2C69
 10
97.0228
 20
136.696
 30
0.000000
  70
    32
  0
VERTEX
  8
0
  5
2C6A
 10
97.0010
 20
136.719
 30
0.000000
  70
    32
  0
VERTEX
  8
0
  5
2C6B
 10
96.9789
 20
136.742
 30
0.000000
  70
    32
  0
VERTEX
  8
0
  5
2C6C
 10
96.9566
 20
136.765
 30
0.000000
  70
    32
  0
VERTEX
  8
0
  5
2C6D
 10
96.9340
 20
136.788
 30
0.000000
  70
    32
  0
VERTEX
  8
0
  5
2C6E
 10
96.9113
 20
136.811
 30
0.000000
  70
    32
  0
VERTEX
  8
0
  5
2C6F
 10
96.8883
 20
136.834
 30
0.000000
  70
    32
  0
VERTEX
  8
0
  5
2C70
 10
96.8650
 20
136.857
 30
0.000000
  70
    32
  0
VERTEX
  8
0
  5
2C71
 10
96.8416
 20
136.879
 30
0.000000
  70
    32
  0
VERTEX
  8
0
  5
2C72
 10
96.8179
 20
136.902
 30
0.000000
  70
    32
  0
VERTEX
  8
0
  5
2C73
 10
96.7940
 20
136.924
 30
0.000000
  70
    32
  0
VERTEX
  8
0
  5
2C74
 10
96.7699
 20
136.946
 30
0.000000
  70
    32
  0
VERTEX
  8
0
  5
2C75
 10
96.7456
 20
136.968
 30
0.000000
  70
    32
  0
VERTEX
  8
0
  5
2C76
 10
96.7211
 20
136.990
 30
0.000000
  70
    32
  0
VERTEX
  8
0
  5
2C77
 10
96.6963
 20
137.012
 30
0.000000
  70
    32
  0
VERTEX
  8
0
  5
2C78
 10
96.6713
 20
137.034
 30
0.000000
  70
    32
  0
VERTEX
  8
0
  5
2C79
 10
96.6461
 20
137.056
 30
0.000000
  70
    32
  0
VERTEX
  8
0
  5
2C7A
 10
96.6207
 20
137.077
 30
0.000000
  70
    32
  0
VERTEX
  8
0
  5
2C7B
 10
96.5951
 20
137.098
 30
0.000000
  70
    32
  0
VERTEX
  8
0
  5
2C7C
 10
96.5693
 20
137.120
 30
0.000000
  70
    32
  0
VERTEX
  8
0
  5
2C7D
 10
96.5432
 20
137.141
 30
0.000000
  70
    32
  0
VERTEX
  8
0
  5
2C7E
 10
96.5170
 20
137.162
 30
0.000000
  70
    32
  0
VERTEX
  8
0
  5
2C7F
 10
96.4905
 20
137.182
 30
0.000000
  70
    32
  0
VERTEX
  8
0
  5
2C80
 10
96.4639
 20
137.203
 30
0.000000
  70
    32
  0
VERTEX
  8
0
  5
2C81
 10
96.4370
 20
137.224
 30
0.000000
  70
    32
  0
VERTEX
  8
0
  5
2C82
 10
96.4099
 20
137.244
 30
0.000000
  70
    32
  0
VERTEX
  8
0
  5
2C83
 10
96.3827
 20
137.265
 30
0.000000
  70
    32
  0
VERTEX
  8
0
  5
2C84
 10
96.3552
 20
137.285
 30
0.000000
  70
    32
  0
VERTEX
  8
0
  5
2C85
 10
96.3275
 20
137.305
 30
0.000000
  70
    32
  0
VERTEX
  8
0
  5
2C86
 10
96.2997
 20
137.325
 30
0.000000
  70
    32
  0
VERTEX
  8
0
  5
2C87
 10
96.2716
 20
137.344
 30
0.000000
  70
    32
  0
VERTEX
  8
0
  5
2C88
 10
96.2434
 20
137.364
 30
0.000000
  70
    32
  0
VERTEX
  8
0
  5
2C89
 10
96.2149
 20
137.383
 30
0.000000
  70
    32
  0
VERTEX
  8
0
  5
2C8A
 10
96.1863
 20
137.403
 30
0.000000
  70
    32
  0
VERTEX
  8
0
  5
2C8B
 10
96.1574
 20
137.422
 30
0.000000
  70
    32
  0
VERTEX
  8
0
  5
2C8C
 10
96.1284
 20
137.441
 30
0.000000
  70
    32
  0
VERTEX
  8
0
  5
2C8D
 10
96.0992
 20
137.460
 30
0.000000
  70
    32
  0
VERTEX
  8
0
  5
2C8E
 10
96.0698
 20
137.479
 30
0.000000
  70
    32
  0
VERTEX
  8
0
  5
2C8F
 10
96.0402
 20
137.497
 30
0.000000
  70
    32
  0
VERTEX
  8
0
  5
2C90
 10
96.0105
 20
137.516
 30
0.000000
  70
    32
  0
VERTEX
  8
0
  5
2C91
 10
95.9805
 20
137.534
 30
0.000000
  70
    32
  0
VERTEX
  8
0
  5
2C92
 10
95.9504
 20
137.552
 30
0.000000
  70
    32
  0
VERTEX
  8
0
  5
2C93
 10
95.9201
 20
137.570
 30
0.000000
  70
    32
  0
VERTEX
  8
0
  5
2C94
 10
95.8896
 20
137.588
 30
0.000000
  70
    32
  0
VERTEX
  8
0
  5
2C95
 10
95.8589
 20
137.606
 30
0.000000
  70
    32
  0
VERTEX
  8
0
  5
2C96
 10
95.8281
 20
137.623
 30
0.000000
  70
    32
  0
SEQEND
  8
0
  5
2C97
  0
LINE
  5
2120
  8
0
 10
77.881589950353259
 20
139.46944987141379
 30
0.0
 11
74.61833700168529
 21
137.62347523442079
 31
0.0
  0
POLYLINE
  5
2121
  8
0
 10
84.949207595175963
 20
141.22249938999997
 30
0.0
 66
     1
 70
     8
  0
VERTEX
  8
0
  5
2C98
 10
84.9492
 20
141.222
 30
0.000000
  70
    32
  0
VERTEX
  8
0
  5
2C99
 10
84.8896
 20
141.222
 30
0.000000
  70
    32
  0
VERTEX
  8
0
  5
2C9A
 10
84.8299
 20
141.222
 30
0.000000
  70
    32
  0
VERTEX
  8
0
  5
2C9B
 10
84.7703
 20
141.221
 30
0.000000
  70
    32
  0
VERTEX
  8
0
  5
2C9C
 10
84.7107
 20
141.221
 30
0.000000
  70
    32
  0
VERTEX
  8
0
  5
2C9D
 10
84.6510
 20
141.220
 30
0.000000
  70
    32
  0
VERTEX
  8
0
  5
2C9E
 10
84.5914
 20
141.218
 30
0.000000
  70
    32
  0
VERTEX
  8
0
  5
2C9F
 10
84.5318
 20
141.217
 30
0.000000
  70
    32
  0
VERTEX
  8
0
  5
2CA0
 10
84.4722
 20
141.215
 30
0.000000
  70
    32
  0
VERTEX
  8
0
  5
2CA1
 10
84.4127
 20
141.213
 30
0.000000
  70
    32
  0
VERTEX
  8
0
  5
2CA2
 10
84.3531
 20
141.211
 30
0.000000
  70
    32
  0
VERTEX
  8
0
  5
2CA3
 10
84.2935
 20
141.209
 30
0.000000
  70
    32
  0
VERTEX
  8
0
  5
2CA4
 10
84.2340
 20
141.206
 30
0.000000
  70
    32
  0
VERTEX
  8
0
  5
2CA5
 10
84.1745
 20
141.204
 30
0.000000
  70
    32
  0
VERTEX
  8
0
  5
2CA6
 10
84.1150
 20
141.201
 30
0.000000
  70
    32
  0
VERTEX
  8
0
  5
2CA7
 10
84.0556
 20
141.198
 30
0.000000
  70
    32
  0
VERTEX
  8
0
  5
2CA8
 10
83.9961
 20
141.194
 30
0.000000
  70
    32
  0
VERTEX
  8
0
  5
2CA9
 10
83.9367
 20
141.190
 30
0.000000
  70
    32
  0
VERTEX
  8
0
  5
2CAA
 10
83.8773
 20
141.187
 30
0.000000
  70
    32
  0
VERTEX
  8
0
  5
2CAB
 10
83.8180
 20
141.182
 30
0.000000
  70
    32
  0
VERTEX
  8
0
  5
2CAC
 10
83.7586
 20
141.178
 30
0.000000
  70
    32
  0
VERTEX
  8
0
  5
2CAD
 10
83.6993
 20
141.174
 30
0.000000
  70
    32
  0
VERTEX
  8
0
  5
2CAE
 10
83.6401
 20
141.169
 30
0.000000
  70
    32
  0
VERTEX
  8
0
  5
2CAF
 10
83.5809
 20
141.164
 30
0.000000
  70
    32
  0
VERTEX
  8
0
  5
2CB0
 10
83.5217
 20
141.159
 30
0.000000
  70
    32
  0
VERTEX
  8
0
  5
2CB1
 10
83.4625
 20
141.153
 30
0.000000
  70
    32
  0
VERTEX
  8
0
  5
2CB2
 10
83.4034
 20
141.147
 30
0.000000
  70
    32
  0
VERTEX
  8
0
  5
2CB3
 10
83.3444
 20
141.142
 30
0.000000
  70
    32
  0
VERTEX
  8
0
  5
2CB4
 10
83.2854
 20
141.136
 30
0.000000
  70
    32
  0
VERTEX
  8
0
  5
2CB5
 10
83.2264
 20
141.129
 30
0.000000
  70
    32
  0
VERTEX
  8
0
  5
2CB6
 10
83.1675
 20
141.123
 30
0.000000
  70
    32
  0
VERTEX
  8
0
  5
2CB7
 10
83.1086
 20
141.116
 30
0.000000
  70
    32
  0
VERTEX
  8
0
  5
2CB8
 10
83.0498
 20
141.109
 30
0.000000
  70
    32
  0
VERTEX
  8
0
  5
2CB9
 10
82.9910
 20
141.102
 30
0.000000
  70
    32
  0
VERTEX
  8
0
  5
2CBA
 10
82.9323
 20
141.094
 30
0.000000
  70
    32
  0
VERTEX
  8
0
  5
2CBB
 10
82.8737
 20
141.087
 30
0.000000
  70
    32
  0
VERTEX
  8
0
  5
2CBC
 10
82.8151
 20
141.079
 30
0.000000
  70
    32
  0
VERTEX
  8
0
  5
2CBD
 10
82.7565
 20
141.071
 30
0.000000
  70
    32
  0
VERTEX
  8
0
  5
2CBE
 10
82.6980
 20
141.063
 30
0.000000
  70
    32
  0
VERTEX
  8
0
  5
2CBF
 10
82.6396
 20
141.054
 30
0.000000
  70
    32
  0
VERTEX
  8
0
  5
2CC0
 10
82.5813
 20
141.045
 30
0.000000
  70
    32
  0
VERTEX
  8
0
  5
2CC1
 10
82.5230
 20
141.036
 30
0.000000
  70
    32
  0
VERTEX
  8
0
  5
2CC2
 10
82.4648
 20
141.027
 30
0.000000
  70
    32
  0
VERTEX
  8
0
  5
2CC3
 10
82.4066
 20
141.018
 30
0.000000
  70
    32
  0
VERTEX
  8
0
  5
2CC4
 10
82.3485
 20
141.008
 30
0.000000
  70
    32
  0
VERTEX
  8
0
  5
2CC5
 10
82.2905
 20
140.998
 30
0.000000
  70
    32
  0
VERTEX
  8
0
  5
2CC6
 10
82.2326
 20
140.988
 30
0.000000
  70
    32
  0
VERTEX
  8
0
  5
2CC7
 10
82.1748
 20
140.978
 30
0.000000
  70
    32
  0
VERTEX
  8
0
  5
2CC8
 10
82.1170
 20
140.968
 30
0.000000
  70
    32
  0
VERTEX
  8
0
  5
2CC9
 10
82.0593
 20
140.957
 30
0.000000
  70
    32
  0
VERTEX
  8
0
  5
2CCA
 10
82.0017
 20
140.946
 30
0.000000
  70
    32
  0
VERTEX
  8
0
  5
2CCB
 10
81.9441
 20
140.935
 30
0.000000
  70
    32
  0
VERTEX
  8
0
  5
2CCC
 10
81.8867
 20
140.924
 30
0.000000
  70
    32
  0
VERTEX
  8
0
  5
2CCD
 10
81.8293
 20
140.912
 30
0.000000
  70
    32
  0
VERTEX
  8
0
  5
2CCE
 10
81.7720
 20
140.901
 30
0.000000
  70
    32
  0
VERTEX
  8
0
  5
2CCF
 10
81.7148
 20
140.889
 30
0.000000
  70
    32
  0
VERTEX
  8
0
  5
2CD0
 10
81.6577
 20
140.876
 30
0.000000
  70
    32
  0
VERTEX
  8
0
  5
2CD1
 10
81.6007
 20
140.864
 30
0.000000
  70
    32
  0
VERTEX
  8
0
  5
2CD2
 10
81.5438
 20
140.851
 30
0.000000
  70
    32
  0
VERTEX
  8
0
  5
2CD3
 10
81.4869
 20
140.839
 30
0.000000
  70
    32
  0
VERTEX
  8
0
  5
2CD4
 10
81.4302
 20
140.826
 30
0.000000
  70
    32
  0
VERTEX
  8
0
  5
2CD5
 10
81.3736
 20
140.812
 30
0.000000
  70
    32
  0
VERTEX
  8
0
  5
2CD6
 10
81.3171
 20
140.799
 30
0.000000
  70
    32
  0
VERTEX
  8
0
  5
2CD7
 10
81.2606
 20
140.785
 30
0.000000
  70
    32
  0
VERTEX
  8
0
  5
2CD8
 10
81.2043
 20
140.772
 30
0.000000
  70
    32
  0
VERTEX
  8
0
  5
2CD9
 10
81.1481
 20
140.757
 30
0.000000
  70
    32
  0
VERTEX
  8
0
  5
2CDA
 10
81.0919
 20
140.743
 30
0.000000
  70
    32
  0
VERTEX
  8
0
  5
2CDB
 10
81.0359
 20
140.729
 30
0.000000
  70
    32
  0
VERTEX
  8
0
  5
2CDC
 10
80.9800
 20
140.714
 30
0.000000
  70
    32
  0
VERTEX
  8
0
  5
2CDD
 10
80.9242
 20
140.699
 30
0.000000
  70
    32
  0
VERTEX
  8
0
  5
2CDE
 10
80.8686
 20
140.684
 30
0.000000
  70
    32
  0
VERTEX
  8
0
  5
2CDF
 10
80.8130
 20
140.669
 30
0.000000
  70
    32
  0
VERTEX
  8
0
  5
2CE0
 10
80.7575
 20
140.653
 30
0.000000
  70
    32
  0
VERTEX
  8
0
  5
2CE1
 10
80.7022
 20
140.637
 30
0.000000
  70
    32
  0
VERTEX
  8
0
  5
2CE2
 10
80.6470
 20
140.622
 30
0.000000
  70
    32
  0
VERTEX
  8
0
  5
2CE3
 10
80.5919
 20
140.605
 30
0.000000
  70
    32
  0
VERTEX
  8
0
  5
2CE4
 10
80.5369
 20
140.589
 30
0.000000
  70
    32
  0
VERTEX
  8
0
  5
2CE5
 10
80.4820
 20
140.572
 30
0.000000
  70
    32
  0
VERTEX
  8
0
  5
2CE6
 10
80.4273
 20
140.556
 30
0.000000
  70
    32
  0
VERTEX
  8
0
  5
2CE7
 10
80.3727
 20
140.539
 30
0.000000
  70
    32
  0
VERTEX
  8
0
  5
2CE8
 10
80.3182
 20
140.522
 30
0.000000
  70
    32
  0
VERTEX
  8
0
  5
2CE9
 10
80.2639
 20
140.504
 30
0.000000
  70
    32
  0
VERTEX
  8
0
  5
2CEA
 10
80.2097
 20
140.487
 30
0.000000
  70
    32
  0
VERTEX
  8
0
  5
2CEB
 10
80.1556
 20
140.469
 30
0.000000
  70
    32
  0
VERTEX
  8
0
  5
2CEC
 10
80.1016
 20
140.451
 30
0.000000
  70
    32
  0
VERTEX
  8
0
  5
2CED
 10
80.0478
 20
140.433
 30
0.000000
  70
    32
  0
VERTEX
  8
0
  5
2CEE
 10
79.9941
 20
140.414
 30
0.000000
  70
    32
  0
VERTEX
  8
0
  5
2CEF
 10
79.9406
 20
140.396
 30
0.000000
  70
    32
  0
VERTEX
  8
0
  5
2CF0
 10
79.8872
 20
140.377
 30
0.000000
  70
    32
  0
VERTEX
  8
0
  5
2CF1
 10
79.8339
 20
140.358
 30
0.000000
  70
    32
  0
VERTEX
  8
0
  5
2CF2
 10
79.7808
 20
140.339
 30
0.000000
  70
    32
  0
VERTEX
  8
0
  5
2CF3
 10
79.7278
 20
140.320
 30
0.000000
  70
    32
  0
VERTEX
  8
0
  5
2CF4
 10
79.6750
 20
140.300
 30
0.000000
  70
    32
  0
VERTEX
  8
0
  5
2CF5
 10
79.6223
 20
140.280
 30
0.000000
  70
    32
  0
VERTEX
  8
0
  5
2CF6
 10
79.5697
 20
140.260
 30
0.000000
  70
    32
  0
VERTEX
  8
0
  5
2CF7
 10
79.5173
 20
140.240
 30
0.000000
  70
    32
  0
VERTEX
  8
0
  5
2CF8
 10
79.4651
 20
140.220
 30
0.000000
  70
    32
  0
VERTEX
  8
0
  5
2CF9
 10
79.4130
 20
140.199
 30
0.000000
  70
    32
  0
VERTEX
  8
0
  5
2CFA
 10
79.3611
 20
140.179
 30
0.000000
  70
    32
  0
VERTEX
  8
0
  5
2CFB
 10
79.3093
 20
140.158
 30
0.000000
  70
    32
  0
VERTEX
  8
0
  5
2CFC
 10
79.2577
 20
140.136
 30
0.000000
  70
    32
  0
VERTEX
  8
0
  5
2CFD
 10
79.2062
 20
140.115
 30
0.000000
  70
    32
  0
VERTEX
  8
0
  5
2CFE
 10
79.1549
 20
140.094
 30
0.000000
  70
    32
  0
VERTEX
  8
0
  5
2CFF
 10
79.1038
 20
140.072
 30
0.000000
  70
    32
  0
VERTEX
  8
0
  5
2D00
 10
79.0528
 20
140.050
 30
0.000000
  70
    32
  0
VERTEX
  8
0
  5
2D01
 10
79.0020
 20
140.028
 30
0.000000
  70
    32
  0
VERTEX
  8
0
  5
2D02
 10
78.9513
 20
140.006
 30
0.000000
  70
    32
  0
VERTEX
  8
0
  5
2D03
 10
78.9008
 20
139.983
 30
0.000000
  70
    32
  0
VERTEX
  8
0
  5
2D04
 10
78.8505
 20
139.961
 30
0.000000
  70
    32
  0
VERTEX
  8
0
  5
2D05
 10
78.8004
 20
139.938
 30
0.000000
  70
    32
  0
VERTEX
  8
0
  5
2D06
 10
78.7504
 20
139.915
 30
0.000000
  70
    32
  0
VERTEX
  8
0
  5
2D07
 10
78.7006
 20
139.892
 30
0.000000
  70
    32
  0
VERTEX
  8
0
  5
2D08
 10
78.6510
 20
139.868
 30
0.000000
  70
    32
  0
VERTEX
  8
0
  5
2D09
 10
78.6015
 20
139.845
 30
0.000000
  70
    32
  0
VERTEX
  8
0
  5
2D0A
 10
78.5522
 20
139.821
 30
0.000000
  70
    32
  0
VERTEX
  8
0
  5
2D0B
 10
78.5031
 20
139.797
 30
0.000000
  70
    32
  0
VERTEX
  8
0
  5
2D0C
 10
78.4542
 20
139.773
 30
0.000000
  70
    32
  0
VERTEX
  8
0
  5
2D0D
 10
78.4055
 20
139.749
 30
0.000000
  70
    32
  0
VERTEX
  8
0
  5
2D0E
 10
78.3569
 20
139.724
 30
0.000000
  70
    32
  0
VERTEX
  8
0
  5
2D0F
 10
78.3085
 20
139.699
 30
0.000000
  70
    32
  0
VERTEX
  8
0
  5
2D10
 10
78.2603
 20
139.675
 30
0.000000
  70
    32
  0
VERTEX
  8
0
  5
2D11
 10
78.2123
 20
139.650
 30
0.000000
  70
    32
  0
VERTEX
  8
0
  5
2D12
 10
78.1645
 20
139.624
 30
0.000000
  70
    32
  0
VERTEX
  8
0
  5
2D13
 10
78.1169
 20
139.599
 30
0.000000
  70
    32
  0
VERTEX
  8
0
  5
2D14
 10
78.0694
 20
139.573
 30
0.000000
  70
    32
  0
VERTEX
  8
0
  5
2D15
 10
78.0222
 20
139.548
 30
0.000000
  70
    32
  0
VERTEX
  8
0
  5
2D16
 10
77.9751
 20
139.522
 30
0.000000
  70
    32
  0
VERTEX
  8
0
  5
2D17
 10
77.9283
 20
139.496
 30
0.000000
  70
    32
  0
VERTEX
  8
0
  5
2D18
 10
77.8816
 20
139.469
 30
0.000000
  70
    32
  0
SEQEND
  8
0
  5
2D19
  0
LINE
  5
2122
  8
0
 10
97.951135718857813
 20
134.49999999999989
 30
0.0
 11
64.493863061142179
 21
134.49999999999989
 31
0.0
  0
POLYLINE
  5
2124
  8
0
 10
114.61833700168521
 20
137.62347523442085
 30
0.0
 66
     1
 70
     8
  0
VERTEX
  8
0
  5
2D1A
 10
114.618
 20
137.623
 30
0.000000
  70
    32
  0
VERTEX
  8
0
  5
2D1B
 10
114.588
 20
137.606
 30
0.000000
  70
    32
  0
VERTEX
  8
0
  5
2D1C
 10
114.557
 20
137.588
 30
0.000000
  70
    32
  0
VERTEX
  8
0
  5
2D1D
 10
114.526
 20
137.570
 30
0.000000
  70
    32
  0
VERTEX
  8
0
  5
2D1E
 10
114.496
 20
137.552
 30
0.000000
  70
    32
  0
VERTEX
  8
0
  5
2D1F
 10
114.466
 20
137.534
 30
0.000000
  70
    32
  0
VERTEX
  8
0
  5
2D20
 10
114.436
 20
137.516
 30
0.000000
  70
    32
  0
VERTEX
  8
0
  5
2D21
 10
114.406
 20
137.497
 30
0.000000
  70
    32
  0
VERTEX
  8
0
  5
2D22
 10
114.377
 20
137.479
 30
0.000000
  70
    32
  0
VERTEX
  8
0
  5
2D23
 10
114.347
 20
137.460
 30
0.000000
  70
    32
  0
VERTEX
  8
0
  5
2D24
 10
114.318
 20
137.441
 30
0.000000
  70
    32
  0
VERTEX
  8
0
  5
2D25
 10
114.289
 20
137.422
 30
0.000000
  70
    32
  0
VERTEX
  8
0
  5
2D26
 10
114.260
 20
137.403
 30
0.000000
  70
    32
  0
VERTEX
  8
0
  5
2D27
 10
114.232
 20
137.383
 30
0.000000
  70
    32
  0
VERTEX
  8
0
  5
2D28
 10
114.203
 20
137.364
 30
0.000000
  70
    32
  0
VERTEX
  8
0
  5
2D29
 10
114.175
 20
137.344
 30
0.000000
  70
    32
  0
VERTEX
  8
0
  5
2D2A
 10
114.147
 20
137.325
 30
0.000000
  70
    32
  0
VERTEX
  8
0
  5
2D2B
 10
114.119
 20
137.305
 30
0.000000
  70
    32
  0
VERTEX
  8
0
  5
2D2C
 10
114.091
 20
137.285
 30
0.000000
  70
    32
  0
VERTEX
  8
0
  5
2D2D
 10
114.064
 20
137.265
 30
0.000000
  70
    32
  0
VERTEX
  8
0
  5
2D2E
 10
114.036
 20
137.244
 30
0.000000
  70
    32
  0
VERTEX
  8
0
  5
2D2F
 10
114.009
 20
137.224
 30
0.000000
  70
    32
  0
VERTEX
  8
0
  5
2D30
 10
113.983
 20
137.203
 30
0.000000
  70
    32
  0
VERTEX
  8
0
  5
2D31
 10
113.956
 20
137.182
 30
0.000000
  70
    32
  0
VERTEX
  8
0
  5
2D32
 10
113.929
 20
137.162
 30
0.000000
  70
    32
  0
VERTEX
  8
0
  5
2D33
 10
113.903
 20
137.141
 30
0.000000
  70
    32
  0
VERTEX
  8
0
  5
2D34
 10
113.877
 20
137.120
 30
0.000000
  70
    32
  0
VERTEX
  8
0
  5
2D35
 10
113.851
 20
137.098
 30
0.000000
  70
    32
  0
VERTEX
  8
0
  5
2D36
 10
113.826
 20
137.077
 30
0.000000
  70
    32
  0
VERTEX
  8
0
  5
2D37
 10
113.800
 20
137.056
 30
0.000000
  70
    32
  0
VERTEX
  8
0
  5
2D38
 10
113.775
 20
137.034
 30
0.000000
  70
    32
  0
VERTEX
  8
0
  5
2D39
 10
113.750
 20
137.012
 30
0.000000
  70
    32
  0
VERTEX
  8
0
  5
2D3A
 10
113.725
 20
136.990
 30
0.000000
  70
    32
  0
VERTEX
  8
0
  5
2D3B
 10
113.701
 20
136.968
 30
0.000000
  70
    32
  0
VERTEX
  8
0
  5
2D3C
 10
113.676
 20
136.946
 30
0.000000
  70
    32
  0
VERTEX
  8
0
  5
2D3D
 10
113.652
 20
136.924
 30
0.000000
  70
    32
  0
VERTEX
  8
0
  5
2D3E
 10
113.628
 20
136.902
 30
0.000000
  70
    32
  0
VERTEX
  8
0
  5
2D3F
 10
113.605
 20
136.879
 30
0.000000
  70
    32
  0
VERTEX
  8
0
  5
2D40
 10
113.581
 20
136.857
 30
0.000000
  70
    32
  0
VERTEX
  8
0
  5
2D41
 10
113.558
 20
136.834
 30
0.000000
  70
    32
  0
VERTEX
  8
0
  5
2D42
 10
113.535
 20
136.811
 30
0.000000
  70
    32
  0
VERTEX
  8
0
  5
2D43
 10
113.512
 20
136.788
 30
0.000000
  70
    32
  0
VERTEX
  8
0
  5
2D44
 10
113.490
 20
136.765
 30
0.000000
  70
    32
  0
VERTEX
  8
0
  5
2D45
 10
113.468
 20
136.742
 30
0.000000
  70
    32
  0
VERTEX
  8
0
  5
2D46
 10
113.445
 20
136.719
 30
0.000000
  70
    32
  0
VERTEX
  8
0
  5
2D47
 10
113.424
 20
136.696
 30
0.000000
  70
    32
  0
VERTEX
  8
0
  5
2D48
 10
113.402
 20
136.672
 30
0.000000
  70
    32
  0
VERTEX
  8
0
  5
2D49
 10
113.381
 20
136.649
 30
0.000000
  70
    32
  0
VERTEX
  8
0
  5
2D4A
 10
113.359
 20
136.625
 30
0.000000
  70
    32
  0
VERTEX
  8
0
  5
2D4B
 10
113.339
 20
136.601
 30
0.000000
  70
    32
  0
VERTEX
  8
0
  5
2D4C
 10
113.318
 20
136.577
 30
0.000000
  70
    32
  0
VERTEX
  8
0
  5
2D4D
 10
113.297
 20
136.553
 30
0.000000
  70
    32
  0
VERTEX
  8
0
  5
2D4E
 10
113.277
 20
136.529
 30
0.000000
  70
    32
  0
VERTEX
  8
0
  5
2D4F
 10
113.257
 20
136.505
 30
0.000000
  70
    32
  0
VERTEX
  8
0
  5
2D50
 10
113.237
 20
136.481
 30
0.000000
  70
    32
  0
VERTEX
  8
0
  5
2D51
 10
113.218
 20
136.456
 30
0.000000
  70
    32
  0
VERTEX
  8
0
  5
2D52
 10
113.199
 20
136.432
 30
0.000000
  70
    32
  0
VERTEX
  8
0
  5
2D53
 10
113.180
 20
136.407
 30
0.000000
  70
    32
  0
VERTEX
  8
0
  5
2D54
 10
113.161
 20
136.383
 30
0.000000
  70
    32
  0
VERTEX
  8
0
  5
2D55
 10
113.142
 20
136.358
 30
0.000000
  70
    32
  0
VERTEX
  8
0
  5
2D56
 10
113.124
 20
136.333
 30
0.000000
  70
    32
  0
VERTEX
  8
0
  5
2D57
 10
113.106
 20
136.308
 30
0.000000
  70
    32
  0
VERTEX
  8
0
  5
2D58
 10
113.088
 20
136.283
 30
0.000000
  70
    32
  0
VERTEX
  8
0
  5
2D59
 10
113.071
 20
136.258
 30
0.000000
  70
    32
  0
VERTEX
  8
0
  5
2D5A
 10
113.054
 20
136.233
 30
0.000000
  70
    32
  0
VERTEX
  8
0
  5
2D5B
 10
113.037
 20
136.207
 30
0.000000
  70
    32
  0
VERTEX
  8
0
  5
2D5C
 10
113.020
 20
136.182
 30
0.000000
  70
    32
  0
VERTEX
  8
0
  5
2D5D
 10
113.003
 20
136.157
 30
0.000000
  70
    32
  0
VERTEX
  8
0
  5
2D5E
 10
112.987
 20
136.131
 30
0.000000
  70
    32
  0
VERTEX
  8
0
  5
2D5F
 10
112.971
 20
136.106
 30
0.000000
  70
    32
  0
VERTEX
  8
0
  5
2D60
 10
112.955
 20
136.080
 30
0.000000
  70
    32
  0
VERTEX
  8
0
  5
2D61
 10
112.940
 20
136.054
 30
0.000000
  70
    32
  0
VERTEX
  8
0
  5
2D62
 10
112.924
 20
136.028
 30
0.000000
  70
    32
  0
VERTEX
  8
0
  5
2D63
 10
112.909
 20
136.002
 30
0.000000
  70
    32
  0
VERTEX
  8
0
  5
2D64
 10
112.895
 20
135.976
 30
0.000000
  70
    32
  0
VERTEX
  8
0
  5
2D65
 10
112.880
 20
135.950
 30
0.000000
  70
    32
  0
VERTEX
  8
0
  5
2D66
 10
112.866
 20
135.924
 30
0.000000
  70
    32
  0
VERTEX
  8
0
  5
2D67
 10
112.852
 20
135.898
 30
0.000000
  70
    32
  0
VERTEX
  8
0
  5
2D68
 10
112.838
 20
135.872
 30
0.000000
  70
    32
  0
VERTEX
  8
0
  5
2D69
 10
112.825
 20
135.845
 30
0.000000
  70
    32
  0
VERTEX
  8
0
  5
2D6A
 10
112.812
 20
135.819
 30
0.000000
  70
    32
  0
VERTEX
  8
0
  5
2D6B
 10
112.799
 20
135.792
 30
0.000000
  70
    32
  0
VERTEX
  8
0
  5
2D6C
 10
112.786
 20
135.766
 30
0.000000
  70
    32
  0
VERTEX
  8
0
  5
2D6D
 10
112.774
 20
135.739
 30
0.000000
  70
    32
  0
VERTEX
  8
0
  5
2D6E
 10
112.762
 20
135.713
 30
0.000000
  70
    32
  0
VERTEX
  8
0
  5
2D6F
 10
112.750
 20
135.686
 30
0.000000
  70
    32
  0
VERTEX
  8
0
  5
2D70
 10
112.738
 20
135.659
 30
0.000000
  70
    32
  0
VERTEX
  8
0
  5
2D71
 10
112.727
 20
135.632
 30
0.000000
  70
    32
  0
VERTEX
  8
0
  5
2D72
 10
112.716
 20
135.605
 30
0.000000
  70
    32
  0
VERTEX
  8
0
  5
2D73
 10
112.705
 20
135.579
 30
0.000000
  70
    32
  0
VERTEX
  8
0
  5
2D74
 10
112.694
 20
135.552
 30
0.000000
  70
    32
  0
VERTEX
  8
0
  5
2D75
 10
112.684
 20
135.525
 30
0.000000
  70
    32
  0
VERTEX
  8
0
  5
2D76
 10
112.674
 20
135.497
 30
0.000000
  70
    32
  0
VERTEX
  8
0
  5
2D77
 10
112.664
 20
135.470
 30
0.000000
  70
    32
  0
VERTEX
  8
0
  5
2D78
 10
112.655
 20
135.443
 30
0.000000
  70
    32
  0
VERTEX
  8
0
  5
2D79
 10
112.646
 20
135.416
 30
0.000000
  70
    32
  0
VERTEX
  8
0
  5
2D7A
 10
112.637
 20
135.389
 30
0.000000
  70
    32
  0
VERTEX
  8
0
  5
2D7B
 10
112.628
 20
135.361
 30
0.000000
  70
    32
  0
VERTEX
  8
0
  5
2D7C
 10
112.620
 20
135.334
 30
0.000000
  70
    32
  0
VERTEX
  8
0
  5
2D7D
 10
112.611
 20
135.306
 30
0.000000
  70
    32
  0
VERTEX
  8
0
  5
2D7E
 10
112.604
 20
135.279
 30
0.000000
  70
    32
  0
VERTEX
  8
0
  5
2D7F
 10
112.596
 20
135.252
 30
0.000000
  70
    32
  0
VERTEX
  8
0
  5
2D80
 10
112.589
 20
135.224
 30
0.000000
  70
    32
  0
VERTEX
  8
0
  5
2D81
 10
112.582
 20
135.196
 30
0.000000
  70
    32
  0
VERTEX
  8
0
  5
2D82
 10
112.575
 20
135.169
 30
0.000000
  70
    32
  0
VERTEX
  8
0
  5
2D83
 10
112.568
 20
135.141
 30
0.000000
  70
    32
  0
VERTEX
  8
0
  5
2D84
 10
112.562
 20
135.114
 30
0.000000
  70
    32
  0
VERTEX
  8
0
  5
2D85
 10
112.556
 20
135.086
 30
0.000000
  70
    32
  0
VERTEX
  8
0
  5
2D86
 10
112.551
 20
135.058
 30
0.000000
  70
    32
  0
VERTEX
  8
0
  5
2D87
 10
112.545
 20
135.030
 30
0.000000
  70
    32
  0
VERTEX
  8
0
  5
2D88
 10
112.540
 20
135.003
 30
0.000000
  70
    32
  0
VERTEX
  8
0
  5
2D89
 10
112.535
 20
134.975
 30
0.000000
  70
    32
  0
VERTEX
  8
0
  5
2D8A
 10
112.531
 20
134.947
 30
0.000000
  70
    32
  0
VERTEX
  8
0
  5
2D8B
 10
112.526
 20
134.919
 30
0.000000
  70
    32
  0
VERTEX
  8
0
  5
2D8C
 10
112.522
 20
134.891
 30
0.000000
  70
    32
  0
VERTEX
  8
0
  5
2D8D
 10
112.519
 20
134.864
 30
0.000000
  70
    32
  0
VERTEX
  8
0
  5
2D8E
 10
112.515
 20
134.836
 30
0.000000
  70
    32
  0
VERTEX
  8
0
  5
2D8F
 10
112.512
 20
134.808
 30
0.000000
  70
    32
  0
VERTEX
  8
0
  5
2D90
 10
112.509
 20
134.780
 30
0.000000
  70
    32
  0
VERTEX
  8
0
  5
2D91
 10
112.507
 20
134.752
 30
0.000000
  70
    32
  0
VERTEX
  8
0
  5
2D92
 10
112.504
 20
134.724
 30
0.000000
  70
    32
  0
VERTEX
  8
0
  5
2D93
 10
112.502
 20
134.696
 30
0.000000
  70
    32
  0
VERTEX
  8
0
  5
2D94
 10
112.500
 20
134.668
 30
0.000000
  70
    32
  0
VERTEX
  8
0
  5
2D95
 10
112.499
 20
134.640
 30
0.000000
  70
    32
  0
VERTEX
  8
0
  5
2D96
 10
112.498
 20
134.612
 30
0.000000
  70
    32
  0
VERTEX
  8
0
  5
2D97
 10
112.497
 20
134.584
 30
0.000000
  70
    32
  0
VERTEX
  8
0
  5
2D98
 10
112.496
 20
134.556
 30
0.000000
  70
    32
  0
VERTEX
  8
0
  5
2D99
 10
112.495
 20
134.528
 30
0.000000
  70
    32
  0
VERTEX
  8
0
  5
2D9A
 10
112.495
 20
134.500
 30
0.000000
  70
    32
  0
SEQEND
  8
0
  5
2D9B
  0
POLYLINE
  5
2125
  8
0
 10
106.61690846668512
 20
137.62347523442082
 30
0.0
 66
     1
 70
     8
  0
VERTEX
  8
0
  5
2D9C
 10
106.617
 20
137.623
 30
0.000000
  70
    32
  0
VERTEX
  8
0
  5
2D9D
 10
106.586
 20
137.606
 30
0.000000
  70
    32
  0
VERTEX
  8
0
  5
2D9E
 10
106.555
 20
137.588
 30
0.000000
  70
    32
  0
VERTEX
  8
0
  5
2D9F
 10
106.525
 20
137.570
 30
0.000000
  70
    32
  0
VERTEX
  8
0
  5
2DA0
 10
106.495
 20
137.552
 30
0.000000
  70
    32
  0
VERTEX
  8
0
  5
2DA1
 10
106.464
 20
137.534
 30
0.000000
  70
    32
  0
VERTEX
  8
0
  5
2DA2
 10
106.435
 20
137.516
 30
0.000000
  70
    32
  0
VERTEX
  8
0
  5
2DA3
 10
106.405
 20
137.497
 30
0.000000
  70
    32
  0
VERTEX
  8
0
  5
2DA4
 10
106.375
 20
137.479
 30
0.000000
  70
    32
  0
VERTEX
  8
0
  5
2DA5
 10
106.346
 20
137.460
 30
0.000000
  70
    32
  0
VERTEX
  8
0
  5
2DA6
 10
106.317
 20
137.441
 30
0.000000
  70
    32
  0
VERTEX
  8
0
  5
2DA7
 10
106.288
 20
137.422
 30
0.000000
  70
    32
  0
VERTEX
  8
0
  5
2DA8
 10
106.259
 20
137.403
 30
0.000000
  70
    32
  0
VERTEX
  8
0
  5
2DA9
 10
106.230
 20
137.383
 30
0.000000
  70
    32
  0
VERTEX
  8
0
  5
2DAA
 10
106.202
 20
137.364
 30
0.000000
  70
    32
  0
VERTEX
  8
0
  5
2DAB
 10
106.173
 20
137.344
 30
0.000000
  70
    32
  0
VERTEX
  8
0
  5
2DAC
 10
106.145
 20
137.325
 30
0.000000
  70
    32
  0
VERTEX
  8
0
  5
2DAD
 10
106.117
 20
137.305
 30
0.000000
  70
    32
  0
VERTEX
  8
0
  5
2DAE
 10
106.090
 20
137.285
 30
0.000000
  70
    32
  0
VERTEX
  8
0
  5
2DAF
 10
106.062
 20
137.265
 30
0.000000
  70
    32
  0
VERTEX
  8
0
  5
2DB0
 10
106.035
 20
137.244
 30
0.000000
  70
    32
  0
VERTEX
  8
0
  5
2DB1
 10
106.008
 20
137.224
 30
0.000000
  70
    32
  0
VERTEX
  8
0
  5
2DB2
 10
105.981
 20
137.203
 30
0.000000
  70
    32
  0
VERTEX
  8
0
  5
2DB3
 10
105.954
 20
137.182
 30
0.000000
  70
    32
  0
VERTEX
  8
0
  5
2DB4
 10
105.928
 20
137.162
 30
0.000000
  70
    32
  0
VERTEX
  8
0
  5
2DB5
 10
105.902
 20
137.141
 30
0.000000
  70
    32
  0
VERTEX
  8
0
  5
2DB6
 10
105.876
 20
137.120
 30
0.000000
  70
    32
  0
VERTEX
  8
0
  5
2DB7
 10
105.850
 20
137.098
 30
0.000000
  70
    32
  0
VERTEX
  8
0
  5
2DB8
 10
105.824
 20
137.077
 30
0.000000
  70
    32
  0
VERTEX
  8
0
  5
2DB9
 10
105.799
 20
137.056
 30
0.000000
  70
    32
  0
VERTEX
  8
0
  5
2DBA
 10
105.774
 20
137.034
 30
0.000000
  70
    32
  0
VERTEX
  8
0
  5
2DBB
 10
105.749
 20
137.012
 30
0.000000
  70
    32
  0
VERTEX
  8
0
  5
2DBC
 10
105.724
 20
136.990
 30
0.000000
  70
    32
  0
VERTEX
  8
0
  5
2DBD
 10
105.699
 20
136.968
 30
0.000000
  70
    32
  0
VERTEX
  8
0
  5
2DBE
 10
105.675
 20
136.946
 30
0.000000
  70
    32
  0
VERTEX
  8
0
  5
2DBF
 10
105.651
 20
136.924
 30
0.000000
  70
    32
  0
VERTEX
  8
0
  5
2DC0
 10
105.627
 20
136.902
 30
0.000000
  70
    32
  0
VERTEX
  8
0
  5
2DC1
 10
105.603
 20
136.879
 30
0.000000
  70
    32
  0
VERTEX
  8
0
  5
2DC2
 10
105.580
 20
136.857
 30
0.000000
  70
    32
  0
VERTEX
  8
0
  5
2DC3
 10
105.557
 20
136.834
 30
0.000000
  70
    32
  0
VERTEX
  8
0
  5
2DC4
 10
105.534
 20
136.811
 30
0.000000
  70
    32
  0
VERTEX
  8
0
  5
2DC5
 10
105.511
 20
136.788
 30
0.000000
  70
    32
  0
VERTEX
  8
0
  5
2DC6
 10
105.488
 20
136.765
 30
0.000000
  70
    32
  0
VERTEX
  8
0
  5
2DC7
 10
105.466
 20
136.742
 30
0.000000
  70
    32
  0
VERTEX
  8
0
  5
2DC8
 10
105.444
 20
136.719
 30
0.000000
  70
    32
  0
VERTEX
  8
0
  5
2DC9
 10
105.422
 20
136.696
 30
0.000000
  70
    32
  0
VERTEX
  8
0
  5
2DCA
 10
105.401
 20
136.672
 30
0.000000
  70
    32
  0
VERTEX
  8
0
  5
2DCB
 10
105.379
 20
136.649
 30
0.000000
  70
    32
  0
VERTEX
  8
0
  5
2DCC
 10
105.358
 20
136.625
 30
0.000000
  70
    32
  0
VERTEX
  8
0
  5
2DCD
 10
105.337
 20
136.601
 30
0.000000
  70
    32
  0
VERTEX
  8
0
  5
2DCE
 10
105.316
 20
136.577
 30
0.000000
  70
    32
  0
VERTEX
  8
0
  5
2DCF
 10
105.296
 20
136.553
 30
0.000000
  70
    32
  0
VERTEX
  8
0
  5
2DD0
 10
105.276
 20
136.529
 30
0.000000
  70
    32
  0
VERTEX
  8
0
  5
2DD1
 10
105.256
 20
136.505
 30
0.000000
  70
    32
  0
VERTEX
  8
0
  5
2DD2
 10
105.236
 20
136.481
 30
0.000000
  70
    32
  0
VERTEX
  8
0
  5
2DD3
 10
105.217
 20
136.456
 30
0.000000
  70
    32
  0
VERTEX
  8
0
  5
2DD4
 10
105.197
 20
136.432
 30
0.000000
  70
    32
  0
VERTEX
  8
0
  5
2DD5
 10
105.178
 20
136.407
 30
0.000000
  70
    32
  0
VERTEX
  8
0
  5
2DD6
 10
105.160
 20
136.383
 30
0.000000
  70
    32
  0
VERTEX
  8
0
  5
2DD7
 10
105.141
 20
136.358
 30
0.000000
  70
    32
  0
VERTEX
  8
0
  5
2DD8
 10
105.123
 20
136.333
 30
0.000000
  70
    32
  0
VERTEX
  8
0
  5
2DD9
 10
105.105
 20
136.308
 30
0.000000
  70
    32
  0
VERTEX
  8
0
  5
2DDA
 10
105.087
 20
136.283
 30
0.000000
  70
    32
  0
VERTEX
  8
0
  5
2DDB
 10
105.069
 20
136.258
 30
0.000000
  70
    32
  0
VERTEX
  8
0
  5
2DDC
 10
105.052
 20
136.233
 30
0.000000
  70
    32
  0
VERTEX
  8
0
  5
2DDD
 10
105.035
 20
136.207
 30
0.000000
  70
    32
  0
VERTEX
  8
0
  5
2DDE
 10
105.018
 20
136.182
 30
0.000000
  70
    32
  0
VERTEX
  8
0
  5
2DDF
 10
105.002
 20
136.157
 30
0.000000
  70
    32
  0
VERTEX
  8
0
  5
2DE0
 10
104.986
 20
136.131
 30
0.000000
  70
    32
  0
VERTEX
  8
0
  5
2DE1
 10
104.970
 20
136.106
 30
0.000000
  70
    32
  0
VERTEX
  8
0
  5
2DE2
 10
104.954
 20
136.080
 30
0.000000
  70
    32
  0
VERTEX
  8
0
  5
2DE3
 10
104.938
 20
136.054
 30
0.000000
  70
    32
  0
VERTEX
  8
0
  5
2DE4
 10
104.923
 20
136.028
 30
0.000000
  70
    32
  0
VERTEX
  8
0
  5
2DE5
 10
104.908
 20
136.002
 30
0.000000
  70
    32
  0
VERTEX
  8
0
  5
2DE6
 10
104.893
 20
135.976
 30
0.000000
  70
    32
  0
VERTEX
  8
0
  5
2DE7
 10
104.879
 20
135.950
 30
0.000000
  70
    32
  0
VERTEX
  8
0
  5
2DE8
 10
104.865
 20
135.924
 30
0.000000
  70
    32
  0
VERTEX
  8
0
  5
2DE9
 10
104.851
 20
135.898
 30
0.000000
  70
    32
  0
VERTEX
  8
0
  5
2DEA
 10
104.837
 20
135.872
 30
0.000000
  70
    32
  0
VERTEX
  8
0
  5
2DEB
 10
104.823
 20
135.845
 30
0.000000
  70
    32
  0
VERTEX
  8
0
  5
2DEC
 10
104.810
 20
135.819
 30
0.000000
  70
    32
  0
VERTEX
  8
0
  5
2DED
 10
104.797
 20
135.792
 30
0.000000
  70
    32
  0
VERTEX
  8
0
  5
2DEE
 10
104.785
 20
135.766
 30
0.000000
  70
    32
  0
VERTEX
  8
0
  5
2DEF
 10
104.772
 20
135.739
 30
0.000000
  70
    32
  0
VERTEX
  8
0
  5
2DF0
 10
104.760
 20
135.713
 30
0.000000
  70
    32
  0
VERTEX
  8
0
  5
2DF1
 10
104.748
 20
135.686
 30
0.000000
  70
    32
  0
VERTEX
  8
0
  5
2DF2
 10
104.737
 20
135.659
 30
0.000000
  70
    32
  0
VERTEX
  8
0
  5
2DF3
 10
104.725
 20
135.632
 30
0.000000
  70
    32
  0
VERTEX
  8
0
  5
2DF4
 10
104.714
 20
135.605
 30
0.000000
  70
    32
  0
VERTEX
  8
0
  5
2DF5
 10
104.703
 20
135.579
 30
0.000000
  70
    32
  0
VERTEX
  8
0
  5
2DF6
 10
104.693
 20
135.552
 30
0.000000
  70
    32
  0
VERTEX
  8
0
  5
2DF7
 10
104.683
 20
135.525
 30
0.000000
  70
    32
  0
VERTEX
  8
0
  5
2DF8
 10
104.673
 20
135.497
 30
0.000000
  70
    32
  0
VERTEX
  8
0
  5
2DF9
 10
104.663
 20
135.470
 30
0.000000
  70
    32
  0
VERTEX
  8
0
  5
2DFA
 10
104.653
 20
135.443
 30
0.000000
  70
    32
  0
VERTEX
  8
0
  5
2DFB
 10
104.644
 20
135.416
 30
0.000000
  70
    32
  0
VERTEX
  8
0
  5
2DFC
 10
104.635
 20
135.389
 30
0.000000
  70
    32
  0
VERTEX
  8
0
  5
2DFD
 10
104.627
 20
135.361
 30
0.000000
  70
    32
  0
VERTEX
  8
0
  5
2DFE
 10
104.618
 20
135.334
 30
0.000000
  70
    32
  0
VERTEX
  8
0
  5
2DFF
 10
104.610
 20
135.306
 30
0.000000
  70
    32
  0
VERTEX
  8
0
  5
2E00
 10
104.602
 20
135.279
 30
0.000000
  70
    32
  0
VERTEX
  8
0
  5
2E01
 10
104.595
 20
135.252
 30
0.000000
  70
    32
  0
VERTEX
  8
0
  5
2E02
 10
104.587
 20
135.224
 30
0.000000
  70
    32
  0
VERTEX
  8
0
  5
2E03
 10
104.580
 20
135.196
 30
0.000000
  70
    32
  0
VERTEX
  8
0
  5
2E04
 10
104.574
 20
135.169
 30
0.000000
  70
    32
  0
VERTEX
  8
0
  5
2E05
 10
104.567
 20
135.141
 30
0.000000
  70
    32
  0
VERTEX
  8
0
  5
2E06
 10
104.561
 20
135.114
 30
0.000000
  70
    32
  0
VERTEX
  8
0
  5
2E07
 10
104.555
 20
135.086
 30
0.000000
  70
    32
  0
VERTEX
  8
0
  5
2E08
 10
104.549
 20
135.058
 30
0.000000
  70
    32
  0
VERTEX
  8
0
  5
2E09
 10
104.544
 20
135.030
 30
0.000000
  70
    32
  0
VERTEX
  8
0
  5
2E0A
 10
104.539
 20
135.003
 30
0.000000
  70
    32
  0
VERTEX
  8
0
  5
2E0B
 10
104.534
 20
134.975
 30
0.000000
  70
    32
  0
VERTEX
  8
0
  5
2E0C
 10
104.529
 20
134.947
 30
0.000000
  70
    32
  0
VERTEX
  8
0
  5
2E0D
 10
104.525
 20
134.919
 30
0.000000
  70
    32
  0
VERTEX
  8
0
  5
2E0E
 10
104.521
 20
134.891
 30
0.000000
  70
    32
  0
VERTEX
  8
0
  5
2E0F
 10
104.517
 20
134.864
 30
0.000000
  70
    32
  0
VERTEX
  8
0
  5
2E10
 10
104.514
 20
134.836
 30
0.000000
  70
    32
  0
VERTEX
  8
0
  5
2E11
 10
104.511
 20
134.808
 30
0.000000
  70
    32
  0
VERTEX
  8
0
  5
2E12
 10
104.508
 20
134.780
 30
0.000000
  70
    32
  0
VERTEX
  8
0
  5
2E13
 10
104.505
 20
134.752
 30
0.000000
  70
    32
  0
VERTEX
  8
0
  5
2E14
 10
104.503
 20
134.724
 30
0.000000
  70
    32
  0
VERTEX
  8
0
  5
2E15
 10
104.501
 20
134.696
 30
0.000000
  70
    32
  0
VERTEX
  8
0
  5
2E16
 10
104.499
 20
134.668
 30
0.000000
  70
    32
  0
VERTEX
  8
0
  5
2E17
 10
104.497
 20
134.640
 30
0.000000
  70
    32
  0
VERTEX
  8
0
  5
2E18
 10
104.496
 20
134.612
 30
0.000000
  70
    32
  0
VERTEX
  8
0
  5
2E19
 10
104.495
 20
134.584
 30
0.000000
  70
    32
  0
VERTEX
  8
0
  5
2E1A
 10
104.494
 20
134.556
 30
0.000000
  70
    32
  0
VERTEX
  8
0
  5
2E1B
 10
104.494
 20
134.528
 30
0.000000
  70
    32
  0
VERTEX
  8
0
  5
2E1C
 10
104.494
 20
134.500
 30
0.000000
  70
    32
  0
SEQEND
  8
0
  5
2E1D
  0
LINE
  5
2128
  8
0
 10
69.8801614153532
 20
139.46944987141379
 30
0.0
 11
66.616908466685345
 21
137.62347523442079
 31
0.0
  0
POLYLINE
  5
212A
  8
0
 10
132.56483739523188
 20
139.46944985411145
 30
0.0
 66
     1
 70
     8
  0
VERTEX
  8
0
  5
2E1E
 10
132.565
 20
139.469
 30
0.000000
  70
    32
  0
VERTEX
  8
0
  5
2E1F
 10
132.518
 20
139.496
 30
0.000000
  70
    32
  0
VERTEX
  8
0
  5
2E20
 10
132.471
 20
139.522
 30
0.000000
  70
    32
  0
VERTEX
  8
0
  5
2E21
 10
132.424
 20
139.548
 30
0.000000
  70
    32
  0
VERTEX
  8
0
  5
2E22
 10
132.377
 20
139.573
 30
0.000000
  70
    32
  0
VERTEX
  8
0
  5
2E23
 10
132.330
 20
139.599
 30
0.000000
  70
    32
  0
VERTEX
  8
0
  5
2E24
 10
132.282
 20
139.624
 30
0.000000
  70
    32
  0
VERTEX
  8
0
  5
2E25
 10
132.234
 20
139.650
 30
0.000000
  70
    32
  0
VERTEX
  8
0
  5
2E26
 10
132.186
 20
139.675
 30
0.000000
  70
    32
  0
VERTEX
  8
0
  5
2E27
 10
132.138
 20
139.699
 30
0.000000
  70
    32
  0
VERTEX
  8
0
  5
2E28
 10
132.090
 20
139.724
 30
0.000000
  70
    32
  0
VERTEX
  8
0
  5
2E29
 10
132.041
 20
139.749
 30
0.000000
  70
    32
  0
VERTEX
  8
0
  5
2E2A
 10
131.992
 20
139.773
 30
0.000000
  70
    32
  0
VERTEX
  8
0
  5
2E2B
 10
131.943
 20
139.797
 30
0.000000
  70
    32
  0
VERTEX
  8
0
  5
2E2C
 10
131.894
 20
139.821
 30
0.000000
  70
    32
  0
VERTEX
  8
0
  5
2E2D
 10
131.845
 20
139.845
 30
0.000000
  70
    32
  0
VERTEX
  8
0
  5
2E2E
 10
131.795
 20
139.868
 30
0.000000
  70
    32
  0
VERTEX
  8
0
  5
2E2F
 10
131.746
 20
139.892
 30
0.000000
  70
    32
  0
VERTEX
  8
0
  5
2E30
 10
131.696
 20
139.915
 30
0.000000
  70
    32
  0
VERTEX
  8
0
  5
2E31
 10
131.646
 20
139.938
 30
0.000000
  70
    32
  0
VERTEX
  8
0
  5
2E32
 10
131.596
 20
139.961
 30
0.000000
  70
    32
  0
VERTEX
  8
0
  5
2E33
 10
131.546
 20
139.983
 30
0.000000
  70
    32
  0
VERTEX
  8
0
  5
2E34
 10
131.495
 20
140.006
 30
0.000000
  70
    32
  0
VERTEX
  8
0
  5
2E35
 10
131.444
 20
140.028
 30
0.000000
  70
    32
  0
VERTEX
  8
0
  5
2E36
 10
131.394
 20
140.050
 30
0.000000
  70
    32
  0
VERTEX
  8
0
  5
2E37
 10
131.343
 20
140.072
 30
0.000000
  70
    32
  0
VERTEX
  8
0
  5
2E38
 10
131.292
 20
140.094
 30
0.000000
  70
    32
  0
VERTEX
  8
0
  5
2E39
 10
131.240
 20
140.115
 30
0.000000
  70
    32
  0
VERTEX
  8
0
  5
2E3A
 10
131.189
 20
140.136
 30
0.000000
  70
    32
  0
VERTEX
  8
0
  5
2E3B
 10
131.137
 20
140.158
 30
0.000000
  70
    32
  0
VERTEX
  8
0
  5
2E3C
 10
131.085
 20
140.179
 30
0.000000
  70
    32
  0
VERTEX
  8
0
  5
2E3D
 10
131.033
 20
140.199
 30
0.000000
  70
    32
  0
VERTEX
  8
0
  5
2E3E
 10
130.981
 20
140.220
 30
0.000000
  70
    32
  0
VERTEX
  8
0
  5
2E3F
 10
130.929
 20
140.240
 30
0.000000
  70
    32
  0
VERTEX
  8
0
  5
2E40
 10
130.877
 20
140.260
 30
0.000000
  70
    32
  0
VERTEX
  8
0
  5
2E41
 10
130.824
 20
140.280
 30
0.000000
  70
    32
  0
VERTEX
  8
0
  5
2E42
 10
130.771
 20
140.300
 30
0.000000
  70
    32
  0
VERTEX
  8
0
  5
2E43
 10
130.719
 20
140.320
 30
0.000000
  70
    32
  0
VERTEX
  8
0
  5
2E44
 10
130.666
 20
140.339
 30
0.000000
  70
    32
  0
VERTEX
  8
0
  5
2E45
 10
130.613
 20
140.358
 30
0.000000
  70
    32
  0
VERTEX
  8
0
  5
2E46
 10
130.559
 20
140.377
 30
0.000000
  70
    32
  0
VERTEX
  8
0
  5
2E47
 10
130.506
 20
140.396
 30
0.000000
  70
    32
  0
VERTEX
  8
0
  5
2E48
 10
130.452
 20
140.414
 30
0.000000
  70
    32
  0
VERTEX
  8
0
  5
2E49
 10
130.399
 20
140.433
 30
0.000000
  70
    32
  0
VERTEX
  8
0
  5
2E4A
 10
130.345
 20
140.451
 30
0.000000
  70
    32
  0
VERTEX
  8
0
  5
2E4B
 10
130.291
 20
140.469
 30
0.000000
  70
    32
  0
VERTEX
  8
0
  5
2E4C
 10
130.237
 20
140.487
 30
0.000000
  70
    32
  0
VERTEX
  8
0
  5
2E4D
 10
130.183
 20
140.504
 30
0.000000
  70
    32
  0
VERTEX
  8
0
  5
2E4E
 10
130.128
 20
140.522
 30
0.000000
  70
    32
  0
VERTEX
  8
0
  5
2E4F
 10
130.074
 20
140.539
 30
0.000000
  70
    32
  0
VERTEX
  8
0
  5
2E50
 10
130.019
 20
140.556
 30
0.000000
  70
    32
  0
VERTEX
  8
0
  5
2E51
 10
129.964
 20
140.572
 30
0.000000
  70
    32
  0
VERTEX
  8
0
  5
2E52
 10
129.910
 20
140.589
 30
0.000000
  70
    32
  0
VERTEX
  8
0
  5
2E53
 10
129.855
 20
140.605
 30
0.000000
  70
    32
  0
VERTEX
  8
0
  5
2E54
 10
129.799
 20
140.622
 30
0.000000
  70
    32
  0
VERTEX
  8
0
  5
2E55
 10
129.744
 20
140.637
 30
0.000000
  70
    32
  0
VERTEX
  8
0
  5
2E56
 10
129.689
 20
140.653
 30
0.000000
  70
    32
  0
VERTEX
  8
0
  5
2E57
 10
129.633
 20
140.669
 30
0.000000
  70
    32
  0
VERTEX
  8
0
  5
2E58
 10
129.578
 20
140.684
 30
0.000000
  70
    32
  0
VERTEX
  8
0
  5
2E59
 10
129.522
 20
140.699
 30
0.000000
  70
    32
  0
VERTEX
  8
0
  5
2E5A
 10
129.466
 20
140.714
 30
0.000000
  70
    32
  0
VERTEX
  8
0
  5
2E5B
 10
129.410
 20
140.729
 30
0.000000
  70
    32
  0
VERTEX
  8
0
  5
2E5C
 10
129.354
 20
140.743
 30
0.000000
  70
    32
  0
VERTEX
  8
0
  5
2E5D
 10
129.298
 20
140.757
 30
0.000000
  70
    32
  0
VERTEX
  8
0
  5
2E5E
 10
129.242
 20
140.772
 30
0.000000
  70
    32
  0
VERTEX
  8
0
  5
2E5F
 10
129.186
 20
140.785
 30
0.000000
  70
    32
  0
VERTEX
  8
0
  5
2E60
 10
129.129
 20
140.799
 30
0.000000
  70
    32
  0
VERTEX
  8
0
  5
2E61
 10
129.073
 20
140.812
 30
0.000000
  70
    32
  0
VERTEX
  8
0
  5
2E62
 10
129.016
 20
140.826
 30
0.000000
  70
    32
  0
VERTEX
  8
0
  5
2E63
 10
128.959
 20
140.839
 30
0.000000
  70
    32
  0
VERTEX
  8
0
  5
2E64
 10
128.903
 20
140.851
 30
0.000000
  70
    32
  0
VERTEX
  8
0
  5
2E65
 10
128.846
 20
140.864
 30
0.000000
  70
    32
  0
VERTEX
  8
0
  5
2E66
 10
128.789
 20
140.876
 30
0.000000
  70
    32
  0
VERTEX
  8
0
  5
2E67
 10
128.732
 20
140.889
 30
0.000000
  70
    32
  0
VERTEX
  8
0
  5
2E68
 10
128.674
 20
140.901
 30
0.000000
  70
    32
  0
VERTEX
  8
0
  5
2E69
 10
128.617
 20
140.912
 30
0.000000
  70
    32
  0
VERTEX
  8
0
  5
2E6A
 10
128.560
 20
140.924
 30
0.000000
  70
    32
  0
VERTEX
  8
0
  5
2E6B
 10
128.502
 20
140.935
 30
0.000000
  70
    32
  0
VERTEX
  8
0
  5
2E6C
 10
128.445
 20
140.946
 30
0.000000
  70
    32
  0
VERTEX
  8
0
  5
2E6D
 10
128.387
 20
140.957
 30
0.000000
  70
    32
  0
VERTEX
  8
0
  5
2E6E
 10
128.329
 20
140.968
 30
0.000000
  70
    32
  0
VERTEX
  8
0
  5
2E6F
 10
128.272
 20
140.978
 30
0.000000
  70
    32
  0
VERTEX
  8
0
  5
2E70
 10
128.214
 20
140.988
 30
0.000000
  70
    32
  0
VERTEX
  8
0
  5
2E71
 10
128.156
 20
140.998
 30
0.000000
  70
    32
  0
VERTEX
  8
0
  5
2E72
 10
128.098
 20
141.008
 30
0.000000
  70
    32
  0
VERTEX
  8
0
  5
2E73
 10
128.040
 20
141.018
 30
0.000000
  70
    32
  0
VERTEX
  8
0
  5
2E74
 10
127.982
 20
141.027
 30
0.000000
  70
    32
  0
VERTEX
  8
0
  5
2E75
 10
127.923
 20
141.036
 30
0.000000
  70
    32
  0
VERTEX
  8
0
  5
2E76
 10
127.865
 20
141.045
 30
0.000000
  70
    32
  0
VERTEX
  8
0
  5
2E77
 10
127.807
 20
141.054
 30
0.000000
  70
    32
  0
VERTEX
  8
0
  5
2E78
 10
127.748
 20
141.063
 30
0.000000
  70
    32
  0
VERTEX
  8
0
  5
2E79
 10
127.690
 20
141.071
 30
0.000000
  70
    32
  0
VERTEX
  8
0
  5
2E7A
 10
127.631
 20
141.079
 30
0.000000
  70
    32
  0
VERTEX
  8
0
  5
2E7B
 10
127.573
 20
141.087
 30
0.000000
  70
    32
  0
VERTEX
  8
0
  5
2E7C
 10
127.514
 20
141.094
 30
0.000000
  70
    32
  0
VERTEX
  8
0
  5
2E7D
 10
127.455
 20
141.102
 30
0.000000
  70
    32
  0
VERTEX
  8
0
  5
2E7E
 10
127.397
 20
141.109
 30
0.000000
  70
    32
  0
VERTEX
  8
0
  5
2E7F
 10
127.338
 20
141.116
 30
0.000000
  70
    32
  0
VERTEX
  8
0
  5
2E80
 10
127.279
 20
141.123
 30
0.000000
  70
    32
  0
VERTEX
  8
0
  5
2E81
 10
127.220
 20
141.129
 30
0.000000
  70
    32
  0
VERTEX
  8
0
  5
2E82
 10
127.161
 20
141.136
 30
0.000000
  70
    32
  0
VERTEX
  8
0
  5
2E83
 10
127.102
 20
141.142
 30
0.000000
  70
    32
  0
VERTEX
  8
0
  5
2E84
 10
127.043
 20
141.147
 30
0.000000
  70
    32
  0
VERTEX
  8
0
  5
2E85
 10
126.984
 20
141.153
 30
0.000000
  70
    32
  0
VERTEX
  8
0
  5
2E86
 10
126.925
 20
141.159
 30
0.000000
  70
    32
  0
VERTEX
  8
0
  5
2E87
 10
126.866
 20
141.164
 30
0.000000
  70
    32
  0
VERTEX
  8
0
  5
2E88
 10
126.806
 20
141.169
 30
0.000000
  70
    32
  0
VERTEX
  8
0
  5
2E89
 10
126.747
 20
141.174
 30
0.000000
  70
    32
  0
VERTEX
  8
0
  5
2E8A
 10
126.688
 20
141.178
 30
0.000000
  70
    32
  0
VERTEX
  8
0
  5
2E8B
 10
126.628
 20
141.182
 30
0.000000
  70
    32
  0
VERTEX
  8
0
  5
2E8C
 10
126.569
 20
141.187
 30
0.000000
  70
    32
  0
VERTEX
  8
0
  5
2E8D
 10
126.510
 20
141.190
 30
0.000000
  70
    32
  0
VERTEX
  8
0
  5
2E8E
 10
126.450
 20
141.194
 30
0.000000
  70
    32
  0
VERTEX
  8
0
  5
2E8F
 10
126.391
 20
141.198
 30
0.000000
  70
    32
  0
VERTEX
  8
0
  5
2E90
 10
126.331
 20
141.201
 30
0.000000
  70
    32
  0
VERTEX
  8
0
  5
2E91
 10
126.272
 20
141.204
 30
0.000000
  70
    32
  0
VERTEX
  8
0
  5
2E92
 10
126.212
 20
141.206
 30
0.000000
  70
    32
  0
VERTEX
  8
0
  5
2E93
 10
126.153
 20
141.209
 30
0.000000
  70
    32
  0
VERTEX
  8
0
  5
2E94
 10
126.093
 20
141.211
 30
0.000000
  70
    32
  0
VERTEX
  8
0
  5
2E95
 10
126.034
 20
141.213
 30
0.000000
  70
    32
  0
VERTEX
  8
0
  5
2E96
 10
125.974
 20
141.215
 30
0.000000
  70
    32
  0
VERTEX
  8
0
  5
2E97
 10
125.915
 20
141.217
 30
0.000000
  70
    32
  0
VERTEX
  8
0
  5
2E98
 10
125.855
 20
141.218
 30
0.000000
  70
    32
  0
VERTEX
  8
0
  5
2E99
 10
125.795
 20
141.220
 30
0.000000
  70
    32
  0
VERTEX
  8
0
  5
2E9A
 10
125.736
 20
141.221
 30
0.000000
  70
    32
  0
VERTEX
  8
0
  5
2E9B
 10
125.676
 20
141.221
 30
0.000000
  70
    32
  0
VERTEX
  8
0
  5
2E9C
 10
125.616
 20
141.222
 30
0.000000
  70
    32
  0
VERTEX
  8
0
  5
2E9D
 10
125.557
 20
141.222
 30
0.000000
  70
    32
  0
VERTEX
  8
0
  5
2E9E
 10
125.497
 20
141.222
 30
0.000000
  70
    32
  0
SEQEND
  8
0
  5
2E9F
  0
LINE
  5
212B
  8
0
 10
135.8280903133228
 20
137.62347523441619
 30
0.0
 11
132.56483739522929
 21
139.469449854109
 31
0.0
  0
POLYLINE
  5
212C
  8
0
 10
137.95113571885773
 20
134.49999999999994
 30
0.0
 66
     1
 70
     8
  0
VERTEX
  8
0
  5
2EA0
 10
137.951
 20
134.500
 30
0.000000
  70
    32
  0
VERTEX
  8
0
  5
2EA1
 10
137.951
 20
134.528
 30
0.000000
  70
    32
  0
VERTEX
  8
0
  5
2EA2
 10
137.951
 20
134.556
 30
0.000000
  70
    32
  0
VERTEX
  8
0
  5
2EA3
 10
137.950
 20
134.584
 30
0.000000
  70
    32
  0
VERTEX
  8
0
  5
2EA4
 10
137.949
 20
134.612
 30
0.000000
  70
    32
  0
VERTEX
  8
0
  5
2EA5
 10
137.948
 20
134.640
 30
0.000000
  70
    32
  0
VERTEX
  8
0
  5
2EA6
 10
137.946
 20
134.668
 30
0.000000
  70
    32
  0
VERTEX
  8
0
  5
2EA7
 10
137.944
 20
134.696
 30
0.000000
  70
    32
  0
VERTEX
  8
0
  5
2EA8
 10
137.942
 20
134.724
 30
0.000000
  70
    32
  0
VERTEX
  8
0
  5
2EA9
 10
137.940
 20
134.752
 30
0.000000
  70
    32
  0
VERTEX
  8
0
  5
2EAA
 10
137.937
 20
134.780
 30
0.000000
  70
    32
  0
VERTEX
  8
0
  5
2EAB
 10
137.934
 20
134.808
 30
0.000000
  70
    32
  0
VERTEX
  8
0
  5
2EAC
 10
137.931
 20
134.836
 30
0.000000
  70
    32
  0
VERTEX
  8
0
  5
2EAD
 10
137.928
 20
134.864
 30
0.000000
  70
    32
  0
VERTEX
  8
0
  5
2EAE
 10
137.924
 20
134.891
 30
0.000000
  70
    32
  0
VERTEX
  8
0
  5
2EAF
 10
137.920
 20
134.919
 30
0.000000
  70
    32
  0
VERTEX
  8
0
  5
2EB0
 10
137.916
 20
134.947
 30
0.000000
  70
    32
  0
VERTEX
  8
0
  5
2EB1
 10
137.911
 20
134.975
 30
0.000000
  70
    32
  0
VERTEX
  8
0
  5
2EB2
 10
137.906
 20
135.003
 30
0.000000
  70
    32
  0
VERTEX
  8
0
  5
2EB3
 10
137.901
 20
135.030
 30
0.000000
  70
    32
  0
VERTEX
  8
0
  5
2EB4
 10
137.896
 20
135.058
 30
0.000000
  70
    32
  0
VERTEX
  8
0
  5
2EB5
 10
137.890
 20
135.086
 30
0.000000
  70
    32
  0
VERTEX
  8
0
  5
2EB6
 10
137.884
 20
135.114
 30
0.000000
  70
    32
  0
VERTEX
  8
0
  5
2EB7
 10
137.878
 20
135.141
 30
0.000000
  70
    32
  0
VERTEX
  8
0
  5
2EB8
 10
137.871
 20
135.169
 30
0.000000
  70
    32
  0
VERTEX
  8
0
  5
2EB9
 10
137.865
 20
135.196
 30
0.000000
  70
    32
  0
VERTEX
  8
0
  5
2EBA
 10
137.858
 20
135.224
 30
0.000000
  70
    32
  0
VERTEX
  8
0
  5
2EBB
 10
137.850
 20
135.252
 30
0.000000
  70
    32
  0
VERTEX
  8
0
  5
2EBC
 10
137.843
 20
135.279
 30
0.000000
  70
    32
  0
VERTEX
  8
0
  5
2EBD
 10
137.835
 20
135.306
 30
0.000000
  70
    32
  0
VERTEX
  8
0
  5
2EBE
 10
137.827
 20
135.334
 30
0.000000
  70
    32
  0
VERTEX
  8
0
  5
2EBF
 10
137.818
 20
135.361
 30
0.000000
  70
    32
  0
VERTEX
  8
0
  5
2EC0
 10
137.810
 20
135.389
 30
0.000000
  70
    32
  0
VERTEX
  8
0
  5
2EC1
 10
137.801
 20
135.416
 30
0.000000
  70
    32
  0
VERTEX
  8
0
  5
2EC2
 10
137.792
 20
135.443
 30
0.000000
  70
    32
  0
VERTEX
  8
0
  5
2EC3
 10
137.782
 20
135.470
 30
0.000000
  70
    32
  0
VERTEX
  8
0
  5
2EC4
 10
137.772
 20
135.497
 30
0.000000
  70
    32
  0
VERTEX
  8
0
  5
2EC5
 10
137.762
 20
135.525
 30
0.000000
  70
    32
  0
VERTEX
  8
0
  5
2EC6
 10
137.752
 20
135.552
 30
0.000000
  70
    32
  0
VERTEX
  8
0
  5
2EC7
 10
137.742
 20
135.579
 30
0.000000
  70
    32
  0
VERTEX
  8
0
  5
2EC8
 10
137.731
 20
135.605
 30
0.000000
  70
    32
  0
VERTEX
  8
0
  5
2EC9
 10
137.720
 20
135.632
 30
0.000000
  70
    32
  0
VERTEX
  8
0
  5
2ECA
 10
137.708
 20
135.659
 30
0.000000
  70
    32
  0
VERTEX
  8
0
  5
2ECB
 10
137.697
 20
135.686
 30
0.000000
  70
    32
  0
VERTEX
  8
0
  5
2ECC
 10
137.685
 20
135.713
 30
0.000000
  70
    32
  0
VERTEX
  8
0
  5
2ECD
 10
137.673
 20
135.739
 30
0.000000
  70
    32
  0
VERTEX
  8
0
  5
2ECE
 10
137.660
 20
135.766
 30
0.000000
  70
    32
  0
VERTEX
  8
0
  5
2ECF
 10
137.648
 20
135.792
 30
0.000000
  70
    32
  0
VERTEX
  8
0
  5
2ED0
 10
137.635
 20
135.819
 30
0.000000
  70
    32
  0
VERTEX
  8
0
  5
2ED1
 10
137.622
 20
135.845
 30
0.000000
  70
    32
  0
VERTEX
  8
0
  5
2ED2
 10
137.608
 20
135.872
 30
0.000000
  70
    32
  0
VERTEX
  8
0
  5
2ED3
 10
137.594
 20
135.898
 30
0.000000
  70
    32
  0
VERTEX
  8
0
  5
2ED4
 10
137.580
 20
135.924
 30
0.000000
  70
    32
  0
VERTEX
  8
0
  5
2ED5
 10
137.566
 20
135.950
 30
0.000000
  70
    32
  0
VERTEX
  8
0
  5
2ED6
 10
137.552
 20
135.976
 30
0.000000
  70
    32
  0
VERTEX
  8
0
  5
2ED7
 10
137.537
 20
136.002
 30
0.000000
  70
    32
  0
VERTEX
  8
0
  5
2ED8
 10
137.522
 20
136.028
 30
0.000000
  70
    32
  0
VERTEX
  8
0
  5
2ED9
 10
137.507
 20
136.054
 30
0.000000
  70
    32
  0
VERTEX
  8
0
  5
2EDA
 10
137.491
 20
136.080
 30
0.000000
  70
    32
  0
VERTEX
  8
0
  5
2EDB
 10
137.475
 20
136.106
 30
0.000000
  70
    32
  0
VERTEX
  8
0
  5
2EDC
 10
137.459
 20
136.131
 30
0.000000
  70
    32
  0
VERTEX
  8
0
  5
2EDD
 10
137.443
 20
136.157
 30
0.000000
  70
    32
  0
VERTEX
  8
0
  5
2EDE
 10
137.427
 20
136.182
 30
0.000000
  70
    32
  0
VERTEX
  8
0
  5
2EDF
 10
137.410
 20
136.207
 30
0.000000
  70
    32
  0
VERTEX
  8
0
  5
2EE0
 10
137.393
 20
136.233
 30
0.000000
  70
    32
  0
VERTEX
  8
0
  5
2EE1
 10
137.376
 20
136.258
 30
0.000000
  70
    32
  0
VERTEX
  8
0
  5
2EE2
 10
137.358
 20
136.283
 30
0.000000
  70
    32
  0
VERTEX
  8
0
  5
2EE3
 10
137.340
 20
136.308
 30
0.000000
  70
    32
  0
VERTEX
  8
0
  5
2EE4
 10
137.322
 20
136.333
 30
0.000000
  70
    32
  0
VERTEX
  8
0
  5
2EE5
 10
137.304
 20
136.358
 30
0.000000
  70
    32
  0
VERTEX
  8
0
  5
2EE6
 10
137.285
 20
136.383
 30
0.000000
  70
    32
  0
VERTEX
  8
0
  5
2EE7
 10
137.267
 20
136.407
 30
0.000000
  70
    32
  0
VERTEX
  8
0
  5
2EE8
 10
137.248
 20
136.432
 30
0.000000
  70
    32
  0
VERTEX
  8
0
  5
2EE9
 10
137.228
 20
136.456
 30
0.000000
  70
    32
  0
VERTEX
  8
0
  5
2EEA
 10
137.209
 20
136.481
 30
0.000000
  70
    32
  0
VERTEX
  8
0
  5
2EEB
 10
137.189
 20
136.505
 30
0.000000
  70
    32
  0
VERTEX
  8
0
  5
2EEC
 10
137.169
 20
136.529
 30
0.000000
  70
    32
  0
VERTEX
  8
0
  5
2EED
 10
137.149
 20
136.553
 30
0.000000
  70
    32
  0
VERTEX
  8
0
  5
2EEE
 10
137.129
 20
136.577
 30
0.000000
  70
    32
  0
VERTEX
  8
0
  5
2EEF
 10
137.108
 20
136.601
 30
0.000000
  70
    32
  0
VERTEX
  8
0
  5
2EF0
 10
137.087
 20
136.625
 30
0.000000
  70
    32
  0
VERTEX
  8
0
  5
2EF1
 10
137.066
 20
136.649
 30
0.000000
  70
    32
  0
VERTEX
  8
0
  5
2EF2
 10
137.044
 20
136.672
 30
0.000000
  70
    32
  0
VERTEX
  8
0
  5
2EF3
 10
137.023
 20
136.696
 30
0.000000
  70
    32
  0
VERTEX
  8
0
  5
2EF4
 10
137.001
 20
136.719
 30
0.000000
  70
    32
  0
VERTEX
  8
0
  5
2EF5
 10
136.979
 20
136.742
 30
0.000000
  70
    32
  0
VERTEX
  8
0
  5
2EF6
 10
136.957
 20
136.765
 30
0.000000
  70
    32
  0
VERTEX
  8
0
  5
2EF7
 10
136.934
 20
136.788
 30
0.000000
  70
    32
  0
VERTEX
  8
0
  5
2EF8
 10
136.911
 20
136.811
 30
0.000000
  70
    32
  0
VERTEX
  8
0
  5
2EF9
 10
136.888
 20
136.834
 30
0.000000
  70
    32
  0
VERTEX
  8
0
  5
2EFA
 10
136.865
 20
136.857
 30
0.000000
  70
    32
  0
VERTEX
  8
0
  5
2EFB
 10
136.842
 20
136.879
 30
0.000000
  70
    32
  0
VERTEX
  8
0
  5
2EFC
 10
136.818
 20
136.902
 30
0.000000
  70
    32
  0
VERTEX
  8
0
  5
2EFD
 10
136.794
 20
136.924
 30
0.000000
  70
    32
  0
VERTEX
  8
0
  5
2EFE
 10
136.770
 20
136.946
 30
0.000000
  70
    32
  0
VERTEX
  8
0
  5
2EFF
 10
136.746
 20
136.968
 30
0.000000
  70
    32
  0
VERTEX
  8
0
  5
2F00
 10
136.721
 20
136.990
 30
0.000000
  70
    32
  0
VERTEX
  8
0
  5
2F01
 10
136.696
 20
137.012
 30
0.000000
  70
    32
  0
VERTEX
  8
0
  5
2F02
 10
136.671
 20
137.034
 30
0.000000
  70
    32
  0
VERTEX
  8
0
  5
2F03
 10
136.646
 20
137.056
 30
0.000000
  70
    32
  0
VERTEX
  8
0
  5
2F04
 10
136.621
 20
137.077
 30
0.000000
  70
    32
  0
VERTEX
  8
0
  5
2F05
 10
136.595
 20
137.098
 30
0.000000
  70
    32
  0
VERTEX
  8
0
  5
2F06
 10
136.569
 20
137.120
 30
0.000000
  70
    32
  0
VERTEX
  8
0
  5
2F07
 10
136.543
 20
137.141
 30
0.000000
  70
    32
  0
VERTEX
  8
0
  5
2F08
 10
136.517
 20
137.162
 30
0.000000
  70
    32
  0
VERTEX
  8
0
  5
2F09
 10
136.491
 20
137.182
 30
0.000000
  70
    32
  0
VERTEX
  8
0
  5
2F0A
 10
136.464
 20
137.203
 30
0.000000
  70
    32
  0
VERTEX
  8
0
  5
2F0B
 10
136.437
 20
137.224
 30
0.000000
  70
    32
  0
VERTEX
  8
0
  5
2F0C
 10
136.410
 20
137.244
 30
0.000000
  70
    32
  0
VERTEX
  8
0
  5
2F0D
 10
136.383
 20
137.265
 30
0.000000
  70
    32
  0
VERTEX
  8
0
  5
2F0E
 10
136.355
 20
137.285
 30
0.000000
  70
    32
  0
VERTEX
  8
0
  5
2F0F
 10
136.328
 20
137.305
 30
0.000000
  70
    32
  0
VERTEX
  8
0
  5
2F10
 10
136.300
 20
137.325
 30
0.000000
  70
    32
  0
VERTEX
  8
0
  5
2F11
 10
136.272
 20
137.344
 30
0.000000
  70
    32
  0
VERTEX
  8
0
  5
2F12
 10
136.243
 20
137.364
 30
0.000000
  70
    32
  0
VERTEX
  8
0
  5
2F13
 10
136.215
 20
137.383
 30
0.000000
  70
    32
  0
VERTEX
  8
0
  5
2F14
 10
136.186
 20
137.403
 30
0.000000
  70
    32
  0
VERTEX
  8
0
  5
2F15
 10
136.157
 20
137.422
 30
0.000000
  70
    32
  0
VERTEX
  8
0
  5
2F16
 10
136.128
 20
137.441
 30
0.000000
  70
    32
  0
VERTEX
  8
0
  5
2F17
 10
136.099
 20
137.460
 30
0.000000
  70
    32
  0
VERTEX
  8
0
  5
2F18
 10
136.070
 20
137.479
 30
0.000000
  70
    32
  0
VERTEX
  8
0
  5
2F19
 10
136.040
 20
137.497
 30
0.000000
  70
    32
  0
VERTEX
  8
0
  5
2F1A
 10
136.010
 20
137.516
 30
0.000000
  70
    32
  0
VERTEX
  8
0
  5
2F1B
 10
135.981
 20
137.534
 30
0.000000
  70
    32
  0
VERTEX
  8
0
  5
2F1C
 10
135.950
 20
137.552
 30
0.000000
  70
    32
  0
VERTEX
  8
0
  5
2F1D
 10
135.920
 20
137.570
 30
0.000000
  70
    32
  0
VERTEX
  8
0
  5
2F1E
 10
135.890
 20
137.588
 30
0.000000
  70
    32
  0
VERTEX
  8
0
  5
2F1F
 10
135.859
 20
137.606
 30
0.000000
  70
    32
  0
VERTEX
  8
0
  5
2F20
 10
135.828
 20
137.623
 30
0.000000
  70
    32
  0
SEQEND
  8
0
  5
2F21
  0
LINE
  5
212D
  8
0
 10
117.8815899503532
 20
139.46944987141379
 30
0.0
 11
114.6183370016853
 21
137.62347523442079
 31
0.0
  0
POLYLINE
  5
212E
  8
0
 10
124.94920759517592
 20
141.22249938999997
 30
0.0
 66
     1
 70
     8
  0
VERTEX
  8
0
  5
2F22
 10
124.949
 20
141.222
 30
0.000000
  70
    32
  0
VERTEX
  8
0
  5
2F23
 10
124.890
 20
141.222
 30
0.000000
  70
    32
  0
VERTEX
  8
0
  5
2F24
 10
124.830
 20
141.222
 30
0.000000
  70
    32
  0
VERTEX
  8
0
  5
2F25
 10
124.770
 20
141.221
 30
0.000000
  70
    32
  0
VERTEX
  8
0
  5
2F26
 10
124.711
 20
141.221
 30
0.000000
  70
    32
  0
VERTEX
  8
0
  5
2F27
 10
124.651
 20
141.220
 30
0.000000
  70
    32
  0
VERTEX
  8
0
  5
2F28
 10
124.591
 20
141.218
 30
0.000000
  70
    32
  0
VERTEX
  8
0
  5
2F29
 10
124.532
 20
141.217
 30
0.000000
  70
    32
  0
VERTEX
  8
0
  5
2F2A
 10
124.472
 20
141.215
 30
0.000000
  70
    32
  0
VERTEX
  8
0
  5
2F2B
 10
124.413
 20
141.213
 30
0.000000
  70
    32
  0
VERTEX
  8
0
  5
2F2C
 10
124.353
 20
141.211
 30
0.000000
  70
    32
  0
VERTEX
  8
0
  5
2F2D
 10
124.294
 20
141.209
 30
0.000000
  70
    32
  0
VERTEX
  8
0
  5
2F2E
 10
124.234
 20
141.206
 30
0.000000
  70
    32
  0
VERTEX
  8
0
  5
2F2F
 10
124.175
 20
141.204
 30
0.000000
  70
    32
  0
VERTEX
  8
0
  5
2F30
 10
124.115
 20
141.201
 30
0.000000
  70
    32
  0
VERTEX
  8
0
  5
2F31
 10
124.056
 20
141.198
 30
0.000000
  70
    32
  0
VERTEX
  8
0
  5
2F32
 10
123.996
 20
141.194
 30
0.000000
  70
    32
  0
VERTEX
  8
0
  5
2F33
 10
123.937
 20
141.190
 30
0.000000
  70
    32
  0
VERTEX
  8
0
  5
2F34
 10
123.877
 20
141.187
 30
0.000000
  70
    32
  0
VERTEX
  8
0
  5
2F35
 10
123.818
 20
141.182
 30
0.000000
  70
    32
  0
VERTEX
  8
0
  5
2F36
 10
123.759
 20
141.178
 30
0.000000
  70
    32
  0
VERTEX
  8
0
  5
2F37
 10
123.699
 20
141.174
 30
0.000000
  70
    32
  0
VERTEX
  8
0
  5
2F38
 10
123.640
 20
141.169
 30
0.000000
  70
    32
  0
VERTEX
  8
0
  5
2F39
 10
123.581
 20
141.164
 30
0.000000
  70
    32
  0
VERTEX
  8
0
  5
2F3A
 10
123.522
 20
141.159
 30
0.000000
  70
    32
  0
VERTEX
  8
0
  5
2F3B
 10
123.463
 20
141.153
 30
0.000000
  70
    32
  0
VERTEX
  8
0
  5
2F3C
 10
123.403
 20
141.147
 30
0.000000
  70
    32
  0
VERTEX
  8
0
  5
2F3D
 10
123.344
 20
141.142
 30
0.000000
  70
    32
  0
VERTEX
  8
0
  5
2F3E
 10
123.285
 20
141.136
 30
0.000000
  70
    32
  0
VERTEX
  8
0
  5
2F3F
 10
123.226
 20
141.129
 30
0.000000
  70
    32
  0
VERTEX
  8
0
  5
2F40
 10
123.167
 20
141.123
 30
0.000000
  70
    32
  0
VERTEX
  8
0
  5
2F41
 10
123.109
 20
141.116
 30
0.000000
  70
    32
  0
VERTEX
  8
0
  5
2F42
 10
123.050
 20
141.109
 30
0.000000
  70
    32
  0
VERTEX
  8
0
  5
2F43
 10
122.991
 20
141.102
 30
0.000000
  70
    32
  0
VERTEX
  8
0
  5
2F44
 10
122.932
 20
141.094
 30
0.000000
  70
    32
  0
VERTEX
  8
0
  5
2F45
 10
122.874
 20
141.087
 30
0.000000
  70
    32
  0
VERTEX
  8
0
  5
2F46
 10
122.815
 20
141.079
 30
0.000000
  70
    32
  0
VERTEX
  8
0
  5
2F47
 10
122.757
 20
141.071
 30
0.000000
  70
    32
  0
VERTEX
  8
0
  5
2F48
 10
122.698
 20
141.063
 30
0.000000
  70
    32
  0
VERTEX
  8
0
  5
2F49
 10
122.640
 20
141.054
 30
0.000000
  70
    32
  0
VERTEX
  8
0
  5
2F4A
 10
122.581
 20
141.045
 30
0.000000
  70
    32
  0
VERTEX
  8
0
  5
2F4B
 10
122.523
 20
141.036
 30
0.000000
  70
    32
  0
VERTEX
  8
0
  5
2F4C
 10
122.465
 20
141.027
 30
0.000000
  70
    32
  0
VERTEX
  8
0
  5
2F4D
 10
122.407
 20
141.018
 30
0.000000
  70
    32
  0
VERTEX
  8
0
  5
2F4E
 10
122.349
 20
141.008
 30
0.000000
  70
    32
  0
VERTEX
  8
0
  5
2F4F
 10
122.291
 20
140.998
 30
0.000000
  70
    32
  0
VERTEX
  8
0
  5
2F50
 10
122.233
 20
140.988
 30
0.000000
  70
    32
  0
VERTEX
  8
0
  5
2F51
 10
122.175
 20
140.978
 30
0.000000
  70
    32
  0
VERTEX
  8
0
  5
2F52
 10
122.117
 20
140.968
 30
0.000000
  70
    32
  0
VERTEX
  8
0
  5
2F53
 10
122.059
 20
140.957
 30
0.000000
  70
    32
  0
VERTEX
  8
0
  5
2F54
 10
122.002
 20
140.946
 30
0.000000
  70
    32
  0
VERTEX
  8
0
  5
2F55
 10
121.944
 20
140.935
 30
0.000000
  70
    32
  0
VERTEX
  8
0
  5
2F56
 10
121.887
 20
140.924
 30
0.000000
  70
    32
  0
VERTEX
  8
0
  5
2F57
 10
121.829
 20
140.912
 30
0.000000
  70
    32
  0
VERTEX
  8
0
  5
2F58
 10
121.772
 20
140.901
 30
0.000000
  70
    32
  0
VERTEX
  8
0
  5
2F59
 10
121.715
 20
140.889
 30
0.000000
  70
    32
  0
VERTEX
  8
0
  5
2F5A
 10
121.658
 20
140.876
 30
0.000000
  70
    32
  0
VERTEX
  8
0
  5
2F5B
 10
121.601
 20
140.864
 30
0.000000
  70
    32
  0
VERTEX
  8
0
  5
2F5C
 10
121.544
 20
140.851
 30
0.000000
  70
    32
  0
VERTEX
  8
0
  5
2F5D
 10
121.487
 20
140.839
 30
0.000000
  70
    32
  0
VERTEX
  8
0
  5
2F5E
 10
121.430
 20
140.826
 30
0.000000
  70
    32
  0
VERTEX
  8
0
  5
2F5F
 10
121.374
 20
140.812
 30
0.000000
  70
    32
  0
VERTEX
  8
0
  5
2F60
 10
121.317
 20
140.799
 30
0.000000
  70
    32
  0
VERTEX
  8
0
  5
2F61
 10
121.261
 20
140.785
 30
0.000000
  70
    32
  0
VERTEX
  8
0
  5
2F62
 10
121.204
 20
140.772
 30
0.000000
  70
    32
  0
VERTEX
  8
0
  5
2F63
 10
121.148
 20
140.757
 30
0.000000
  70
    32
  0
VERTEX
  8
0
  5
2F64
 10
121.092
 20
140.743
 30
0.000000
  70
    32
  0
VERTEX
  8
0
  5
2F65
 10
121.036
 20
140.729
 30
0.000000
  70
    32
  0
VERTEX
  8
0
  5
2F66
 10
120.980
 20
140.714
 30
0.000000
  70
    32
  0
VERTEX
  8
0
  5
2F67
 10
120.924
 20
140.699
 30
0.000000
  70
    32
  0
VERTEX
  8
0
  5
2F68
 10
120.869
 20
140.684
 30
0.000000
  70
    32
  0
VERTEX
  8
0
  5
2F69
 10
120.813
 20
140.669
 30
0.000000
  70
    32
  0
VERTEX
  8
0
  5
2F6A
 10
120.758
 20
140.653
 30
0.000000
  70
    32
  0
VERTEX
  8
0
  5
2F6B
 10
120.702
 20
140.637
 30
0.000000
  70
    32
  0
VERTEX
  8
0
  5
2F6C
 10
120.647
 20
140.622
 30
0.000000
  70
    32
  0
VERTEX
  8
0
  5
2F6D
 10
120.592
 20
140.605
 30
0.000000
  70
    32
  0
VERTEX
  8
0
  5
2F6E
 10
120.537
 20
140.589
 30
0.000000
  70
    32
  0
VERTEX
  8
0
  5
2F6F
 10
120.482
 20
140.572
 30
0.000000
  70
    32
  0
VERTEX
  8
0
  5
2F70
 10
120.427
 20
140.556
 30
0.000000
  70
    32
  0
VERTEX
  8
0
  5
2F71
 10
120.373
 20
140.539
 30
0.000000
  70
    32
  0
VERTEX
  8
0
  5
2F72
 10
120.318
 20
140.522
 30
0.000000
  70
    32
  0
VERTEX
  8
0
  5
2F73
 10
120.264
 20
140.504
 30
0.000000
  70
    32
  0
VERTEX
  8
0
  5
2F74
 10
120.210
 20
140.487
 30
0.000000
  70
    32
  0
VERTEX
  8
0
  5
2F75
 10
120.156
 20
140.469
 30
0.000000
  70
    32
  0
VERTEX
  8
0
  5
2F76
 10
120.102
 20
140.451
 30
0.000000
  70
    32
  0
VERTEX
  8
0
  5
2F77
 10
120.048
 20
140.433
 30
0.000000
  70
    32
  0
VERTEX
  8
0
  5
2F78
 10
119.994
 20
140.414
 30
0.000000
  70
    32
  0
VERTEX
  8
0
  5
2F79
 10
119.941
 20
140.396
 30
0.000000
  70
    32
  0
VERTEX
  8
0
  5
2F7A
 10
119.887
 20
140.377
 30
0.000000
  70
    32
  0
VERTEX
  8
0
  5
2F7B
 10
119.834
 20
140.358
 30
0.000000
  70
    32
  0
VERTEX
  8
0
  5
2F7C
 10
119.781
 20
140.339
 30
0.000000
  70
    32
  0
VERTEX
  8
0
  5
2F7D
 10
119.728
 20
140.320
 30
0.000000
  70
    32
  0
VERTEX
  8
0
  5
2F7E
 10
119.675
 20
140.300
 30
0.000000
  70
    32
  0
VERTEX
  8
0
  5
2F7F
 10
119.622
 20
140.280
 30
0.000000
  70
    32
  0
VERTEX
  8
0
  5
2F80
 10
119.570
 20
140.260
 30
0.000000
  70
    32
  0
VERTEX
  8
0
  5
2F81
 10
119.517
 20
140.240
 30
0.000000
  70
    32
  0
VERTEX
  8
0
  5
2F82
 10
119.465
 20
140.220
 30
0.000000
  70
    32
  0
VERTEX
  8
0
  5
2F83
 10
119.413
 20
140.199
 30
0.000000
  70
    32
  0
VERTEX
  8
0
  5
2F84
 10
119.361
 20
140.179
 30
0.000000
  70
    32
  0
VERTEX
  8
0
  5
2F85
 10
119.309
 20
140.158
 30
0.000000
  70
    32
  0
VERTEX
  8
0
  5
2F86
 10
119.258
 20
140.136
 30
0.000000
  70
    32
  0
VERTEX
  8
0
  5
2F87
 10
119.206
 20
140.115
 30
0.000000
  70
    32
  0
VERTEX
  8
0
  5
2F88
 10
119.155
 20
140.094
 30
0.000000
  70
    32
  0
VERTEX
  8
0
  5
2F89
 10
119.104
 20
140.072
 30
0.000000
  70
    32
  0
VERTEX
  8
0
  5
2F8A
 10
119.053
 20
140.050
 30
0.000000
  70
    32
  0
VERTEX
  8
0
  5
2F8B
 10
119.002
 20
140.028
 30
0.000000
  70
    32
  0
VERTEX
  8
0
  5
2F8C
 10
118.951
 20
140.006
 30
0.000000
  70
    32
  0
VERTEX
  8
0
  5
2F8D
 10
118.901
 20
139.983
 30
0.000000
  70
    32
  0
VERTEX
  8
0
  5
2F8E
 10
118.851
 20
139.961
 30
0.000000
  70
    32
  0
VERTEX
  8
0
  5
2F8F
 10
118.800
 20
139.938
 30
0.000000
  70
    32
  0
VERTEX
  8
0
  5
2F90
 10
118.750
 20
139.915
 30
0.000000
  70
    32
  0
VERTEX
  8
0
  5
2F91
 10
118.701
 20
139.892
 30
0.000000
  70
    32
  0
VERTEX
  8
0
  5
2F92
 10
118.651
 20
139.868
 30
0.000000
  70
    32
  0
VERTEX
  8
0
  5
2F93
 10
118.602
 20
139.845
 30
0.000000
  70
    32
  0
VERTEX
  8
0
  5
2F94
 10
118.552
 20
139.821
 30
0.000000
  70
    32
  0
VERTEX
  8
0
  5
2F95
 10
118.503
 20
139.797
 30
0.000000
  70
    32
  0
VERTEX
  8
0
  5
2F96
 10
118.454
 20
139.773
 30
0.000000
  70
    32
  0
VERTEX
  8
0
  5
2F97
 10
118.405
 20
139.749
 30
0.000000
  70
    32
  0
VERTEX
  8
0
  5
2F98
 10
118.357
 20
139.724
 30
0.000000
  70
    32
  0
VERTEX
  8
0
  5
2F99
 10
118.309
 20
139.699
 30
0.000000
  70
    32
  0
VERTEX
  8
0
  5
2F9A
 10
118.260
 20
139.675
 30
0.000000
  70
    32
  0
VERTEX
  8
0
  5
2F9B
 10
118.212
 20
139.650
 30
0.000000
  70
    32
  0
VERTEX
  8
0
  5
2F9C
 10
118.165
 20
139.624
 30
0.000000
  70
    32
  0
VERTEX
  8
0
  5
2F9D
 10
118.117
 20
139.599
 30
0.000000
  70
    32
  0
VERTEX
  8
0
  5
2F9E
 10
118.069
 20
139.573
 30
0.000000
  70
    32
  0
VERTEX
  8
0
  5
2F9F
 10
118.022
 20
139.548
 30
0.000000
  70
    32
  0
VERTEX
  8
0
  5
2FA0
 10
117.975
 20
139.522
 30
0.000000
  70
    32
  0
VERTEX
  8
0
  5
2FA1
 10
117.928
 20
139.496
 30
0.000000
  70
    32
  0
VERTEX
  8
0
  5
2FA2
 10
117.882
 20
139.469
 30
0.000000
  70
    32
  0
SEQEND
  8
0
  5
2FA3
  0
LINE
  5
212F
  8
0
 10
137.95113571885781
 20
134.49999999999989
 30
0.0
 11
104.49386306114221
 21
134.49999999999989
 31
0.0
  0
LINE
  5
2130
  8
0
 10
85.497219680642274
 20
141.22249939
 30
0.0
 11
76.947779060176003
 21
141.22249938999991
 31
0.0
  0
POLYLINE
  5
2131
  8
0
 10
76.947779060175904
 20
141.22249938999997
 30
0.0
 66
     1
 70
     8
  0
VERTEX
  8
0
  5
2FA4
 10
76.9478
 20
141.222
 30
0.000000
  70
    32
  0
VERTEX
  8
0
  5
2FA5
 10
76.8881
 20
141.222
 30
0.000000
  70
    32
  0
VERTEX
  8
0
  5
2FA6
 10
76.8285
 20
141.222
 30
0.000000
  70
    32
  0
VERTEX
  8
0
  5
2FA7
 10
76.7689
 20
141.221
 30
0.000000
  70
    32
  0
VERTEX
  8
0
  5
2FA8
 10
76.7092
 20
141.221
 30
0.000000
  70
    32
  0
VERTEX
  8
0
  5
2FA9
 10
76.6496
 20
141.220
 30
0.000000
  70
    32
  0
VERTEX
  8
0
  5
2FAA
 10
76.5900
 20
141.218
 30
0.000000
  70
    32
  0
VERTEX
  8
0
  5
2FAB
 10
76.5304
 20
141.217
 30
0.000000
  70
    32
  0
VERTEX
  8
0
  5
2FAC
 10
76.4708
 20
141.215
 30
0.000000
  70
    32
  0
VERTEX
  8
0
  5
2FAD
 10
76.4112
 20
141.213
 30
0.000000
  70
    32
  0
VERTEX
  8
0
  5
2FAE
 10
76.3517
 20
141.211
 30
0.000000
  70
    32
  0
VERTEX
  8
0
  5
2FAF
 10
76.2921
 20
141.209
 30
0.000000
  70
    32
  0
VERTEX
  8
0
  5
2FB0
 10
76.2326
 20
141.206
 30
0.000000
  70
    32
  0
VERTEX
  8
0
  5
2FB1
 10
76.1731
 20
141.204
 30
0.000000
  70
    32
  0
VERTEX
  8
0
  5
2FB2
 10
76.1136
 20
141.201
 30
0.000000
  70
    32
  0
VERTEX
  8
0
  5
2FB3
 10
76.0541
 20
141.198
 30
0.000000
  70
    32
  0
VERTEX
  8
0
  5
2FB4
 10
75.9947
 20
141.194
 30
0.000000
  70
    32
  0
VERTEX
  8
0
  5
2FB5
 10
75.9353
 20
141.190
 30
0.000000
  70
    32
  0
VERTEX
  8
0
  5
2FB6
 10
75.8759
 20
141.187
 30
0.000000
  70
    32
  0
VERTEX
  8
0
  5
2FB7
 10
75.8165
 20
141.182
 30
0.000000
  70
    32
  0
VERTEX
  8
0
  5
2FB8
 10
75.7572
 20
141.178
 30
0.000000
  70
    32
  0
VERTEX
  8
0
  5
2FB9
 10
75.6979
 20
141.174
 30
0.000000
  70
    32
  0
VERTEX
  8
0
  5
2FBA
 10
75.6387
 20
141.169
 30
0.000000
  70
    32
  0
VERTEX
  8
0
  5
2FBB
 10
75.5794
 20
141.164
 30
0.000000
  70
    32
  0
VERTEX
  8
0
  5
2FBC
 10
75.5203
 20
141.159
 30
0.000000
  70
    32
  0
VERTEX
  8
0
  5
2FBD
 10
75.4611
 20
141.153
 30
0.000000
  70
    32
  0
VERTEX
  8
0
  5
2FBE
 10
75.4020
 20
141.147
 30
0.000000
  70
    32
  0
VERTEX
  8
0
  5
2FBF
 10
75.3430
 20
141.142
 30
0.000000
  70
    32
  0
VERTEX
  8
0
  5
2FC0
 10
75.2839
 20
141.136
 30
0.000000
  70
    32
  0
VERTEX
  8
0
  5
2FC1
 10
75.2250
 20
141.129
 30
0.000000
  70
    32
  0
VERTEX
  8
0
  5
2FC2
 10
75.1661
 20
141.123
 30
0.000000
  70
    32
  0
VERTEX
  8
0
  5
2FC3
 10
75.1072
 20
141.116
 30
0.000000
  70
    32
  0
VERTEX
  8
0
  5
2FC4
 10
75.0484
 20
141.109
 30
0.000000
  70
    32
  0
VERTEX
  8
0
  5
2FC5
 10
74.9896
 20
141.102
 30
0.000000
  70
    32
  0
VERTEX
  8
0
  5
2FC6
 10
74.9309
 20
141.094
 30
0.000000
  70
    32
  0
VERTEX
  8
0
  5
2FC7
 10
74.8722
 20
141.087
 30
0.000000
  70
    32
  0
VERTEX
  8
0
  5
2FC8
 10
74.8136
 20
141.079
 30
0.000000
  70
    32
  0
VERTEX
  8
0
  5
2FC9
 10
74.7551
 20
141.071
 30
0.000000
  70
    32
  0
VERTEX
  8
0
  5
2FCA
 10
74.6966
 20
141.063
 30
0.000000
  70
    32
  0
VERTEX
  8
0
  5
2FCB
 10
74.6382
 20
141.054
 30
0.000000
  70
    32
  0
VERTEX
  8
0
  5
2FCC
 10
74.5798
 20
141.045
 30
0.000000
  70
    32
  0
VERTEX
  8
0
  5
2FCD
 10
74.5216
 20
141.036
 30
0.000000
  70
    32
  0
VERTEX
  8
0
  5
2FCE
 10
74.4633
 20
141.027
 30
0.000000
  70
    32
  0
VERTEX
  8
0
  5
2FCF
 10
74.4052
 20
141.018
 30
0.000000
  70
    32
  0
VERTEX
  8
0
  5
2FD0
 10
74.3471
 20
141.008
 30
0.000000
  70
    32
  0
VERTEX
  8
0
  5
2FD1
 10
74.2891
 20
140.998
 30
0.000000
  70
    32
  0
VERTEX
  8
0
  5
2FD2
 10
74.2312
 20
140.988
 30
0.000000
  70
    32
  0
VERTEX
  8
0
  5
2FD3
 10
74.1733
 20
140.978
 30
0.000000
  70
    32
  0
VERTEX
  8
0
  5
2FD4
 10
74.1155
 20
140.968
 30
0.000000
  70
    32
  0
VERTEX
  8
0
  5
2FD5
 10
74.0578
 20
140.957
 30
0.000000
  70
    32
  0
VERTEX
  8
0
  5
2FD6
 10
74.0002
 20
140.946
 30
0.000000
  70
    32
  0
VERTEX
  8
0
  5
2FD7
 10
73.9427
 20
140.935
 30
0.000000
  70
    32
  0
VERTEX
  8
0
  5
2FD8
 10
73.8852
 20
140.924
 30
0.000000
  70
    32
  0
VERTEX
  8
0
  5
2FD9
 10
73.8279
 20
140.912
 30
0.000000
  70
    32
  0
VERTEX
  8
0
  5
2FDA
 10
73.7706
 20
140.901
 30
0.000000
  70
    32
  0
VERTEX
  8
0
  5
2FDB
 10
73.7134
 20
140.889
 30
0.000000
  70
    32
  0
VERTEX
  8
0
  5
2FDC
 10
73.6563
 20
140.876
 30
0.000000
  70
    32
  0
VERTEX
  8
0
  5
2FDD
 10
73.5993
 20
140.864
 30
0.000000
  70
    32
  0
VERTEX
  8
0
  5
2FDE
 10
73.5423
 20
140.851
 30
0.000000
  70
    32
  0
VERTEX
  8
0
  5
2FDF
 10
73.4855
 20
140.839
 30
0.000000
  70
    32
  0
VERTEX
  8
0
  5
2FE0
 10
73.4288
 20
140.826
 30
0.000000
  70
    32
  0
VERTEX
  8
0
  5
2FE1
 10
73.3722
 20
140.812
 30
0.000000
  70
    32
  0
VERTEX
  8
0
  5
2FE2
 10
73.3156
 20
140.799
 30
0.000000
  70
    32
  0
VERTEX
  8
0
  5
2FE3
 10
73.2592
 20
140.785
 30
0.000000
  70
    32
  0
VERTEX
  8
0
  5
2FE4
 10
73.2029
 20
140.772
 30
0.000000
  70
    32
  0
VERTEX
  8
0
  5
2FE5
 10
73.1466
 20
140.757
 30
0.000000
  70
    32
  0
VERTEX
  8
0
  5
2FE6
 10
73.0905
 20
140.743
 30
0.000000
  70
    32
  0
VERTEX
  8
0
  5
2FE7
 10
73.0345
 20
140.729
 30
0.000000
  70
    32
  0
VERTEX
  8
0
  5
2FE8
 10
72.9786
 20
140.714
 30
0.000000
  70
    32
  0
VERTEX
  8
0
  5
2FE9
 10
72.9228
 20
140.699
 30
0.000000
  70
    32
  0
VERTEX
  8
0
  5
2FEA
 10
72.8671
 20
140.684
 30
0.000000
  70
    32
  0
VERTEX
  8
0
  5
2FEB
 10
72.8116
 20
140.669
 30
0.000000
  70
    32
  0
VERTEX
  8
0
  5
2FEC
 10
72.7561
 20
140.653
 30
0.000000
  70
    32
  0
VERTEX
  8
0
  5
2FED
 10
72.7008
 20
140.637
 30
0.000000
  70
    32
  0
VERTEX
  8
0
  5
2FEE
 10
72.6456
 20
140.622
 30
0.000000
  70
    32
  0
VERTEX
  8
0
  5
2FEF
 10
72.5905
 20
140.605
 30
0.000000
  70
    32
  0
VERTEX
  8
0
  5
2FF0
 10
72.5355
 20
140.589
 30
0.000000
  70
    32
  0
VERTEX
  8
0
  5
2FF1
 10
72.4806
 20
140.572
 30
0.000000
  70
    32
  0
VERTEX
  8
0
  5
2FF2
 10
72.4259
 20
140.556
 30
0.000000
  70
    32
  0
VERTEX
  8
0
  5
2FF3
 10
72.3713
 20
140.539
 30
0.000000
  70
    32
  0
VERTEX
  8
0
  5
2FF4
 10
72.3168
 20
140.522
 30
0.000000
  70
    32
  0
VERTEX
  8
0
  5
2FF5
 10
72.2625
 20
140.504
 30
0.000000
  70
    32
  0
VERTEX
  8
0
  5
2FF6
 10
72.2082
 20
140.487
 30
0.000000
  70
    32
  0
VERTEX
  8
0
  5
2FF7
 10
72.1541
 20
140.469
 30
0.000000
  70
    32
  0
VERTEX
  8
0
  5
2FF8
 10
72.1002
 20
140.451
 30
0.000000
  70
    32
  0
VERTEX
  8
0
  5
2FF9
 10
72.0464
 20
140.433
 30
0.000000
  70
    32
  0
VERTEX
  8
0
  5
2FFA
 10
71.9927
 20
140.414
 30
0.000000
  70
    32
  0
VERTEX
  8
0
  5
2FFB
 10
71.9391
 20
140.396
 30
0.000000
  70
    32
  0
VERTEX
  8
0
  5
2FFC
 10
71.8857
 20
140.377
 30
0.000000
  70
    32
  0
VERTEX
  8
0
  5
2FFD
 10
71.8325
 20
140.358
 30
0.000000
  70
    32
  0
VERTEX
  8
0
  5
2FFE
 10
71.7793
 20
140.339
 30
0.000000
  70
    32
  0
VERTEX
  8
0
  5
2FFF
 10
71.7264
 20
140.320
 30
0.000000
  70
    32
  0
VERTEX
  8
0
  5
3000
 10
71.6735
 20
140.300
 30
0.000000
  70
    32
  0
VERTEX
  8
0
  5
3001
 10
71.6208
 20
140.280
 30
0.000000
  70
    32
  0
VERTEX
  8
0
  5
3002
 10
71.5683
 20
140.260
 30
0.000000
  70
    32
  0
VERTEX
  8
0
  5
3003
 10
71.5159
 20
140.240
 30
0.000000
  70
    32
  0
VERTEX
  8
0
  5
3004
 10
71.4637
 20
140.220
 30
0.000000
  70
    32
  0
VERTEX
  8
0
  5
3005
 10
71.4116
 20
140.199
 30
0.000000
  70
    32
  0
VERTEX
  8
0
  5
3006
 10
71.3597
 20
140.179
 30
0.000000
  70
    32
  0
VERTEX
  8
0
  5
3007
 10
71.3079
 20
140.158
 30
0.000000
  70
    32
  0
VERTEX
  8
0
  5
3008
 10
71.2563
 20
140.136
 30
0.000000
  70
    32
  0
VERTEX
  8
0
  5
3009
 10
71.2048
 20
140.115
 30
0.000000
  70
    32
  0
VERTEX
  8
0
  5
300A
 10
71.1535
 20
140.094
 30
0.000000
  70
    32
  0
VERTEX
  8
0
  5
300B
 10
71.1023
 20
140.072
 30
0.000000
  70
    32
  0
VERTEX
  8
0
  5
300C
 10
71.0514
 20
140.050
 30
0.000000
  70
    32
  0
VERTEX
  8
0
  5
300D
 10
71.0005
 20
140.028
 30
0.000000
  70
    32
  0
VERTEX
  8
0
  5
300E
 10
70.9499
 20
140.006
 30
0.000000
  70
    32
  0
VERTEX
  8
0
  5
300F
 10
70.8994
 20
139.983
 30
0.000000
  70
    32
  0
VERTEX
  8
0
  5
3010
 10
70.8491
 20
139.961
 30
0.000000
  70
    32
  0
VERTEX
  8
0
  5
3011
 10
70.7989
 20
139.938
 30
0.000000
  70
    32
  0
VERTEX
  8
0
  5
3012
 10
70.7490
 20
139.915
 30
0.000000
  70
    32
  0
VERTEX
  8
0
  5
3013
 10
70.6992
 20
139.892
 30
0.000000
  70
    32
  0
VERTEX
  8
0
  5
3014
 10
70.6495
 20
139.868
 30
0.000000
  70
    32
  0
VERTEX
  8
0
  5
3015
 10
70.6001
 20
139.845
 30
0.000000
  70
    32
  0
VERTEX
  8
0
  5
3016
 10
70.5508
 20
139.821
 30
0.000000
  70
    32
  0
VERTEX
  8
0
  5
3017
 10
70.5017
 20
139.797
 30
0.000000
  70
    32
  0
VERTEX
  8
0
  5
3018
 10
70.4528
 20
139.773
 30
0.000000
  70
    32
  0
VERTEX
  8
0
  5
3019
 10
70.4040
 20
139.749
 30
0.000000
  70
    32
  0
VERTEX
  8
0
  5
301A
 10
70.3555
 20
139.724
 30
0.000000
  70
    32
  0
VERTEX
  8
0
  5
301B
 10
70.3071
 20
139.699
 30
0.000000
  70
    32
  0
VERTEX
  8
0
  5
301C
 10
70.2589
 20
139.675
 30
0.000000
  70
    32
  0
VERTEX
  8
0
  5
301D
 10
70.2109
 20
139.650
 30
0.000000
  70
    32
  0
VERTEX
  8
0
  5
301E
 10
70.1631
 20
139.624
 30
0.000000
  70
    32
  0
VERTEX
  8
0
  5
301F
 10
70.1154
 20
139.599
 30
0.000000
  70
    32
  0
VERTEX
  8
0
  5
3020
 10
70.0680
 20
139.573
 30
0.000000
  70
    32
  0
VERTEX
  8
0
  5
3021
 10
70.0208
 20
139.548
 30
0.000000
  70
    32
  0
VERTEX
  8
0
  5
3022
 10
69.9737
 20
139.522
 30
0.000000
  70
    32
  0
VERTEX
  8
0
  5
3023
 10
69.9268
 20
139.496
 30
0.000000
  70
    32
  0
VERTEX
  8
0
  5
3024
 10
69.8802
 20
139.469
 30
0.000000
  70
    32
  0
SEQEND
  8
0
  5
3025
  0
LINE
  5
2133
  8
0
 10
109.8801614153531
 20
139.46944987141379
 30
0.0
 11
106.6169084666852
 21
137.62347523442079
 31
0.0
  0
LINE
  5
2134
  8
0
 10
125.49721966232831
 20
141.22249939
 30
0.0
 11
116.947779060176
 21
141.22249938999991
 31
0.0
  0
POLYLINE
  5
2135
  8
0
 10
116.94777906017582
 20
141.22249938999997
 30
0.0
 66
     1
 70
     8
  0
VERTEX
  8
0
  5
3026
 10
116.948
 20
141.222
 30
0.000000
  70
    32
  0
VERTEX
  8
0
  5
3027
 10
116.888
 20
141.222
 30
0.000000
  70
    32
  0
VERTEX
  8
0
  5
3028
 10
116.829
 20
141.222
 30
0.000000
  70
    32
  0
VERTEX
  8
0
  5
3029
 10
116.769
 20
141.221
 30
0.000000
  70
    32
  0
VERTEX
  8
0
  5
302A
 10
116.709
 20
141.221
 30
0.000000
  70
    32
  0
VERTEX
  8
0
  5
302B
 10
116.650
 20
141.220
 30
0.000000
  70
    32
  0
VERTEX
  8
0
  5
302C
 10
116.590
 20
141.218
 30
0.000000
  70
    32
  0
VERTEX
  8
0
  5
302D
 10
116.530
 20
141.217
 30
0.000000
  70
    32
  0
VERTEX
  8
0
  5
302E
 10
116.471
 20
141.215
 30
0.000000
  70
    32
  0
VERTEX
  8
0
  5
302F
 10
116.411
 20
141.213
 30
0.000000
  70
    32
  0
VERTEX
  8
0
  5
3030
 10
116.352
 20
141.211
 30
0.000000
  70
    32
  0
VERTEX
  8
0
  5
3031
 10
116.292
 20
141.209
 30
0.000000
  70
    32
  0
VERTEX
  8
0
  5
3032
 10
116.233
 20
141.206
 30
0.000000
  70
    32
  0
VERTEX
  8
0
  5
3033
 10
116.173
 20
141.204
 30
0.000000
  70
    32
  0
VERTEX
  8
0
  5
3034
 10
116.114
 20
141.201
 30
0.000000
  70
    32
  0
VERTEX
  8
0
  5
3035
 10
116.054
 20
141.198
 30
0.000000
  70
    32
  0
VERTEX
  8
0
  5
3036
 10
115.995
 20
141.194
 30
0.000000
  70
    32
  0
VERTEX
  8
0
  5
3037
 10
115.935
 20
141.190
 30
0.000000
  70
    32
  0
VERTEX
  8
0
  5
3038
 10
115.876
 20
141.187
 30
0.000000
  70
    32
  0
VERTEX
  8
0
  5
3039
 10
115.817
 20
141.182
 30
0.000000
  70
    32
  0
VERTEX
  8
0
  5
303A
 10
115.757
 20
141.178
 30
0.000000
  70
    32
  0
VERTEX
  8
0
  5
303B
 10
115.698
 20
141.174
 30
0.000000
  70
    32
  0
VERTEX
  8
0
  5
303C
 10
115.639
 20
141.169
 30
0.000000
  70
    32
  0
VERTEX
  8
0
  5
303D
 10
115.579
 20
141.164
 30
0.000000
  70
    32
  0
VERTEX
  8
0
  5
303E
 10
115.520
 20
141.159
 30
0.000000
  70
    32
  0
VERTEX
  8
0
  5
303F
 10
115.461
 20
141.153
 30
0.000000
  70
    32
  0
VERTEX
  8
0
  5
3040
 10
115.402
 20
141.147
 30
0.000000
  70
    32
  0
VERTEX
  8
0
  5
3041
 10
115.343
 20
141.142
 30
0.000000
  70
    32
  0
VERTEX
  8
0
  5
3042
 10
115.284
 20
141.136
 30
0.000000
  70
    32
  0
VERTEX
  8
0
  5
3043
 10
115.225
 20
141.129
 30
0.000000
  70
    32
  0
VERTEX
  8
0
  5
3044
 10
115.166
 20
141.123
 30
0.000000
  70
    32
  0
VERTEX
  8
0
  5
3045
 10
115.107
 20
141.116
 30
0.000000
  70
    32
  0
VERTEX
  8
0
  5
3046
 10
115.048
 20
141.109
 30
0.000000
  70
    32
  0
VERTEX
  8
0
  5
3047
 10
114.990
 20
141.102
 30
0.000000
  70
    32
  0
VERTEX
  8
0
  5
3048
 10
114.931
 20
141.094
 30
0.000000
  70
    32
  0
VERTEX
  8
0
  5
3049
 10
114.872
 20
141.087
 30
0.000000
  70
    32
  0
VERTEX
  8
0
  5
304A
 10
114.814
 20
141.079
 30
0.000000
  70
    32
  0
VERTEX
  8
0
  5
304B
 10
114.755
 20
141.071
 30
0.000000
  70
    32
  0
VERTEX
  8
0
  5
304C
 10
114.697
 20
141.063
 30
0.000000
  70
    32
  0
VERTEX
  8
0
  5
304D
 10
114.638
 20
141.054
 30
0.000000
  70
    32
  0
VERTEX
  8
0
  5
304E
 10
114.580
 20
141.045
 30
0.000000
  70
    32
  0
VERTEX
  8
0
  5
304F
 10
114.522
 20
141.036
 30
0.000000
  70
    32
  0
VERTEX
  8
0
  5
3050
 10
114.463
 20
141.027
 30
0.000000
  70
    32
  0
VERTEX
  8
0
  5
3051
 10
114.405
 20
141.018
 30
0.000000
  70
    32
  0
VERTEX
  8
0
  5
3052
 10
114.347
 20
141.008
 30
0.000000
  70
    32
  0
VERTEX
  8
0
  5
3053
 10
114.289
 20
140.998
 30
0.000000
  70
    32
  0
VERTEX
  8
0
  5
3054
 10
114.231
 20
140.988
 30
0.000000
  70
    32
  0
VERTEX
  8
0
  5
3055
 10
114.173
 20
140.978
 30
0.000000
  70
    32
  0
VERTEX
  8
0
  5
3056
 10
114.116
 20
140.968
 30
0.000000
  70
    32
  0
VERTEX
  8
0
  5
3057
 10
114.058
 20
140.957
 30
0.000000
  70
    32
  0
VERTEX
  8
0
  5
3058
 10
114.000
 20
140.946
 30
0.000000
  70
    32
  0
VERTEX
  8
0
  5
3059
 10
113.943
 20
140.935
 30
0.000000
  70
    32
  0
VERTEX
  8
0
  5
305A
 10
113.885
 20
140.924
 30
0.000000
  70
    32
  0
VERTEX
  8
0
  5
305B
 10
113.828
 20
140.912
 30
0.000000
  70
    32
  0
VERTEX
  8
0
  5
305C
 10
113.771
 20
140.901
 30
0.000000
  70
    32
  0
VERTEX
  8
0
  5
305D
 10
113.713
 20
140.889
 30
0.000000
  70
    32
  0
VERTEX
  8
0
  5
305E
 10
113.656
 20
140.876
 30
0.000000
  70
    32
  0
VERTEX
  8
0
  5
305F
 10
113.599
 20
140.864
 30
0.000000
  70
    32
  0
VERTEX
  8
0
  5
3060
 10
113.542
 20
140.851
 30
0.000000
  70
    32
  0
VERTEX
  8
0
  5
3061
 10
113.486
 20
140.839
 30
0.000000
  70
    32
  0
VERTEX
  8
0
  5
3062
 10
113.429
 20
140.826
 30
0.000000
  70
    32
  0
VERTEX
  8
0
  5
3063
 10
113.372
 20
140.812
 30
0.000000
  70
    32
  0
VERTEX
  8
0
  5
3064
 10
113.316
 20
140.799
 30
0.000000
  70
    32
  0
VERTEX
  8
0
  5
3065
 10
113.259
 20
140.785
 30
0.000000
  70
    32
  0
VERTEX
  8
0
  5
3066
 10
113.203
 20
140.772
 30
0.000000
  70
    32
  0
VERTEX
  8
0
  5
3067
 10
113.147
 20
140.757
 30
0.000000
  70
    32
  0
VERTEX
  8
0
  5
3068
 10
113.091
 20
140.743
 30
0.000000
  70
    32
  0
VERTEX
  8
0
  5
3069
 10
113.035
 20
140.729
 30
0.000000
  70
    32
  0
VERTEX
  8
0
  5
306A
 10
112.979
 20
140.714
 30
0.000000
  70
    32
  0
VERTEX
  8
0
  5
306B
 10
112.923
 20
140.699
 30
0.000000
  70
    32
  0
VERTEX
  8
0
  5
306C
 10
112.867
 20
140.684
 30
0.000000
  70
    32
  0
VERTEX
  8
0
  5
306D
 10
112.812
 20
140.669
 30
0.000000
  70
    32
  0
VERTEX
  8
0
  5
306E
 10
112.756
 20
140.653
 30
0.000000
  70
    32
  0
VERTEX
  8
0
  5
306F
 10
112.701
 20
140.637
 30
0.000000
  70
    32
  0
VERTEX
  8
0
  5
3070
 10
112.646
 20
140.622
 30
0.000000
  70
    32
  0
VERTEX
  8
0
  5
3071
 10
112.590
 20
140.605
 30
0.000000
  70
    32
  0
VERTEX
  8
0
  5
3072
 10
112.535
 20
140.589
 30
0.000000
  70
    32
  0
VERTEX
  8
0
  5
3073
 10
112.481
 20
140.572
 30
0.000000
  70
    32
  0
VERTEX
  8
0
  5
3074
 10
112.426
 20
140.556
 30
0.000000
  70
    32
  0
VERTEX
  8
0
  5
3075
 10
112.371
 20
140.539
 30
0.000000
  70
    32
  0
VERTEX
  8
0
  5
3076
 10
112.317
 20
140.522
 30
0.000000
  70
    32
  0
VERTEX
  8
0
  5
3077
 10
112.262
 20
140.504
 30
0.000000
  70
    32
  0
VERTEX
  8
0
  5
3078
 10
112.208
 20
140.487
 30
0.000000
  70
    32
  0
VERTEX
  8
0
  5
3079
 10
112.154
 20
140.469
 30
0.000000
  70
    32
  0
VERTEX
  8
0
  5
307A
 10
112.100
 20
140.451
 30
0.000000
  70
    32
  0
VERTEX
  8
0
  5
307B
 10
112.046
 20
140.433
 30
0.000000
  70
    32
  0
VERTEX
  8
0
  5
307C
 10
111.993
 20
140.414
 30
0.000000
  70
    32
  0
VERTEX
  8
0
  5
307D
 10
111.939
 20
140.396
 30
0.000000
  70
    32
  0
VERTEX
  8
0
  5
307E
 10
111.886
 20
140.377
 30
0.000000
  70
    32
  0
VERTEX
  8
0
  5
307F
 10
111.832
 20
140.358
 30
0.000000
  70
    32
  0
VERTEX
  8
0
  5
3080
 10
111.779
 20
140.339
 30
0.000000
  70
    32
  0
VERTEX
  8
0
  5
3081
 10
111.726
 20
140.320
 30
0.000000
  70
    32
  0
VERTEX
  8
0
  5
3082
 10
111.674
 20
140.300
 30
0.000000
  70
    32
  0
VERTEX
  8
0
  5
3083
 10
111.621
 20
140.280
 30
0.000000
  70
    32
  0
VERTEX
  8
0
  5
3084
 10
111.568
 20
140.260
 30
0.000000
  70
    32
  0
VERTEX
  8
0
  5
3085
 10
111.516
 20
140.240
 30
0.000000
  70
    32
  0
VERTEX
  8
0
  5
3086
 10
111.464
 20
140.220
 30
0.000000
  70
    32
  0
VERTEX
  8
0
  5
3087
 10
111.412
 20
140.199
 30
0.000000
  70
    32
  0
VERTEX
  8
0
  5
3088
 10
111.360
 20
140.179
 30
0.000000
  70
    32
  0
VERTEX
  8
0
  5
3089
 10
111.308
 20
140.158
 30
0.000000
  70
    32
  0
VERTEX
  8
0
  5
308A
 10
111.256
 20
140.136
 30
0.000000
  70
    32
  0
VERTEX
  8
0
  5
308B
 10
111.205
 20
140.115
 30
0.000000
  70
    32
  0
VERTEX
  8
0
  5
308C
 10
111.153
 20
140.094
 30
0.000000
  70
    32
  0
VERTEX
  8
0
  5
308D
 10
111.102
 20
140.072
 30
0.000000
  70
    32
  0
VERTEX
  8
0
  5
308E
 10
111.051
 20
140.050
 30
0.000000
  70
    32
  0
VERTEX
  8
0
  5
308F
 10
111.001
 20
140.028
 30
0.000000
  70
    32
  0
VERTEX
  8
0
  5
3090
 10
110.950
 20
140.006
 30
0.000000
  70
    32
  0
VERTEX
  8
0
  5
3091
 10
110.899
 20
139.983
 30
0.000000
  70
    32
  0
VERTEX
  8
0
  5
3092
 10
110.849
 20
139.961
 30
0.000000
  70
    32
  0
VERTEX
  8
0
  5
3093
 10
110.799
 20
139.938
 30
0.000000
  70
    32
  0
VERTEX
  8
0
  5
3094
 10
110.749
 20
139.915
 30
0.000000
  70
    32
  0
VERTEX
  8
0
  5
3095
 10
110.699
 20
139.892
 30
0.000000
  70
    32
  0
VERTEX
  8
0
  5
3096
 10
110.650
 20
139.868
 30
0.000000
  70
    32
  0
VERTEX
  8
0
  5
3097
 10
110.600
 20
139.845
 30
0.000000
  70
    32
  0
VERTEX
  8
0
  5
3098
 10
110.551
 20
139.821
 30
0.000000
  70
    32
  0
VERTEX
  8
0
  5
3099
 10
110.502
 20
139.797
 30
0.000000
  70
    32
  0
VERTEX
  8
0
  5
309A
 10
110.453
 20
139.773
 30
0.000000
  70
    32
  0
VERTEX
  8
0
  5
309B
 10
110.404
 20
139.749
 30
0.000000
  70
    32
  0
VERTEX
  8
0
  5
309C
 10
110.355
 20
139.724
 30
0.000000
  70
    32
  0
VERTEX
  8
0
  5
309D
 10
110.307
 20
139.699
 30
0.000000
  70
    32
  0
VERTEX
  8
0
  5
309E
 10
110.259
 20
139.675
 30
0.000000
  70
    32
  0
VERTEX
  8
0
  5
309F
 10
110.211
 20
139.650
 30
0.000000
  70
    32
  0
VERTEX
  8
0
  5
30A0
 10
110.163
 20
139.624
 30
0.000000
  70
    32
  0
VERTEX
  8
0
  5
30A1
 10
110.115
 20
139.599
 30
0.000000
  70
    32
  0
VERTEX
  8
0
  5
30A2
 10
110.068
 20
139.573
 30
0.000000
  70
    32
  0
VERTEX
  8
0
  5
30A3
 10
110.021
 20
139.548
 30
0.000000
  70
    32
  0
VERTEX
  8
0
  5
30A4
 10
109.974
 20
139.522
 30
0.000000
  70
    32
  0
VERTEX
  8
0
  5
30A5
 10
109.927
 20
139.496
 30
0.000000
  70
    32
  0
VERTEX
  8
0
  5
30A6
 10
109.880
 20
139.469
 30
0.000000
  70
    32
  0
SEQEND
  8
0
  5
30A7
  0
ARC
  5
2136
  8
0
 10
65.636712963999912
 20
132.99999997189991
 30
0.0
 40
1.000000028099975
 50
90.000000401069471
 51
134.99999971437711
  0
LINE
  5
2137
  8
0
 10
134.05828582301089
 20
133.99999999999989
 30
0.0
 11
65.636712956999986
 21
133.99999999999989
 31
0.0
  0
ARC
  5
2138
  8
0
 10
134.05828581599991
 20
132.9999999719
 30
0.0
 40
1.00000002809989
 50
45.000000285622797
 51
89.999999598298686
  0
LINE
  5
2139
  8
0
 10
138.47249938999991
 20
129.99999999999989
 30
0.0
 11
134.76539261352491
 21
133.707106776475
 31
0.0
  0
LINE
  5
213A
  8
0
 10
61.222499389999939
 20
52.749999999999957
 30
0.0
 11
57.515392613524682
 21
56.457106776475307
 31
0.0
  0
ARC
  5
213B
  8
0
 10
58.222499418099922
 20
57.164213573999973
 30
0.0
 40
1.000000028099947
 50
180.0000004010719
 51
224.99999971434889
  0
LINE
  5
213C
  8
0
 10
57.222499389999932
 20
125.585786426
 30
0.0
 11
57.222499389999932
 21
57.164213566999962
 31
0.0
  0
ARC
  5
213F
  8
0
 10
58.222499418099922
 20
125.585786426
 30
0.0
 40
1.000000028099947
 50
135.00000028564699
 51
179.99999959830029
  0
LINE
  5
2140
  8
0
 10
64.929606166471785
 20
133.7071067764781
 30
0.0
 11
57.515392613524682
 21
126.2928932235246
 31
0.0
  0
LINE
  5
2143
  8
0
 10
228.22249939000011
 20
118.9999999999999
 30
0.0
 11
228.22249939000011
 21
59.999999999999929
 31
0.0
  0
ARC
  5
2144
  8
0
 10
224.22249939000011
 20
118.9999999999999
 30
0.0
 40
4.0
 50
0.0
 51
90.0
  0
LINE
  5
2145
  8
0
 10
198.22249939
 20
122.9999999999999
 30
0.0
 11
224.22249939000011
 21
122.9999999999999
 31
0.0
  0
ARC
  5
2146
  8
0
 10
198.22249939
 20
118.9999999999999
 30
0.0
 40
4.0000000000001128
 50
90.0
 51
180.0
  0
LINE
  5
2147
  8
0
 10
194.22249939
 20
59.999999999999929
 30
0.0
 11
194.22249939
 21
118.9999999999999
 31
0.0
  0
ARC
  5
2148
  8
0
 10
198.22249939
 20
59.999999999999929
 30
0.0
 40
4.0000000000001128
 50
180.0
 51
270.0
  0
LINE
  5
2149
  8
0
 10
224.22249939000011
 20
55.999999999999943
 30
0.0
 11
198.22249939
 21
55.999999999999943
 31
0.0
  0
ARC
  5
214A
  8
0
 10
224.22249939000011
 20
59.999999999999929
 30
0.0
 40
4.0
 50
270.0
 51
0.0
  0
LINE
  5
214B
  8
0
 10
231.22249939000011
 20
52.999999999999929
 30
0.0
 11
231.22249939000011
 21
125.9999999999999
 31
0.0
  0
ARC
  5
214C
  8
0
 10
227.22249939
 20
52.999999999999929
 30
0.0
 40
4.0000000000000062
 50
311.40962210927302
 51
0.0
  0
LINE
  5
214D
  8
0
 10
192.57674807893551
 20
49.999999999999957
 30
0.0
 11
229.86825070106471
 21
49.999999999999929
 31
0.0
  0
ARC
  5
214E
  8
0
 10
195.22249939
 20
52.999999999999929
 30
0.0
 40
4.0
 50
179.9999999999992
 51
228.59037789073111
  0
LINE
  5
214F
  8
0
 10
191.22249939
 20
126.0
 30
0.0
 11
191.22249939
 21
52.999999999999972
 31
0.0
  0
ARC
  5
2150
  8
0
 10
195.22249939
 20
126.0
 30
0.0
 40
4.0
 50
131.40962210926909
 51
180.0
  0
ARC
  5
2152
  8
0
 10
227.22249939
 20
126.0
 30
0.0
 40
4.0
 50
0.0
 51
48.59037789073092
  0
ARC
  5
2153
  8
0
 10
195.22249939
 20
126.0
 30
0.0
 40
3.9999999999999711
 50
90.0
 51
131.40962210926909
  0
LINE
  5
2154
  8
0
 10
227.22249939
 20
129.99999999999989
 30
0.0
 11
195.22249939
 21
129.99999999999989
 31
0.0
  0
ARC
  5
2155
  8
0
 10
227.22249939
 20
126.0
 30
0.0
 40
3.9999999999999849
 50
48.59037789073092
 51
90.0
  0
LINE
  5
2159
  8
0
 10
215.2234424100001
 20
134.49999999999989
 30
0.0
 11
207.22201387499999
 21
134.49999999999989
 31
0.0
  0
LINE
  5
2160
  8
0
 10
207.22249939
 20
133.99999999999989
 30
0.0
 11
215.22249939
 21
133.99999999999989
 31
0.0
  0
LINE
  5
2163
  8
0
 10
215.2234424100001
 20
141.22249938999991
 30
0.0
 11
207.22201387499999
 21
141.22249938999991
 31
0.0
  0
LINE
  5
2164
  8
0
 10
215.2234424100001
 20
129.99999999999989
 30
0.0
 11
215.2234424100001
 21
141.22249938999991
 31
0.0
  0
LINE
  5
2165
  8
0
 10
207.22201387499999
 20
129.99999999999989
 30
0.0
 11
207.22201387499999
 21
141.22249938999991
 31
0.0
  0
CIRCLE
  5
2172
  8
0
 10
211.22249939
 20
109.9999999999999
 30
0.0
 40
4.0
  0
LINE
  5
217A
  8
0
 10
211.2224993899998
 20
117.50555349944869
 30
0.0
 11
217.72249939004419
 21
113.7527767497255
 31
0.0
  0
LINE
  5
217B
  8
0
 10
217.72249939004419
 20
113.7527767497255
 30
0.0
 11
217.72249938995779
 21
106.2472232502267
 31
0.0
  0
LINE
  5
217C
  8
0
 10
217.72249938995779
 20
106.2472232502267
 30
0.0
 11
211.22249939000031
 21
102.49444650055111
 31
0.0
  0
LINE
  5
217D
  8
0
 10
211.22249939000031
 20
102.49444650055111
 30
0.0
 11
204.72249938995569
 21
106.2472232502742
 31
0.0
  0
LINE
  5
217E
  8
0
 10
204.72249938995569
 20
106.2472232502742
 30
0.0
 11
204.7224993900424
 21
113.7527767497731
 31
0.0
  0
LINE
  5
217F
  8
0
 10
204.7224993900424
 20
113.7527767497731
 30
0.0
 11
211.2224993899998
 21
117.50555349944869
 31
0.0
  0
CIRCLE
  5
2181
  8
0
 10
211.22249939
 20
109.9999999999999
 30
0.0
 40
7.75
  0
LINE
  5
21A6
  8
0
 10
72.495291596142124
 20
207.22201387499999
 30
0.0
 11
64.493863061142179
 21
215.2234424099999
 31
0.0
  0
LINE
  5
21A9
  8
0
 10
112.495291596142
 20
207.22201387499999
 30
0.0
 11
104.49386306114199
 21
215.2234424099999
 31
0.0
  0
LINE
  5
21AC
  8
0
 10
129.9497071838577
 20
215.2234424099999
 30
0.0
 11
137.95113571885781
 21
207.22201387499999
 31
0.0
  0
LINE
  5
21AF
  8
0
 10
89.949707183857853
 20
215.2234424099999
 30
0.0
 11
97.951135718857813
 21
207.22201387499999
 31
0.0
  0
LINE
  5
21BB
  8
0
 10
138.47249938999991
 20
215.22249939
 30
0.0
 11
138.47249938999991
 21
207.22249939
 31
0.0
  0
LINE
  5
21BC
  8
0
 10
138.47249938999991
 20
215.22249939
 30
0.0
 11
50.0
 21
215.22249939
 31
0.0
  0
LINE
  5
21BD
  8
0
 10
138.47249938999991
 20
207.22249939
 30
0.0
 11
50.0
 21
207.22249939
 31
0.0
  0
LINE
  5
21C4
  8
0
 10
141.2224993899984
 20
229.8682507010665
 30
0.0
 11
141.22249939
 21
192.5767480789354
 31
0.0
  0
ARC
  5
21C5
  8
0
 10
138.22249939
 20
195.22249939
 30
0.0
 40
4.0000000000000062
 50
270.0
 51
318.5903778907292
  0
LINE
  5
21C6
  8
0
 10
138.22249939
 20
191.22249939
 30
0.0
 11
65.222499389999939
 21
191.22249939
 31
0.0
  0
ARC
  5
21C7
  8
0
 10
65.222499389999939
 20
195.22249939
 30
0.0
 40
4.0
 50
202.0621912033113
 51
270.0
  0
ARC
  5
21C8
  8
0
 10
65.222499389858513
 20
195.22249938997379
 30
0.0
 40
3.9999999998585452
 50
180.00000000843451
 51
202.0621912037258
  0
LINE
  5
21CB
  8
0
 10
61.222499389999939
 20
227.22249939
 30
0.0
 11
61.222499389999939
 21
215.22249939
 31
0.0
  0
ARC
  5
21CC
  8
0
 10
65.222499389856793
 20
227.222499390026
 30
0.0
 40
3.999999999856783
 50
157.93780879626141
 51
180.00000000037369
  0
LINE
  5
21CD
  8
0
 10
138.22249938999991
 20
231.22249939000011
 30
0.0
 11
65.222499389999939
 21
231.22249939000011
 31
0.0
  0
ARC
  5
21CE
  8
0
 10
138.22249939
 20
227.22249939
 30
0.0
 40
4.000000000000056
 50
41.40962210927092
 51
90.0
  0
ARC
  5
21CF
  8
0
 10
65.222499389999939
 20
227.22249939
 30
0.0
 40
4.000000000000056
 50
90.0
 51
157.9378087966862
  0
LINE
  5
21D1
  8
0
 10
56.722499389999939
 20
215.2232136575
 30
0.0
 11
56.722499389999939
 21
207.22178512249999
 31
0.0
  0
LINE
  5
21D5
  8
0
 10
57.222499389999932
 20
207.22249939
 30
0.0
 11
57.222499389999932
 21
215.22249939
 31
0.0
  0
LINE
  5
21DB
  8
0
 10
50.0
 20
215.2232136575
 30
0.0
 11
50.0
 21
207.22178512249999
 31
0.0
  0
LINE
  5
21DE
  8
0
 10
134.05828582301089
 20
211.11486377084691
 30
0.0
 11
134.05828582301089
 21
215.22249939
 31
0.0
  0
LINE
  5
21DF
  8
0
 10
65.636712956999986
 20
214.0805925141421
 30
0.0
 11
65.636712956999986
 21
207.22249939
 31
0.0
  0
CIRCLE
  5
22DB
  8
0
 10
211.22249939
 20
109.9999999999999
 30
0.0
 40
10.25000000000003
  0
CIRCLE
  5
2329
  8
0
 10
211.22249939
 20
69.999999999999943
 30
0.0
 40
4.0
  0
LINE
  5
232A
  8
0
 10
211.2224993899998
 20
77.505553499448695
 30
0.0
 11
217.72249939004419
 21
73.75277674972557
 31
0.0
  0
LINE
  5
232B
  8
0
 10
217.72249939004419
 20
73.75277674972557
 30
0.0
 11
217.72249938995779
 21
66.247223250226682
 31
0.0
  0
LINE
  5
232C
  8
0
 10
217.72249938995779
 20
66.247223250226682
 30
0.0
 11
211.22249939000031
 21
62.494446500551071
 31
0.0
  0
LINE
  5
232D
  8
0
 10
211.22249939000031
 20
62.494446500551071
 30
0.0
 11
204.72249938995569
 21
66.247223250274203
 31
0.0
  0
LINE
  5
232E
  8
0
 10
204.72249938995569
 20
66.247223250274203
 30
0.0
 11
204.7224993900424
 21
73.752776749773091
 31
0.0
  0
LINE
  5
232F
  8
0
 10
204.7224993900424
 20
73.752776749773091
 30
0.0
 11
211.2224993899998
 21
77.505553499448695
 31
0.0
  0
CIRCLE
  5
2330
  8
0
 10
211.22249939
 20
69.999999999999943
 30
0.0
 40
7.75
  0
CIRCLE
  5
2331
  8
0
 10
211.22249939
 20
69.999999999999972
 30
0.0
 40
10.25000000000003
  0
LINE
  5
233B
  8
0
 10
61.222499389999939
 20
195.22249939
 30
0.0
 11
61.222499389999939
 21
207.22249939
 31
0.0
  0
LINE
  5
233E
  8
1
 10
211.22249939
 20
146.22249938999991
 30
0.0
 11
211.22249939
 21
44.99999999999995
 31
0.0
  0
LINE
  5
233F
  8
1
 10
220.72249939000091
 20
109.9999999999999
 30
0.0
 11
201.722499389999
 21
109.9999999999999
 31
0.0
  0
LINE
  5
2340
  8
1
 10
220.7224993895405
 20
69.999999999999972
 30
0.0
 11
201.7224993895374
 21
69.999999999999972
 31
0.0
  0
LINE
  5
2343
  8
1
 10
146.2224993899992
 20
211.22249939000099
 30
0.0
 11
45.0
 21
211.22249939000099
 31
0.0
  0
LINE
  5
2351
  8
1
 10
64.222499389999939
 20
69.999999999999972
 30
0.0
 11
47.0
 21
69.999999999999972
 31
0.0
  0
LINE
  5
2352
  8
1
 10
64.222499389999939
 20
109.9999999999999
 30
0.0
 11
47.0
 21
109.9999999999999
 31
0.0
  0
LINE
  5
2399
  8
1
 10
81.222499390000038
 20
126.9999999999999
 30
0.0
 11
81.222499390000038
 21
144.2224993899998
 31
0.0
  0
LINE
  5
239B
  8
1
 10
121.2224993899999
 20
126.9999999999999
 30
0.0
 11
121.2224993899999
 21
144.22249939
 31
0.0
  0
LINE
  5
23A4
  8
1
 10
81.222499390000166
 20
204.22249939
 30
0.0
 11
81.222499390000166
 21
218.22249939
 31
0.0
  0
LINE
  5
23A5
  8
1
 10
121.2224993899999
 20
204.22249939
 30
0.0
 11
121.2224993899999
 21
218.22249939
 31
0.0
  0
ENDSEC
  0
EOF
