  0
SECTION
  2
HEADER
  9
$ACADVER
  1
AC1009
  9
$INSBASE
 10
0.0
 20
0.0
 30
0.0
  9
$EXTMIN
 10
0.0
 20
-2.960436562073669
 30
0.0
  9
$EXTMAX
 10
201.2973536365854
 20
110.9423115225881
 30
0.0
  9
$LIMMIN
 10
0.0
 20
0.0
  9
$LIMMAX
 10
375.0
 20
270.0
  9
$ORTHOMODE
 70
     1
  9
$REGENMODE
 70
     1
  9
$FILLMODE
 70
     1
  9
$QTEXTMODE
 70
     0
  9
$MIRRTEXT
 70
     0
  9
$DRAGMODE
 70
     2
  9
$LTSCALE
 40
10.0
  9
$OSMODE
 70
  3071
  9
$ATTMODE
 70
     1
  9
$TEXTSIZE
 40
5.0
  9
$TRACEWID
 40
0.05
  9
$TEXTSTYLE
  7
STANDARD
  9
$CLAYER
  8
0
  9
$CELTYPE
  6
BYLAYER
  9
$CECOLOR
 62
   256
  9
$DIMSCALE
 40
1.0
  9
$DIMASZ
 40
3.0
  9
$DIMEXO
 40
2.0
  9
$DIMDLI
 40
0.38
  9
$DIMRND
 40
0.0
  9
$DIMDLE
 40
0.0
  9
$DIMEXE
 40
2.0
  9
$DIMTP
 40
0.0
  9
$DIMTM
 40
0.0
  9
$DIMTXT
 40
3.2000000000000002
  9
$DIMCEN
 40
0.0
  9
$DIMTSZ
 40
0.0
  9
$DIMTOL
 70
     0
  9
$DIMLIM
 70
     0
  9
$DIMTIH
 70
     0
  9
$DIMTOH
 70
     0
  9
$DIMSE1
 70
     0
  9
$DIMSE2
 70
     0
  9
$DIMTAD
 70
     1
  9
$DIMZIN
 70
     0
  9
$DIMBLK
  1

  9
$DIMASO
 70
     1
  9
$DIMSHO
 70
     0
  9
$DIMPOST
  1

  9
$DIMAPOST
  1

  9
$DIMALT
 70
     0
  9
$DIMALTD
 70
     2
  9
$DIMALTF
 40
25.399999999999999
  9
$DIMLFAC
 40
1.0
  9
$DIMTOFL
 70
     1
  9
$DIMTVP
 40
1.6000000000000001
  9
$DIMTIX
 70
     1
  9
$DIMSOXD
 70
     0
  9
$DIMSAH
 70
     0
  9
$DIMBLK1
  1

  9
$DIMBLK2
  1

  9
$DIMSTYLE
  2
STANDARD
  9
$DIMCLRD
 70
     0
  9
$DIMCLRE
 70
     0
  9
$DIMCLRT
 70
     0
  9
$DIMTFAC
 40
1.0
  9
$DIMGAP
 40
0.09
  9
$LUNITS
 70
     2
  9
$LUPREC
 70
     4
  9
$SKETCHINC
 40
0.1
  9
$FILLETRAD
 40
0.0
  9
$AUNITS
 70
     0
  9
$AUPREC
 70
     4
  9
$MENU
  1
E:\r13\win\SUPPORT\ACAD
  9
$ELEVATION
 40
0.0
  9
$PELEVATION
 40
0.0
  9
$THICKNESS
 40
0.0
  9
$LIMCHECK
 70
     0
  9
$BLIPMODE
 70
     0
  9
$CHAMFERA
 40
0.0
  9
$CHAMFERB
 40
0.0
  9
$SKPOLY
 70
     0
  9
$TDCREATE
 40
2449839.783958334
  9
$TDUPDATE
 40
2456598.6416495838
  9
$TDINDWG
 40
0.1747157523
  9
$TDUSRTIMER
 40
0.1747157523
  9
$USRTIMER
 70
     1
  9
$ANGBASE
 50
0.0
  9
$ANGDIR
 70
     0
  9
$PDMODE
 70
     0
  9
$PDSIZE
 40
0.0
  9
$PLINEWID
 40
0.0
  9
$COORDS
 70
     1
  9
$SPLFRAME
 70
     0
  9
$SPLINETYPE
 70
     6
  9
$SPLINESEGS
 70
     8
  9
$ATTDIA
 70
     0
  9
$ATTREQ
 70
     1
  9
$HANDLING
 70
     1
  9
$HANDSEED
  5
2908
  9
$SURFTAB1
 70
     6
  9
$SURFTAB2
 70
     6
  9
$SURFTYPE
 70
     6
  9
$SURFU
 70
     6
  9
$SURFV
 70
     6
  9
$UCSNAME
  2

  9
$UCSORG
 10
0.0
 20
0.0
 30
0.0
  9
$UCSXDIR
 10
1.0
 20
0.0
 30
0.0
  9
$UCSYDIR
 10
0.0
 20
1.0
 30
0.0
  9
$PUCSNAME
  2

  9
$PUCSORG
 10
0.0
 20
0.0
 30
0.0
  9
$PUCSXDIR
 10
1.0
 20
0.0
 30
0.0
  9
$PUCSYDIR
 10
0.0
 20
1.0
 30
0.0
  9
$USERI1
 70
     0
  9
$USERI2
 70
     1
  9
$USERI3
 70
     1
  9
$USERI4
 70
     0
  9
$USERI5
 70
     0
  9
$USERR1
 40
0.0
  9
$USERR2
 40
0.0
  9
$USERR3
 40
0.0
  9
$USERR4
 40
0.0
  9
$USERR5
 40
0.0
  9
$WORLDVIEW
 70
     1
  9
$SHADEDGE
 70
     3
  9
$SHADEDIF
 70
    70
  9
$TILEMODE
 70
     1
  9
$MAXACTVP
 70
    16
  9
$PLIMCHECK
 70
     0
  9
$PEXTMIN
 10
1.0000000000000000E+020
 20
1.0000000000000000E+020
 30
1.0000000000000000E+020
  9
$PEXTMAX
 10
-1.0000000000000000E+020
 20
-1.0000000000000000E+020
 30
-1.0000000000000000E+020
  9
$PLIMMIN
 10
0.0
 20
0.0
  9
$PLIMMAX
 10
12.0
 20
9.0
  9
$UNITMODE
 70
     0
  9
$VISRETAIN
 70
     0
  9
$PLINEGEN
 70
     0
  9
$PSLTSCALE
 70
     0
  0
ENDSEC
  0
SECTION
  2
TABLES
  0
TABLE
  2
VPORT
 70
     1
  0
VPORT
  2
*ACTIVE
 70
     0
 10
0.0
 20
0.0
 11
1.0
 21
1.0
 12
195.0581083320873
 22
133.5127261426681
 13
0.0
 23
0.0
 14
10.0
 24
10.0
 15
10.0
 25
10.0
 16
0.0
 26
0.0
 36
1.0
 17
0.0
 27
0.0
 37
0.0
 40
275.42274993631997
 41
1.831871345029239
 42
50.0
 43
0.0
 44
0.0
 50
0.0
 51
0.0
 71
     0
 72
   500
 73
     1
 74
     0
 75
     0
 76
     0
 77
     0
 78
     2
  0
ENDTAB
  0
TABLE
  2
LTYPE
 70
     3
  0
LTYPE
  2
CONTINUOUS
 70
     0
  3
Solid Line
 72
    65
 73
     0
 40
0.0
  0
LTYPE
  2
CENTER
 70
     0
  3
____ _ ____ _ ____ _ ____ _ ____ _ ____ _ ____
 72
    65
 73
     4
 40
2.0
 49
1.25
 49
-0.25
 49
0.25
 49
-0.25
  0
LTYPE
  2
PHANTOM2
 70
     0
  3
___ _ _ ___ _ _ ___ _ _ ___ _ _
 72
    65
 73
     6
 40
1.25
 49
0.625
 49
-0.125
 49
0.125
 49
-0.125
 49
0.125
 49
-0.125
  0
ENDTAB
  0
TABLE
  2
LAYER
 70
     4
  0
LAYER
  2
0
 70
     0
 62
     7
  6
CONTINUOUS
  0
LAYER
  2
1
 70
     0
 62
     1
  6
CENTER
  0
LAYER
  2
3
 70
     0
 62
     3
  6
CONTINUOUS
  0
LAYER
  2
DEFPOINTS
 70
     0
 62
     7
  6
CONTINUOUS
  0
ENDTAB
  0
TABLE
  2
STYLE
 70
     2
  0
STYLE
  2
STANDARD
 70
     0
 40
0.0
 41
1.0
 50
0.0
 71
     0
 42
5.0
  3
TXT
  4
BIGFONT
  0
STYLE
  2
STANDARD1
 70
     0
 40
0.0
 41
1.0
 50
0.0
 71
     0
 42
3.0
  3
txt
  4

  0
ENDTAB
  0
TABLE
  2
VIEW
 70
     1
  0
VIEW
  2
ALL
 70
     0
 40
270.0
 10
220.99159663865549
 20
135.0
 41
0.0
 11
0.0
 21
0.0
 31
1.0
 12
0.0
 22
0.0
 32
0.0
 42
0.0
 43
0.0
 44
0.0
 50
0.0
 71
     0
  0
ENDTAB
  0
TABLE
  2
UCS
 70
     0
  0
ENDTAB
  0
TABLE
  2
APPID
 70
     6
  0
APPID
  2
ACAD
 70
     0
  0
APPID
  2
GENIUS_GENODEF_13
 70
     0
  0
APPID
  2
GENIUS_GENOBJ-N-FIL_13
 70
     0
  0
APPID
  2
GENIUS_GENOREF_13
 70
     0
  0
APPID
  2
ACAD_MLEADERVER
 70
     0
  0
APPID
  2
ACAD_NAV_VCDISPLAY
 70
     0
  0
ENDTAB
  0
TABLE
  2
DIMSTYLE
 70
     1
  0
DIMSTYLE
  2
STANDARD
 70
     0
  3

  4

  5

  6

  7

 40
1.0
 41
0.18
 42
0.0625
 43
0.38
 44
0.18
 45
0.0
 46
0.0
 47
0.0
 48
0.0
140
0.18
141
0.09
142
0.0
143
25.399999999999999
144
1.0
145
0.0
146
1.0
147
0.09
 71
     0
 72
     0
 73
     1
 74
     1
 75
     0
 76
     0
 77
     0
 78
     0
170
     0
171
     2
172
     0
173
     0
174
     0
175
     0
176
     0
177
     0
178
     0
  0
ENDTAB
  0
ENDSEC
  0
SECTION
  2
BLOCKS
  0
BLOCK
  8
0
  2
$MODEL_SPACE
 70
     0
 10
0.0
 20
0.0
 30
0.0
  3
$MODEL_SPACE
  1

  0
ENDBLK
  5
15FA
  8
0
  0
BLOCK
 67
     1
  8
0
  2
$PAPER_SPACE
 70
     0
 10
0.0
 20
0.0
 30
0.0
  3
$PAPER_SPACE
  1

  0
ENDBLK
  5
15F8
 67
     1
  8
0
  0
ENDSEC
  0
SECTION
  2
ENTITIES
  0
ARC
  5
1D7C
  8
0
 10
172.8718420110479
 20
98.842818423865054
 30
0.0
 40
1.0
 50
0.0
 51
90.000000000000028
  0
ARC
  5
1D7D
  8
0
 10
172.8718420110479
 20
63.842818423865047
 30
0.0
 40
1.0
 50
270.0
 51
0.0
  0
LINE
  5
1D7E
  8
0
 10
154.17184201104831
 20
62.842818423865019
 30
0.0
 11
172.8718420110479
 21
62.842818423865047
 31
0.0
  0
LINE
  5
1D7F
  8
0
 10
172.8718420110479
 20
99.842818423865054
 30
0.0
 11
154.17184201104831
 21
99.842818423865026
 31
0.0
  0
ARC
  5
1D80
  8
0
 10
114.2918420110482
 20
96.454202512310573
 30
0.0
 40
1.000000000000083
 50
322.56545003028481
 51
0.0
  0
ARC
  5
1D81
  8
0
 10
114.2918420110482
 20
66.231434335419493
 30
0.0
 40
1.000000000000085
 50
0.0
 51
37.43454996971527
  0
ARC
  5
1D82
  8
0
 10
134.03203039664621
 20
81.342818423865026
 30
0.0
 40
23.860188385597969
 50
142.56545003028239
 51
217.43454996971781
  0
ARC
  5
1D83
  8
0
 10
136.389537925692
 20
78.883006482054384
 30
0.0
 40
27.486797834963369
 50
49.688727090699849
 51
140.1350520602337
  0
ARC
  5
1D84
  8
0
 10
136.38953792569291
 20
83.802630365674545
 30
0.0
 40
27.486797834961919
 50
302.70241066307449
 51
310.3112729093001
  0
ARC
  5
1D85
  8
0
 10
136.38953792569239
 20
83.802630365676166
 30
0.0
 40
27.48679783496398
 50
219.86494793976661
 51
237.29758933692551
  0
LINE
  5
1D86
  8
0
 10
129.85654951531481
 20
95.656903996663274
 30
0.0
 11
142.92252634037899
 21
95.656903996663274
 31
0.0
  0
LINE
  5
1D8C
  8
0
 10
173.8718420110479
 20
63.842818423865047
 30
0.0
 11
173.8718420110479
 21
98.842818423865054
 31
0.0
  0
LINE
  5
1D8D
  8
0
 10
172.8718420110479
 20
62.842818423865047
 30
0.0
 11
172.8718420110479
 21
99.842818423865054
 31
0.0
  0
LINE
  5
1D90
  8
0
 10
115.2918420110483
 20
66.184137742486485
 30
0.0
 11
115.2918420110483
 21
96.501499105243624
 31
0.0
  0
LINE
  5
1D91
  8
0
 10
154.17184201104831
 20
62.842818423865019
 30
0.0
 11
154.17184201104831
 21
99.842818423865026
 31
0.0
  0
POLYLINE
  5
1D93
  8
0
 66
     1
 10
0.0
 20
0.0
 30
0.0
  0
VERTEX
  5
2372
  8
0
 10
129.88410151505491
 20
95.656906749689114
 30
0.0
  0
VERTEX
  5
2373
  8
0
 10
129.6028101248427
 20
95.657149945182638
 30
0.0
  0
VERTEX
  5
2374
  8
0
 10
129.04434366358609
 20
95.659695264462385
 30
0.0
  0
VERTEX
  5
2375
  8
0
 10
128.49074968254121
 20
95.665632048590723
 30
0.0
  0
VERTEX
  5
2376
  8
0
 10
128.21622760272211
 20
95.670135307131218
 30
0.0
  0
VERTEX
  5
2377
  8
0
 10
127.9434851890839
 20
95.675812909466686
 30
0.0
  0
VERTEX
  5
2378
  8
0
 10
127.4041237576029
 20
95.691178025087083
 30
0.0
  0
VERTEX
  5
2379
  8
0
 10
126.87422853377259
 20
95.712759757057725
 30
0.0
  0
VERTEX
  5
237A
  8
0
 10
126.3553609144507
 20
95.741689618315647
 30
0.0
  0
VERTEX
  5
237B
  8
0
 10
125.8490975209204
 20
95.779208715764796
 30
0.0
  0
VERTEX
  5
237C
  8
0
 10
125.3604870295098
 20
95.826308017404003
 30
0.0
  0
VERTEX
  5
237D
  8
0
 10
125.1261332583494
 20
95.853479010461456
 30
0.0
  0
VERTEX
  5
237E
  8
0
 10
124.898597133975
 20
95.88316943541146
 30
0.0
  0
VERTEX
  5
237F
  8
0
 10
124.4641812674067
 20
95.950437068313491
 30
0.0
  0
VERTEX
  5
2380
  8
0
 10
124.0576493443166
 20
96.028740021986764
 30
0.0
  0
VERTEX
  5
2381
  8
0
 10
123.6794176854556
 20
96.118663375762154
 30
0.0
  0
VERTEX
  5
2382
  8
0
 10
123.3299125597528
 20
96.220750303185426
 30
0.0
  0
VERTEX
  5
2383
  8
0
 10
123.0095762502756
 20
96.335506011784375
 30
0.0
  0
VERTEX
  5
2384
  8
0
 10
122.860158851374
 20
96.397929757476106
 30
0.0
  0
VERTEX
  5
2385
  8
0
 10
122.7167638853186
 20
96.464435810800623
 30
0.0
  0
VERTEX
  5
2386
  8
0
 10
122.5574345480876
 20
96.547445536848087
 30
0.0
  0
VERTEX
  5
2387
  8
0
 10
122.51356736146541
 20
96.572264819086172
 30
0.0
  0
VERTEX
  5
2388
  8
0
 10
122.4704618735188
 20
96.59758381653883
 30
0.0
  0
VERTEX
  5
2389
  8
0
 10
122.4491991715267
 20
96.610432385090178
 30
0.0
  0
VERTEX
  5
238A
  8
0
 10
122.4281321771175
 20
96.623407894604682
 30
0.0
  0
VERTEX
  5
238B
  8
0
 10
122.3865923425405
 20
96.64974242125129
 30
0.0
  0
VERTEX
  5
238C
  8
0
 10
122.34585642404799
 20
96.676592769872954
 30
0.0
  0
VERTEX
  5
238D
  8
0
 10
122.30593846717569
 20
96.703964322267623
 30
0.0
  0
VERTEX
  5
238E
  8
0
 10
122.26685251676921
 20
96.731862471700083
 30
0.0
  0
VERTEX
  5
238F
  8
0
 10
122.2286126257795
 20
96.760292626012955
 30
0.0
  0
VERTEX
  5
2390
  8
0
 10
122.2098143486682
 20
96.774708899703853
 30
0.0
  0
VERTEX
  5
2391
  8
0
 10
122.19123286483109
 20
96.789260210742185
 30
0.0
  0
VERTEX
  5
2392
  8
0
 10
122.15472733256961
 20
96.818770672187625
 30
0.0
  0
VERTEX
  5
2393
  8
0
 10
122.1191101667894
 20
96.848829480383074
 30
0.0
  0
VERTEX
  5
2394
  8
0
 10
122.10163915300819
 20
96.864066231083044
 30
0.0
  0
VERTEX
  5
2395
  8
0
 10
122.08439555633331
 20
96.879442131905435
 30
0.0
  0
VERTEX
  5
2396
  8
0
 10
122.0505977537468
 20
96.910614152455665
 30
0.0
  0
VERTEX
  5
2397
  8
0
 10
122.01773108866151
 20
96.942351099139117
 30
0.0
  0
VERTEX
  5
2398
  8
0
 10
122.0016514352202
 20
96.958433165440624
 30
0.0
  0
VERTEX
  5
2399
  8
0
 10
121.98580998187001
 20
96.974658562368106
 30
0.0
  0
VERTEX
  5
239A
  8
0
 10
121.9548489600423
 20
97.007542167303882
 30
0.0
  0
VERTEX
  5
239B
  8
0
 10
121.9248626710243
 20
97.041007574751134
 30
0.0
  0
VERTEX
  5
239C
  8
0
 10
121.895865899642
 20
97.075060481415562
 30
0.0
  0
VERTEX
  5
239D
  8
0
 10
121.8678735839251
 20
97.109706619431407
 30
0.0
  0
VERTEX
  5
239E
  8
0
 10
121.84090083164691
 20
97.144951755065222
 30
0.0
  0
VERTEX
  5
239F
  8
0
 10
121.8278015635085
 20
97.162800757755676
 30
0.0
  0
VERTEX
  5
23A0
  8
0
 10
121.81497079718289
 20
97.180790505282246
 30
0.0
  0
VERTEX
  5
23A1
  8
0
 10
121.79015180715651
 20
97.217146909325564
 30
0.0
  0
VERTEX
  5
23A2
  8
0
 10
121.7664615809566
 20
97.254005926009725
 30
0.0
  0
VERTEX
  5
23A3
  8
0
 10
121.7439063408309
 20
97.291367867893257
 30
0.0
  0
VERTEX
  5
23A4
  8
0
 10
121.7224923043775
 20
97.329232967825234
 30
0.0
  0
VERTEX
  5
23A5
  8
0
 10
121.7022256883445
 20
97.367601381090196
 30
0.0
  0
VERTEX
  5
23A6
  8
0
 10
121.69252460651241
 20
97.386974358064194
 30
0.0
  0
VERTEX
  5
23A7
  8
0
 10
121.6831127128292
 20
97.406473187535013
 30
0.0
  0
VERTEX
  5
23A8
  8
0
 10
121.6651596058644
 20
97.445848393645505
 30
0.0
  0
VERTEX
  5
23A9
  8
0
 10
121.64837260837341
 20
97.485726934536899
 30
0.0
  0
VERTEX
  5
23AA
  8
0
 10
121.64041835579231
 20
97.505854916196654
 30
0.0
  0
VERTEX
  5
23AB
  8
0
 10
121.6327579794733
 20
97.526108675822982
 30
0.0
  0
VERTEX
  5
23AC
  8
0
 10
121.6183220020978
 20
97.566993415325612
 30
0.0
  0
VERTEX
  5
23AD
  8
0
 10
121.60507098890839
 20
97.608380884586765
 30
0.0
  0
VERTEX
  5
23AE
  8
0
 10
121.5988918262304
 20
97.629263041179769
 30
0.0
  0
VERTEX
  5
23AF
  8
0
 10
121.5930112884547
 20
97.650270750144784
 30
0.0
  0
VERTEX
  5
23B0
  8
0
 10
121.58214929154499
 20
97.692662614537028
 30
0.0
  0
VERTEX
  5
23B1
  8
0
 10
121.5724914377768
 20
97.735556016991808
 30
0.0
  0
VERTEX
  5
23B2
  8
0
 10
121.5640442221801
 20
97.778950433774511
 30
0.0
  0
VERTEX
  5
23B3
  8
0
 10
121.556814201918
 20
97.822845278154702
 30
0.0
  0
VERTEX
  5
23B4
  8
0
 10
121.55080800298811
 20
97.867239899963664
 30
0.0
  0
VERTEX
  5
23B5
  8
0
 10
121.5482659276061
 20
97.889624406673036
 30
0.0
  0
VERTEX
  5
23B6
  8
0
 10
121.5460323268661
 20
97.912133584716074
 30
0.0
  0
VERTEX
  5
23B7
  8
0
 10
121.5424939570312
 20
97.95752555227196
 30
0.0
  0
VERTEX
  5
23B8
  8
0
 10
121.5401997653132
 20
98.003414955021171
 30
0.0
  0
VERTEX
  5
23B9
  8
0
 10
121.53915671800139
 20
98.04980087557648
 30
0.0
  0
VERTEX
  5
23BA
  8
0
 10
121.5393718816548
 20
98.096682323967102
 30
0.0
  0
VERTEX
  5
23BB
  8
0
 10
121.5408524285599
 20
98.144058234329592
 30
0.0
  0
VERTEX
  5
23BC
  8
0
 10
121.5420684069706
 20
98.167912385059964
 30
0.0
  0
VERTEX
  5
23BD
  8
0
 10
121.5435992057467
 20
98.191836134277594
 30
0.0
  0
VERTEX
  5
23BE
  8
0
 10
121.54760031891951
 20
98.239887062812571
 30
0.0
  0
VERTEX
  5
23BF
  8
0
 10
121.55284612385729
 20
98.288203858549295
 30
0.0
  0
VERTEX
  5
23C0
  8
0
 10
121.55932714273941
 20
98.336780044539154
 30
0.0
  0
VERTEX
  5
23C1
  8
0
 10
121.5670340244239
 20
98.385609105882054
 30
0.0
  0
VERTEX
  5
23C2
  8
0
 10
121.5759575361635
 20
98.434684485198531
 30
0.0
  0
VERTEX
  5
23C3
  8
0
 10
121.580872673323
 20
98.459312482262362
 30
0.0
  0
VERTEX
  5
23C4
  8
0
 10
121.586088554963
 20
98.483999578443616
 30
0.0
  0
VERTEX
  5
23C5
  8
0
 10
121.59741805866661
 20
98.533547731109365
 30
0.0
  0
VERTEX
  5
23C6
  8
0
 10
121.6099371168624
 20
98.583322234856396
 30
0.0
  0
VERTEX
  5
23C7
  8
0
 10
121.62363688168701
 20
98.633316324607591
 30
0.0
  0
VERTEX
  5
23C8
  8
0
 10
121.638508578615
 20
98.683523176128702
 30
0.0
  0
VERTEX
  5
23C9
  8
0
 10
121.65454349731149
 20
98.733935904114816
 30
0.0
  0
VERTEX
  5
23CA
  8
0
 10
121.6629944581738
 20
98.759217303070983
 30
0.0
  0
VERTEX
  5
23CB
  8
0
 10
121.6717329826209
 20
98.784547560793285
 30
0.0
  0
VERTEX
  5
23CC
  8
0
 10
121.6900684257613
 20
98.835351135047219
 30
0.0
  0
VERTEX
  5
23CD
  8
0
 10
121.7095412557874
 20
98.886339552057805
 30
0.0
  0
VERTEX
  5
23CE
  8
0
 10
121.7301429313776
 20
98.937505673456712
 30
0.0
  0
VERTEX
  5
23CF
  8
0
 10
121.751864932994
 20
98.98884229797541
 30
0.0
  0
VERTEX
  5
23D0
  8
0
 10
121.7746987554583
 20
99.040342162572969
 30
0.0
  0
VERTEX
  5
23D1
  8
0
 10
121.7865299438409
 20
99.06615102369102
 30
0.0
  0
VERTEX
  5
23D2
  8
0
 10
121.7986359009786
 20
99.091997944019994
 30
0.0
  0
VERTEX
  5
23D3
  8
0
 10
121.8236678726538
 20
99.143802260912395
 30
0.0
  0
VERTEX
  5
23D4
  8
0
 10
121.8497861684798
 20
99.195747676086654
 30
0.0
  0
VERTEX
  5
23D5
  8
0
 10
121.86325002831821
 20
99.221770956847521
 30
0.0
  0
VERTEX
  5
23D6
  8
0
 10
121.8769822758689
 20
99.247826699405138
 30
0.0
  0
VERTEX
  5
23D7
  8
0
 10
121.90524766669409
 20
99.300031790879217
 30
0.0
  0
VERTEX
  5
23D8
  8
0
 10
121.93457379286011
 20
99.352355364096169
 30
0.0
  0
VERTEX
  5
23D9
  8
0
 10
121.94963195398419
 20
99.378559198814926
 30
0.0
  0
VERTEX
  5
23DA
  8
0
 10
121.9649523758623
 20
99.404790288375366
 30
0.0
  0
VERTEX
  5
23DB
  8
0
 10
121.9964100011448
 20
99.457386776187406
 30
0.0
  0
VERTEX
  5
23DC
  8
0
 10
122.028967286748
 20
99.510178664674726
 30
0.0
  0
VERTEX
  5
23DD
  8
0
 10
122.0626228429561
 20
99.563160970429763
 30
0.0
  0
VERTEX
  5
23DE
  8
0
 10
122.0973753732973
 20
99.616328667956637
 30
0.0
  0
VERTEX
  5
23DF
  8
0
 10
122.13322367195229
 20
99.669676686687936
 30
0.0
  0
VERTEX
  5
23E0
  8
0
 10
122.1515583816977
 20
99.696416718914307
 30
0.0
  0
VERTEX
  5
23E1
  8
0
 10
122.1701666210262
 20
99.723199908089939
 30
0.0
  0
VERTEX
  5
23E2
  8
0
 10
122.2082031877061
 20
99.776893162866983
 30
0.0
  0
VERTEX
  5
23E3
  8
0
 10
122.24733242132569
 20
99.83075122827465
 30
0.0
  0
VERTEX
  5
23E4
  8
0
 10
122.28755345035989
 20
99.884768825549116
 30
0.0
  0
VERTEX
  5
23E5
  8
0
 10
122.32886547936801
 20
99.938940617459139
 30
0.0
  0
VERTEX
  5
23E6
  8
0
 10
122.3712677859065
 20
99.993261205984865
 30
0.0
  0
VERTEX
  5
23E7
  8
0
 10
122.3928775866828
 20
100.0204755949335
 30
0.0
  0
VERTEX
  5
23E8
  8
0
 10
122.4147597174268
 20
100.04772513012639
 30
0.0
  0
VERTEX
  5
23E9
  8
0
 10
122.4593406881761
 20
100.1023268638442
 30
0.0
  0
VERTEX
  5
23EA
  8
0
 10
122.50501017611499
 20
100.1570608141313
 30
0.0
  0
VERTEX
  5
23EB
  8
0
 10
122.5517677198665
 20
100.2119213192172
 30
0.0
  0
VERTEX
  5
23EC
  8
0
 10
122.5996129157071
 20
100.2669026469013
 30
0.0
  0
VERTEX
  5
23ED
  8
0
 10
122.6485454146122
 20
100.32199899301369
 30
0.0
  0
VERTEX
  5
23EE
  8
0
 10
122.6734193078872
 20
100.3495884641474
 30
0.0
  0
VERTEX
  5
23EF
  8
0
 10
122.69856491936351
 20
100.37720447999961
 30
0.0
  0
VERTEX
  5
23F0
  8
0
 10
122.74967118172751
 20
100.43251315562389
 30
0.0
  0
VERTEX
  5
23F1
  8
0
 10
122.8018639997119
 20
100.48791899179101
 30
0.0
  0
VERTEX
  5
23F2
  8
0
 10
122.8551432149048
 20
100.54341588347491
 30
0.0
  0
VERTEX
  5
23F3
  8
0
 10
122.909508709901
 20
100.5989976477545
 30
0.0
  0
VERTEX
  5
23F4
  8
0
 10
122.9649604058197
 20
100.6546580229474
 30
0.0
  0
VERTEX
  5
23F5
  8
0
 10
122.9930935644189
 20
100.68251571113279
 30
0.0
  0
VERTEX
  5
23F6
  8
0
 10
123.0214982599156
 20
100.71039066783869
 30
0.0
  0
VERTEX
  5
23F7
  8
0
 10
123.0791222632851
 20
100.7661891609953
 30
0.0
  0
VERTEX
  5
23F8
  8
0
 10
123.1378324386672
 20
100.8220470001632
 30
0.0
  0
VERTEX
  5
23F9
  8
0
 10
123.35187265516591
 20
101.01792099706751
 30
0.0
  0
VERTEX
  5
23FA
  8
0
 10
123.5458565786553
 20
101.18604486595289
 30
0.0
  0
VERTEX
  5
23FB
  8
0
 10
123.7488891797752
 20
101.353652635307
 30
0.0
  0
VERTEX
  5
23FC
  8
0
 10
124.1813007566641
 20
101.6862341601838
 30
0.0
  0
VERTEX
  5
23FD
  8
0
 10
124.6482147301973
 20
102.014069408396
 30
0.0
  0
VERTEX
  5
23FE
  8
0
 10
125.14889686302929
 20
102.33563416321741
 30
0.0
  0
VERTEX
  5
23FF
  8
0
 10
125.6826236738881
 20
102.6493628982805
 30
0.0
  0
VERTEX
  5
2400
  8
0
 10
126.2486770606898
 20
102.9536569623631
 30
0.0
  0
VERTEX
  5
2401
  8
0
 10
126.543602637608
 20
103.10175901576289
 30
0.0
  0
VERTEX
  5
2402
  8
0
 10
126.8446545466353
 20
103.2461009577182
 30
0.0
  0
VERTEX
  5
2403
  8
0
 10
127.45794263003231
 20
103.5201995486575
 30
0.0
  0
VERTEX
  5
2404
  8
0
 10
128.08446898586431
 20
103.7746302562562
 30
0.0
  0
VERTEX
  5
2405
  8
0
 10
128.72227907814269
 20
104.00915776632711
 30
0.0
  0
VERTEX
  5
2406
  8
0
 10
129.36942811323391
 20
104.22358329984441
 30
0.0
  0
VERTEX
  5
2407
  8
0
 10
130.0239633663418
 20
104.4177617160248
 30
0.0
  0
VERTEX
  5
2408
  8
0
 10
130.35338674421561
 20
104.5072316553785
 30
0.0
  0
VERTEX
  5
2409
  8
0
 10
130.68393058044629
 20
104.5916210753464
 30
0.0
  0
VERTEX
  5
240A
  8
0
 10
131.3494355418332
 20
104.74561954316169
 30
0.0
  0
VERTEX
  5
240B
  8
0
 10
132.020644348898
 20
104.88006882490011
 30
0.0
  0
VERTEX
  5
240C
  8
0
 10
132.6964832361447
 20
104.9949457957764
 30
0.0
  0
VERTEX
  5
240D
  8
0
 10
133.37588118613249
 20
105.0902470168277
 30
0.0
  0
VERTEX
  5
240E
  8
0
 10
134.05776653824449
 20
105.1659934639774
 30
0.0
  0
VERTEX
  5
240F
  8
0
 10
134.39930665508811
 20
105.1965479319946
 30
0.0
  0
VERTEX
  5
2410
  8
0
 10
134.74107845362411
 20
105.2222355974429
 30
0.0
  0
VERTEX
  5
2411
  8
0
 10
135.42591048056539
 20
105.25910050064761
 30
0.0
  0
VERTEX
  5
2412
  8
0
 10
136.11204664842629
 20
105.27661499328531
 30
0.0
  0
VERTEX
  5
2413
  8
0
 10
136.45530898218701
 20
105.2781086815659
 30
0.0
  0
VERTEX
  5
2414
  8
0
 10
136.79854357341509
 20
105.2747591702943
 30
0.0
  0
VERTEX
  5
2415
  8
0
 10
137.48445780634779
 20
105.25353707664431
 30
0.0
  0
VERTEX
  5
2416
  8
0
 10
138.1688483396332
 20
105.2129765107134
 30
0.0
  0
VERTEX
  5
2417
  8
0
 10
138.51042203295731
 20
105.18543795347129
 30
0.0
  0
VERTEX
  5
2418
  8
0
 10
138.85165840190189
 20
105.15303819215541
 30
0.0
  0
VERTEX
  5
2419
  8
0
 10
139.5326021346402
 20
105.0736327191087
 30
0.0
  0
VERTEX
  5
241A
  8
0
 10
140.2106458965938
 20
104.97473220810279
 30
0.0
  0
VERTEX
  5
241B
  8
0
 10
140.88475611442141
 20
104.8563332065419
 30
0.0
  0
VERTEX
  5
241C
  8
0
 10
141.5547289210887
 20
104.71826852645511
 30
0.0
  0
VERTEX
  5
241D
  8
0
 10
142.22068555446421
 20
104.5601977648445
 30
0.0
  0
VERTEX
  5
241E
  8
0
 10
142.5516647578188
 20
104.4736564657161
 30
0.0
  0
VERTEX
  5
241F
  8
0
 10
142.88104296743489
 20
104.3821179908324
 30
0.0
  0
VERTEX
  5
2420
  8
0
 10
143.53419524205009
 20
104.18408897803781
 30
0.0
  0
VERTEX
  5
2421
  8
0
 10
144.17854382374969
 20
103.96621550253511
 30
0.0
  0
VERTEX
  5
2422
  8
0
 10
144.8124884857682
 20
103.72863479650999
 30
0.0
  0
VERTEX
  5
2423
  8
0
 10
145.43440897920581
 20
103.4715040180529
 30
0.0
  0
VERTEX
  5
2424
  8
0
 10
146.0356882198588
 20
103.19829586777649
 30
0.0
  0
VERTEX
  5
2425
  8
0
 10
146.3252607736506
 20
103.05738933813331
 30
0.0
  0
VERTEX
  5
2426
  8
0
 10
146.60740618285001
 20
102.91384812874909
 30
0.0
  0
VERTEX
  5
2427
  8
0
 10
147.14927607123499
 20
102.61953118894129
 30
0.0
  0
VERTEX
  5
2428
  8
0
 10
147.66100380733079
 20
102.3166413268471
 30
0.0
  0
VERTEX
  5
2429
  8
0
 10
148.1422595214903
 20
102.0064072023164
 30
0.0
  0
VERTEX
  5
242A
  8
0
 10
148.59265703396221
 20
101.6899924577688
 30
0.0
  0
VERTEX
  5
242B
  8
0
 10
149.01065158879521
 20
101.3693648167685
 30
0.0
  0
VERTEX
  5
242C
  8
0
 10
149.2065227717039
 20
101.208549438028
 30
0.0
  0
VERTEX
  5
242D
  8
0
 10
149.3936023943829
 20
101.0476454725594
 30
0.0
  0
VERTEX
  5
242E
  8
0
 10
149.74134092480909
 20
100.7262134139548
 30
0.0
  0
VERTEX
  5
242F
  8
0
 10
149.92788236002181
 20
100.5393372924663
 30
0.0
  0
VERTEX
  5
2430
  8
0
 10
149.978967785761
 20
100.4860720292383
 30
0.0
  0
VERTEX
  5
2431
  8
0
 10
150.02906857427479
 20
100.43287336173471
 30
0.0
  0
VERTEX
  5
2432
  8
0
 10
150.0537494549817
 20
100.40630063575141
 30
0.0
  0
VERTEX
  5
2433
  8
0
 10
150.07818383998591
 20
100.3797465130326
 30
0.0
  0
VERTEX
  5
2434
  8
0
 10
150.12631264133211
 20
100.3266966513289
 30
0.0
  0
VERTEX
  5
2435
  8
0
 10
150.17345397779891
 20
100.2737288914001
 30
0.0
  0
VERTEX
  5
2436
  8
0
 10
150.2196067868901
 20
100.2208482961865
 30
0.0
  0
VERTEX
  5
2437
  8
0
 10
150.26476994104729
 20
100.1680598785037
 30
0.0
  0
VERTEX
  5
2438
  8
0
 10
150.30894224452689
 20
100.11536860288589
 30
0.0
  0
VERTEX
  5
2439
  8
0
 10
150.3306564341724
 20
100.0890609320498
 30
0.0
  0
VERTEX
  5
243A
  8
0
 10
150.35212243024549
 20
100.06277938756131
 30
0.0
  0
VERTEX
  5
243B
  8
0
 10
150.39430915660711
 20
100.0102971065609
 30
0.0
  0
VERTEX
  5
243C
  8
0
 10
150.43550100432529
 20
99.957926591962163
 30
0.0
  0
VERTEX
  5
243D
  8
0
 10
150.47569647325571
 20
99.905672636264271
 30
0.0
  0
VERTEX
  5
243E
  8
0
 10
150.5148975681067
 20
99.853535165879165
 30
0.0
  0
VERTEX
  5
243F
  8
0
 10
150.55317874422499
 20
99.801413658535211
 30
0.0
  0
VERTEX
  5
2440
  8
0
 10
150.57198299907259
 20
99.775345029618606
 30
0.0
  0
VERTEX
  5
2441
  8
0
 10
150.5905609947404
 20
99.749272500036355
 30
0.0
  0
VERTEX
  5
2442
  8
0
 10
150.6270321143322
 20
99.697119785538035
 30
0.0
  0
VERTEX
  5
2443
  8
0
 10
150.66257994102
 20
99.644963602841443
 30
0.0
  0
VERTEX
  5
2444
  8
0
 10
150.69719235229519
 20
99.592812027548874
 30
0.0
  0
VERTEX
  5
2445
  8
0
 10
150.73085726062959
 20
99.540673118431954
 30
0.0
  0
VERTEX
  5
2446
  8
0
 10
150.76356260834049
 20
99.488554913055466
 30
0.0
  0
VERTEX
  5
2447
  8
0
 10
150.77955168568349
 20
99.462506079200054
 30
0.0
  0
VERTEX
  5
2448
  8
0
 10
150.79529636179029
 20
99.436465423700909
 30
0.0
  0
VERTEX
  5
2449
  8
0
 10
150.82604650491049
 20
99.384412633636003
 30
0.0
  0
VERTEX
  5
244A
  8
0
 10
150.8558010320352
 20
99.332404493776721
 30
0.0
  0
VERTEX
  5
244B
  8
0
 10
150.8703011887541
 20
99.3064196427664
 30
0.0
  0
VERTEX
  5
244C
  8
0
 10
150.88454794004571
 20
99.280448919789706
 30
0.0
  0
VERTEX
  5
244D
  8
0
 10
150.9122752198264
 20
99.228553789681698
 30
0.0
  0
VERTEX
  5
244E
  8
0
 10
150.93897084704361
 20
99.176726941922766
 30
0.0
  0
VERTEX
  5
244F
  8
0
 10
150.95192802675751
 20
99.150841562303142
 30
0.0
  0
VERTEX
  5
2450
  8
0
 10
150.96462277226729
 20
99.124976174147633
 30
0.0
  0
VERTEX
  5
2451
  8
0
 10
150.98921891046291
 20
99.073309242477436
 30
0.0
  0
VERTEX
  5
2452
  8
0
 10
151.01274712989141
 20
99.021733861500167
 30
0.0
  0
VERTEX
  5
2453
  8
0
 10
151.0351952404659
 20
98.970257704944004
 30
0.0
  0
VERTEX
  5
2454
  8
0
 10
151.05655098162251
 20
98.918888407072075
 30
0.0
  0
VERTEX
  5
2455
  8
0
 10
151.07680200977561
 20
98.867633564820494
 30
0.0
  0
VERTEX
  5
2456
  8
0
 10
151.08650937323921
 20
98.842051429085203
 30
0.0
  0
VERTEX
  5
2457
  8
0
 10
151.09593588543569
 20
98.81650074069394
 30
0.0
  0
VERTEX
  5
2458
  8
0
 10
151.11394006008271
 20
98.765497466424833
 30
0.0
  0
VERTEX
  5
2459
  8
0
 10
151.13080186289241
 20
98.714631247391836
 30
0.0
  0
VERTEX
  5
245A
  8
0
 10
151.14650848742821
 20
98.663909567783904
 30
0.0
  0
VERTEX
  5
245B
  8
0
 10
151.16104697841519
 20
98.613339896484064
 30
0.0
  0
VERTEX
  5
245C
  8
0
 10
151.17440421872351
 20
98.562929693636463
 30
0.0
  0
VERTEX
  5
245D
  8
0
 10
151.18063131409889
 20
98.537804936960782
 30
0.0
  0
VERTEX
  5
245E
  8
0
 10
151.18654685075441
 20
98.512773466531684
 30
0.0
  0
VERTEX
  5
245F
  8
0
 10
151.1974435472936
 20
98.462994392503333
 30
0.0
  0
VERTEX
  5
2460
  8
0
 10
151.20709570318061
 20
98.413597168797807
 30
0.0
  0
VERTEX
  5
2461
  8
0
 10
151.21550482794609
 20
98.364585755414765
 30
0.0
  0
VERTEX
  5
2462
  8
0
 10
151.22267238090069
 20
98.315964029123464
 30
0.0
  0
VERTEX
  5
2463
  8
0
 10
151.2285997719313
 20
98.267735784190222
 30
0.0
  0
VERTEX
  5
2464
  8
0
 10
151.23109883401091
 20
98.243770380541122
 30
0.0
  0
VERTEX
  5
2465
  8
0
 10
151.23328836236141
 20
98.219904733018794
 30
0.0
  0
VERTEX
  5
2466
  8
0
 10
151.23673946586939
 20
98.172474506701505
 30
0.0
  0
VERTEX
  5
2467
  8
0
 10
151.238954349458
 20
98.125448655478763
 30
0.0
  0
VERTEX
  5
2468
  8
0
 10
151.23993423446731
 20
98.078830649106536
 30
0.0
  0
VERTEX
  5
2469
  8
0
 10
151.23968029762401
 20
98.032623877131016
 30
0.0
  0
VERTEX
  5
246A
  8
0
 10
151.23819367211789
 20
97.986831649071377
 30
0.0
  0
VERTEX
  5
246B
  8
0
 10
151.23698844360271
 20
97.964092001376855
 30
0.0
  0
VERTEX
  5
246C
  8
0
 10
151.23547544869649
 20
97.941457194511941
 30
0.0
  0
VERTEX
  5
246D
  8
0
 10
151.23152667676871
 20
97.896503663106031
 30
0.0
  0
VERTEX
  5
246E
  8
0
 10
151.22634836550779
 20
97.851974124494291
 30
0.0
  0
VERTEX
  5
246F
  8
0
 10
151.21994148494539
 20
97.807871568141437
 30
0.0
  0
VERTEX
  5
2470
  8
0
 10
151.21230696704481
 20
97.764198903095405
 30
0.0
  0
VERTEX
  5
2471
  8
0
 10
151.20344570674709
 20
97.720958957674071
 30
0.0
  0
VERTEX
  5
2472
  8
0
 10
151.19855531799419
 20
97.699502116505101
 30
0.0
  0
VERTEX
  5
2473
  8
0
 10
151.19335856297951
 20
97.678154479085023
 30
0.0
  0
VERTEX
  5
2474
  8
0
 10
151.18204635961769
 20
97.635788132983819
 30
0.0
  0
VERTEX
  5
2475
  8
0
 10
151.16950988639621
 20
97.593862502977387
 30
0.0
  0
VERTEX
  5
2476
  8
0
 10
151.16278278625509
 20
97.573065741318331
 30
0.0
  0
VERTEX
  5
2477
  8
0
 10
151.15574989975781
 20
97.552380090078472
 30
0.0
  0
VERTEX
  5
2478
  8
0
 10
151.14076712363519
 20
97.511343312118214
 30
0.0
  0
VERTEX
  5
2479
  8
0
 10
151.12456602506009
 20
97.470763564395213
 30
0.0
  0
VERTEX
  5
247A
  8
0
 10
151.11602569381191
 20
97.450683982284261
 30
0.0
  0
VERTEX
  5
247B
  8
0
 10
151.10719904539269
 20
97.430755573998894
 30
0.0
  0
VERTEX
  5
247C
  8
0
 10
151.0886939591569
 20
97.391350205416174
 30
0.0
  0
VERTEX
  5
247D
  8
0
 10
151.0690649718878
 20
97.352543306216759
 30
0.0
  0
VERTEX
  5
247E
  8
0
 10
151.04832610935571
 20
97.314330718447195
 30
0.0
  0
VERTEX
  5
247F
  8
0
 10
151.0264912322433
 20
97.276708282406943
 30
0.0
  0
VERTEX
  5
2480
  8
0
 10
151.00357405095369
 20
97.239671839416573
 30
0.0
  0
VERTEX
  5
2481
  8
0
 10
150.99171384329691
 20
97.221372066476405
 30
0.0
  0
VERTEX
  5
2482
  8
0
 10
150.9795881404151
 20
97.203217233652708
 30
0.0
  0
VERTEX
  5
2483
  8
0
 10
150.95454695475809
 20
97.167340313130083
 30
0.0
  0
VERTEX
  5
2484
  8
0
 10
150.9284638417534
 20
97.132036929913284
 30
0.0
  0
VERTEX
  5
2485
  8
0
 10
150.90135205690851
 20
97.097302939642987
 30
0.0
  0
VERTEX
  5
2486
  8
0
 10
150.8732247771336
 20
97.063134200461931
 30
0.0
  0
VERTEX
  5
2487
  8
0
 10
150.84409511390189
 20
97.029526571424114
 30
0.0
  0
VERTEX
  5
2488
  8
0
 10
150.82915847104209
 20
97.012931878921648
 30
0.0
  0
VERTEX
  5
2489
  8
0
 10
150.81397612583581
 20
96.996475910469385
 30
0.0
  0
VERTEX
  5
248A
  8
0
 10
150.78288083066909
 20
96.963978072042522
 30
0.0
  0
VERTEX
  5
248B
  8
0
 10
150.75082221654179
 20
96.932028904431803
 30
0.0
  0
VERTEX
  5
248C
  8
0
 10
150.73443571819161
 20
96.916258772385817
 30
0.0
  0
VERTEX
  5
248D
  8
0
 10
150.71781325259499
 20
96.900624246897834
 30
0.0
  0
VERTEX
  5
248E
  8
0
 10
150.68386689884571
 20
96.869759926658688
 30
0.0
  0
VERTEX
  5
248F
  8
0
 10
150.64899611532849
 20
96.839431755792134
 30
0.0
  0
VERTEX
  5
2490
  8
0
 10
150.6312181145056
 20
96.824467412738528
 30
0.0
  0
VERTEX
  5
2491
  8
0
 10
150.6132138704987
 20
96.809635528110064
 30
0.0
  0
VERTEX
  5
2492
  8
0
 10
150.57653314890109
 20
96.780367016055081
 30
0.0
  0
VERTEX
  5
2493
  8
0
 10
150.53896695811261
 20
96.751621967663269
 30
0.0
  0
VERTEX
  5
2494
  8
0
 10
150.50052833497421
 20
96.723396103632297
 30
0.0
  0
VERTEX
  5
2495
  8
0
 10
150.4612303511305
 20
96.69568511452789
 30
0.0
  0
VERTEX
  5
2496
  8
0
 10
150.42108611790241
 20
96.668484658157624
 30
0.0
  0
VERTEX
  5
2497
  8
0
 10
150.40070076695929
 20
96.655074513251606
 30
0.0
  0
VERTEX
  5
2498
  8
0
 10
150.38010879051609
 20
96.641790357134937
 30
0.0
  0
VERTEX
  5
2499
  8
0
 10
150.3383115717204
 20
96.615597796653063
 30
0.0
  0
VERTEX
  5
249A
  8
0
 10
150.29570771482091
 20
96.589902522483683
 30
0.0
  0
VERTEX
  5
249B
  8
0
 10
150.25229501262081
 20
96.5646911973881
 30
0.0
  0
VERTEX
  5
249C
  8
0
 10
150.2079774138661
 20
96.539900172412686
 30
0.0
  0
VERTEX
  5
249D
  8
0
 10
150.16273791639051
 20
96.515516176367754
 30
0.0
  0
VERTEX
  5
249E
  8
0
 10
150.13977315193779
 20
96.503476227742411
 30
0.0
  0
VERTEX
  5
249F
  8
0
 10
150.11657874065611
 20
96.491537329880359
 30
0.0
  0
VERTEX
  5
24A0
  8
0
 10
150.069502046363
 20
96.467961731607573
 30
0.0
  0
VERTEX
  5
24A1
  8
0
 10
150.021509935616
 20
96.444787457690495
 30
0.0
  0
VERTEX
  5
24A2
  8
0
 10
149.99717124099209
 20
96.433350209849863
 30
0.0
  0
VERTEX
  5
24A3
  8
0
 10
149.84635774844801
 20
96.366809601280252
 30
0.0
  0
VERTEX
  5
24A4
  8
0
 10
149.520300724751
 20
96.244265491893387
 30
0.0
  0
VERTEX
  5
24A5
  8
0
 10
149.1619809307264
 20
96.135382703853708
 30
0.0
  0
VERTEX
  5
24A6
  8
0
 10
148.77173976765479
 20
96.039658392970964
 30
0.0
  0
VERTEX
  5
24A7
  8
0
 10
148.34989413353111
 20
95.956541477970603
 30
0.0
  0
VERTEX
  5
24A8
  8
0
 10
147.8967455042
 20
95.885427318179495
 30
0.0
  0
VERTEX
  5
24A9
  8
0
 10
147.6600138538254
 20
95.85435063962224
 30
0.0
  0
VERTEX
  5
24AA
  8
0
 10
147.41902516567779
 20
95.82635563064251
 30
0.0
  0
VERTEX
  5
24AB
  8
0
 10
146.9253098410062
 20
95.778814191189824
 30
0.0
  0
VERTEX
  5
24AC
  8
0
 10
146.41760716860591
 20
95.741297163287157
 30
0.0
  0
VERTEX
  5
24AD
  8
0
 10
145.89789178780981
 20
95.712428230571433
 30
0.0
  0
VERTEX
  5
24AE
  8
0
 10
145.36813852057799
 20
95.690945527727976
 30
0.0
  0
VERTEX
  5
24AF
  8
0
 10
144.8303374761679
 20
95.675691306228174
 30
0.0
  0
VERTEX
  5
24B0
  8
0
 10
144.55904653928459
 20
95.670064980060076
 30
0.0
  0
VERTEX
  5
24B1
  8
0
 10
144.2863184947291
 20
95.665603241274766
 30
0.0
  0
VERTEX
  5
24B2
  8
0
 10
143.7350969195216
 20
95.659697957604223
 30
0.0
  0
VERTEX
  5
24B3
  8
0
 10
143.17674034146771
 20
95.657150887696915
 30
0.0
  0
VERTEX
  5
24B4
  8
0
 10
142.8951537356258
 20
95.656906714044666
 30
0.0
  0
SEQEND
  5
24B5
  8
0
  0
POLYLINE
  5
1D98
  8
0
 66
     1
 10
0.0
 20
0.0
 30
0.0
  0
VERTEX
  5
24B6
  8
0
 10
136.389537925692
 20
81.786283083528744
 30
0.0
  0
VERTEX
  5
24B7
  8
0
 10
135.9854530580439
 20
81.784466804620848
 30
0.0
  0
VERTEX
  5
24B8
  8
0
 10
135.17698085345859
 20
81.769878803418266
 30
0.0
  0
VERTEX
  5
24B9
  8
0
 10
134.3694332414224
 20
81.740475643354188
 30
0.0
  0
VERTEX
  5
24BA
  8
0
 10
133.96650384383901
 20
81.720103949442716
 30
0.0
  0
VERTEX
  5
24BB
  8
0
 10
133.56440257697739
 20
81.695871231349543
 30
0.0
  0
VERTEX
  5
24BC
  8
0
 10
132.7634796712606
 20
81.635518255949364
 30
0.0
  0
VERTEX
  5
24BD
  8
0
 10
131.9682565729108
 20
81.558701361778944
 30
0.0
  0
VERTEX
  5
24BE
  8
0
 10
131.1793433267591
 20
81.464398177031867
 30
0.0
  0
VERTEX
  5
24BF
  8
0
 10
130.39611927309409
 20
81.351096702448487
 30
0.0
  0
VERTEX
  5
24C0
  8
0
 10
129.62108227645641
 20
81.217379581341518
 30
0.0
  0
VERTEX
  5
24C1
  8
0
 10
129.23746476657709
 20
81.142379278522924
 30
0.0
  0
VERTEX
  5
24C2
  8
0
 10
128.85688899065849
 20
81.061666765254699
 30
0.0
  0
VERTEX
  5
24C3
  8
0
 10
128.10618544928701
 20
80.882165317271927
 30
0.0
  0
VERTEX
  5
24C4
  8
0
 10
127.37163648685021
 20
80.676828617911326
 30
0.0
  0
VERTEX
  5
24C5
  8
0
 10
126.6618645810079
 20
80.44537456862713
 30
0.0
  0
VERTEX
  5
24C6
  8
0
 10
125.99317134774731
 20
80.191603375527464
 30
0.0
  0
VERTEX
  5
24C7
  8
0
 10
125.3667007627477
 20
79.915491320497296
 30
0.0
  0
VERTEX
  5
24C8
  8
0
 10
125.06944024331921
 20
79.768969450103754
 30
0.0
  0
VERTEX
  5
24C9
  8
0
 10
124.78291385843509
 20
79.616750075353679
 30
0.0
  0
VERTEX
  5
24CA
  8
0
 10
124.24235758830849
 20
79.295033341577721
 30
0.0
  0
VERTEX
  5
24CB
  8
0
 10
123.74643388939531
 20
78.950458778552374
 30
0.0
  0
VERTEX
  5
24CC
  8
0
 10
123.5167043595518
 20
78.770530200568601
 30
0.0
  0
VERTEX
  5
24CD
  8
0
 10
123.47961648058219
 20
78.740065757502094
 30
0.0
  0
VERTEX
  5
24CE
  8
0
 10
123.4064701285604
 20
78.678731701689955
 30
0.0
  0
VERTEX
  5
24CF
  8
0
 10
123.3346967505026
 20
78.616859751126739
 30
0.0
  0
VERTEX
  5
24D0
  8
0
 10
123.29932510108389
 20
78.585722942032703
 30
0.0
  0
VERTEX
  5
24D1
  8
0
 10
123.2642969112467
 20
78.554452712414104
 30
0.0
  0
VERTEX
  5
24D2
  8
0
 10
123.1952712317659
 20
78.491513400337666
 30
0.0
  0
VERTEX
  5
24D3
  8
0
 10
123.1276203939231
 20
78.42804463585604
 30
0.0
  0
VERTEX
  5
24D4
  8
0
 10
123.0613451454706
 20
78.364049244215437
 30
0.0
  0
VERTEX
  5
24D5
  8
0
 10
122.9964463052975
 20
78.299530053219314
 30
0.0
  0
VERTEX
  5
24D6
  8
0
 10
122.9329247689238
 20
78.234489891685072
 30
0.0
  0
VERTEX
  5
24D7
  8
0
 10
122.90168079187291
 20
78.201775330918096
 30
0.0
  0
VERTEX
  5
24D8
  8
0
 10
122.8707815142394
 20
78.168931588120785
 30
0.0
  0
VERTEX
  5
24D9
  8
0
 10
122.81001760748219
 20
78.102857969658004
 30
0.0
  0
VERTEX
  5
24DA
  8
0
 10
122.750634209447
 20
78.036271861276774
 30
0.0
  0
VERTEX
  5
24DB
  8
0
 10
122.6926325819133
 20
77.969176085361681
 30
0.0
  0
VERTEX
  5
24DC
  8
0
 10
122.63601409427611
 20
77.901573461627976
 30
0.0
  0
VERTEX
  5
24DD
  8
0
 10
122.5807802303615
 20
77.833466807458251
 30
0.0
  0
VERTEX
  5
24DE
  8
0
 10
122.5536830289989
 20
77.799225348938066
 30
0.0
  0
VERTEX
  5
24DF
  8
0
 10
122.5269325954006
 20
77.76485893869021
 30
0.0
  0
VERTEX
  5
24E0
  8
0
 10
122.4744729231365
 20
77.695752670895956
 30
0.0
  0
VERTEX
  5
24E1
  8
0
 10
122.4234030830284
 20
77.626150821193093
 30
0.0
  0
VERTEX
  5
24E2
  8
0
 10
122.39838997313581
 20
77.591164934471621
 30
0.0
  0
VERTEX
  5
24E3
  8
0
 10
122.37372508751569
 20
77.556056210626366
 30
0.0
  0
VERTEX
  5
24E4
  8
0
 10
122.32544109929989
 20
77.48547166715656
 30
0.0
  0
VERTEX
  5
24E5
  8
0
 10
122.27855343859299
 20
77.414400029291841
 30
0.0
  0
VERTEX
  5
24E6
  8
0
 10
122.2556340009567
 20
77.378682440924166
 30
0.0
  0
VERTEX
  5
24E7
  8
0
 10
122.2330604891073
 20
77.342837576108991
 30
0.0
  0
VERTEX
  5
24E8
  8
0
 10
122.18886522068949
 20
77.270620327892047
 30
0.0
  0
VERTEX
  5
24E9
  8
0
 10
122.1459403465597
 20
77.197677944637334
 30
0.0
  0
VERTEX
  5
24EA
  8
0
 10
122.104305519796
 20
77.124012793851008
 30
0.0
  0
VERTEX
  5
24EB
  8
0
 10
122.0639803153426
 20
77.04962732976945
 30
0.0
  0
VERTEX
  5
24EC
  8
0
 10
122.0249842397957
 20
76.974524081032342
 30
0.0
  0
VERTEX
  5
24ED
  8
0
 10
122.0059907052776
 20
76.936704094924224
 30
0.0
  0
VERTEX
  5
24EE
  8
0
 10
121.9873367428989
 20
76.898705638347678
 30
0.0
  0
VERTEX
  5
24EF
  8
0
 10
121.9510572308037
 20
76.82217464233014
 30
0.0
  0
VERTEX
  5
24F0
  8
0
 10
121.91616508114009
 20
76.74493377171575
 30
0.0
  0
VERTEX
  5
24F1
  8
0
 10
121.8826796599144
 20
76.666985732176073
 30
0.0
  0
VERTEX
  5
24F2
  8
0
 10
121.85062034023559
 20
76.588333245974283
 30
0.0
  0
VERTEX
  5
24F3
  8
0
 10
121.82000652283691
 20
76.50897904272243
 30
0.0
  0
VERTEX
  5
24F4
  8
0
 10
121.80524775321911
 20
76.469039650246685
 30
0.0
  0
VERTEX
  5
24F5
  8
0
 10
121.79085765833641
 20
76.428925851512361
 30
0.0
  0
VERTEX
  5
24F6
  8
0
 10
121.76319327114101
 20
76.348176394703501
 30
0.0
  0
VERTEX
  5
24F7
  8
0
 10
121.737032984866
 20
76.266733383654795
 30
0.0
  0
VERTEX
  5
24F8
  8
0
 10
121.7123965491044
 20
76.184599516688792
 30
0.0
  0
VERTEX
  5
24F9
  8
0
 10
121.68930386733869
 20
76.101777479568199
 30
0.0
  0
VERTEX
  5
24FA
  8
0
 10
121.667775025754
 20
76.018269948752433
 30
0.0
  0
VERTEX
  5
24FB
  8
0
 10
121.65760337915459
 20
75.976259958538861
 30
0.0
  0
VERTEX
  5
24FC
  8
0
 10
121.64783032266629
 20
75.934079597679613
 30
0.0
  0
VERTEX
  5
24FD
  8
0
 10
121.6294902982502
 20
75.849209106291184
 30
0.0
  0
VERTEX
  5
24FE
  8
0
 10
121.6127757642102
 20
75.763661173978335
 30
0.0
  0
VERTEX
  5
24FF
  8
0
 10
121.5977078330199
 20
75.677438536084964
 30
0.0
  0
VERTEX
  5
2500
  8
0
 10
121.5843317517654
 20
75.590709309306092
 30
0.0
  0
VERTEX
  5
2501
  8
0
 10
121.5726915564284
 20
75.503738012254871
 30
0.0
  0
VERTEX
  5
2502
  8
0
 10
121.5675215918109
 20
75.460165743493064
 30
0.0
  0
VERTEX
  5
2503
  8
0
 10
121.5627845242998
 20
75.416537350514133
 30
0.0
  0
VERTEX
  5
2504
  8
0
 10
121.5546075450486
 20
75.329117078169332
 30
0.0
  0
VERTEX
  5
2505
  8
0
 10
121.5481576117491
 20
75.241486999690665
 30
0.0
  0
VERTEX
  5
2506
  8
0
 10
121.5434318183048
 20
75.15365697223892
 30
0.0
  0
VERTEX
  5
2507
  8
0
 10
121.540427356647
 20
75.065636907779265
 30
0.0
  0
VERTEX
  5
2508
  8
0
 10
121.53914151373949
 20
74.977436774968211
 30
0.0
  0
VERTEX
  5
2509
  8
0
 10
121.53914225170389
 20
74.933272314044032
 30
0.0
  0
VERTEX
  5
250A
  8
0
 10
121.5395716684193
 20
74.889066600781689
 30
0.0
  0
VERTEX
  5
250B
  8
0
 10
121.5417152881124
 20
74.800536471857185
 30
0.0
  0
VERTEX
  5
250C
  8
0
 10
121.5455699254597
 20
74.711856535527716
 30
0.0
  0
VERTEX
  5
250D
  8
0
 10
121.548138133413
 20
74.667463577405343
 30
0.0
  0
VERTEX
  5
250E
  8
0
 10
121.5511332148948
 20
74.623037000530275
 30
0.0
  0
VERTEX
  5
250F
  8
0
 10
121.5584028692145
 20
74.534088137377552
 30
0.0
  0
VERTEX
  5
2510
  8
0
 10
121.5673766761813
 20
74.445020278387062
 30
0.0
  0
VERTEX
  5
2511
  8
0
 10
121.5725019652614
 20
74.400444971131392
 30
0.0
  0
VERTEX
  5
2512
  8
0
 10
121.5780524951993
 20
74.3558438173675
 30
0.0
  0
VERTEX
  5
2513
  8
0
 10
121.5904282541016
 20
74.266569208968235
 30
0.0
  0
VERTEX
  5
2514
  8
0
 10
121.6045019460846
 20
74.177206967702546
 30
0.0
  0
VERTEX
  5
2515
  8
0
 10
121.6202716268248
 20
74.087767666660724
 30
0.0
  0
VERTEX
  5
2516
  8
0
 10
121.6377354118048
 20
73.998261935933172
 30
0.0
  0
VERTEX
  5
2517
  8
0
 10
121.6568914738784
 20
73.908700460767975
 30
0.0
  0
VERTEX
  5
2518
  8
0
 10
121.6670983563628
 20
73.863924510070007
 30
0.0
  0
VERTEX
  5
2519
  8
0
 10
121.6777040046955
 20
73.819234622009745
 30
0.0
  0
VERTEX
  5
251A
  8
0
 10
121.7000957913291
 20
73.730134538754669
 30
0.0
  0
VERTEX
  5
251B
  8
0
 10
121.72404196371031
 20
73.641414040258638
 30
0.0
  0
VERTEX
  5
251C
  8
0
 10
121.7495193070291
 20
73.553081103111509
 30
0.0
  0
VERTEX
  5
251D
  8
0
 10
121.7765049258598
 20
73.465143705031764
 30
0.0
  0
VERTEX
  5
251E
  8
0
 10
121.804976209941
 20
73.377609843560563
 30
0.0
  0
VERTEX
  5
251F
  8
0
 10
121.8197619803265
 20
73.333996747444502
 30
0.0
  0
VERTEX
  5
2520
  8
0
 10
121.83491080011341
 20
73.290487550947603
 30
0.0
  0
VERTEX
  5
2521
  8
0
 10
121.86628655479051
 20
73.203784905359342
 30
0.0
  0
VERTEX
  5
2522
  8
0
 10
121.89908151729951
 20
73.117510038587511
 30
0.0
  0
VERTEX
  5
2523
  8
0
 10
121.9332738843792
 20
73.03167114047379
 30
0.0
  0
VERTEX
  5
2524
  8
0
 10
121.9688419760823
 20
72.946276460295891
 30
0.0
  0
VERTEX
  5
2525
  8
0
 10
122.00576420727459
 20
72.861334305381746
 30
0.0
  0
VERTEX
  5
2526
  8
0
 10
122.024726399131
 20
72.819035535903765
 30
0.0
  0
VERTEX
  5
2527
  8
0
 10
122.0440190608918
 20
72.776853037231376
 30
0.0
  0
VERTEX
  5
2528
  8
0
 10
122.0835850630627
 20
72.692841065433299
 30
0.0
  0
VERTEX
  5
2529
  8
0
 10
122.12444076017709
 20
72.609306839661997
 30
0.0
  0
VERTEX
  5
252A
  8
0
 10
122.16656469793941
 20
72.526258840037968
 30
0.0
  0
VERTEX
  5
252B
  8
0
 10
122.2099354024175
 20
72.443705566123271
 30
0.0
  0
VERTEX
  5
252C
  8
0
 10
122.2545313630732
 20
72.361655524810814
 30
0.0
  0
VERTEX
  5
252D
  8
0
 10
122.2772820786774
 20
72.32082187361047
 30
0.0
  0
VERTEX
  5
252E
  8
0
 10
122.3003310177332
 20
72.280117217351659
 30
0.0
  0
VERTEX
  5
252F
  8
0
 10
122.3473127394461
 20
72.199099125745221
 30
0.0
  0
VERTEX
  5
2530
  8
0
 10
122.3954548251503
 20
72.118609698699075
 30
0.0
  0
VERTEX
  5
2531
  8
0
 10
122.4447354860709
 20
72.038657337343977
 30
0.0
  0
VERTEX
  5
2532
  8
0
 10
122.49513283975109
 20
71.959250380871083
 30
0.0
  0
VERTEX
  5
2533
  8
0
 10
122.54662490368671
 20
71.880397092136207
 30
0.0
  0
VERTEX
  5
2534
  8
0
 10
122.5727999547816
 20
71.841142798803986
 30
0.0
  0
VERTEX
  5
2535
  8
0
 10
122.59929255695199
 20
71.801954363748678
 30
0.0
  0
VERTEX
  5
2536
  8
0
 10
122.65322850841321
 20
71.723777938095893
 30
0.0
  0
VERTEX
  5
2537
  8
0
 10
122.7084290193369
 20
71.64587358123886
 30
0.0
  0
VERTEX
  5
2538
  8
0
 10
122.7365023471913
 20
71.607025242579326
 30
0.0
  0
VERTEX
  5
2539
  8
0
 10
122.7648904634552
 20
71.568247103587083
 30
0.0
  0
VERTEX
  5
253A
  8
0
 10
122.8226093198579
 20
71.490904361608045
 30
0.0
  0
VERTEX
  5
253B
  8
0
 10
122.8815821661407
 20
71.413851259069276
 30
0.0
  0
VERTEX
  5
253C
  8
0
 10
122.911537791295
 20
71.375435180659494
 30
0.0
  0
VERTEX
  5
253D
  8
0
 10
122.9418056718221
 20
71.337093747852578
 30
0.0
  0
VERTEX
  5
253E
  8
0
 10
123.0032765920448
 20
71.260637828378208
 30
0.0
  0
VERTEX
  5
253F
  8
0
 10
123.0659917615674
 20
71.184489549677338
 30
0.0
  0
VERTEX
  5
2540
  8
0
 10
123.1299480890513
 20
71.1086550091497
 30
0.0
  0
VERTEX
  5
2541
  8
0
 10
123.1951425516465
 20
71.033140352042437
 30
0.0
  0
VERTEX
  5
2542
  8
0
 10
123.2615721898726
 20
70.957951770684161
 30
0.0
  0
VERTEX
  5
2543
  8
0
 10
123.2952492911441
 20
70.920481706150696
 30
0.0
  0
VERTEX
  5
2544
  8
0
 10
123.3292341027943
 20
70.883095503507434
 30
0.0
  0
VERTEX
  5
2545
  8
0
 10
123.3981254434846
 20
70.808577833890453
 30
0.0
  0
VERTEX
  5
2546
  8
0
 10
123.4682434147683
 20
70.734405088847581
 30
0.0
  0
VERTEX
  5
2547
  8
0
 10
123.7232766768421
 20
70.477609080402772
 30
0.0
  0
VERTEX
  5
2548
  8
0
 10
124.1950314305988
 20
70.048200357204493
 30
0.0
  0
VERTEX
  5
2549
  8
0
 10
124.70996671780389
 20
69.63368368377661
 30
0.0
  0
VERTEX
  5
254A
  8
0
 10
125.2658597554356
 20
69.236664234125826
 30
0.0
  0
VERTEX
  5
254B
  8
0
 10
125.5540379383099
 20
69.048210066236663
 30
0.0
  0
VERTEX
  5
254C
  8
0
 10
125.8475477781449
 20
68.867020326568195
 30
0.0
  0
VERTEX
  5
254D
  8
0
 10
126.4489741309909
 20
68.526020711062557
 30
0.0
  0
VERTEX
  5
254E
  8
0
 10
127.0669918116061
 20
68.212901755904312
 30
0.0
  0
VERTEX
  5
254F
  8
0
 10
127.69846009039399
 20
67.926964675839812
 30
0.0
  0
VERTEX
  5
2550
  8
0
 10
128.34021060028289
 20
67.667527466261348
 30
0.0
  0
VERTEX
  5
2551
  8
0
 10
128.9936592032542
 20
67.432317347987265
 30
0.0
  0
VERTEX
  5
2552
  8
0
 10
129.32833357148269
 20
67.32227717437776
 30
0.0
  0
VERTEX
  5
2553
  8
0
 10
129.66832718944599
 20
67.217298236548231
 30
0.0
  0
VERTEX
  5
2554
  8
0
 10
130.36380056607871
 20
67.022783552667789
 30
0.0
  0
VERTEX
  5
2555
  8
0
 10
131.07913997166929
 20
66.849301409594233
 30
0.0
  0
VERTEX
  5
2556
  8
0
 10
131.81341131598961
 20
66.697402315078278
 30
0.0
  0
VERTEX
  5
2557
  8
0
 10
132.5656843869597
 20
66.567671623583351
 30
0.0
  0
VERTEX
  5
2558
  8
0
 10
133.33503112048419
 20
66.460743896669413
 30
0.0
  0
VERTEX
  5
2559
  8
0
 10
133.7258171247413
 20
66.41604689770449
 30
0.0
  0
VERTEX
  5
255A
  8
0
 10
134.1203511991433
 20
66.377334826576202
 30
0.0
  0
VERTEX
  5
255B
  8
0
 10
134.91326281713739
 20
66.318644263936463
 30
0.0
  0
VERTEX
  5
255C
  8
0
 10
135.70847861791671
 20
66.284948874735591
 30
0.0
  0
VERTEX
  5
255D
  8
0
 10
136.1064940044443
 20
66.277432616978288
 30
0.0
  0
VERTEX
  5
255E
  8
0
 10
136.50453752481209
 20
66.276123200078942
 30
0.0
  0
VERTEX
  5
255F
  8
0
 10
137.2999783285691
 20
66.29210645244774
 30
0.0
  0
VERTEX
  5
2560
  8
0
 10
138.09413072202989
 20
66.332954296351417
 30
0.0
  0
VERTEX
  5
2561
  8
0
 10
138.490754502116
 20
66.362784591691806
 30
0.0
  0
VERTEX
  5
2562
  8
0
 10
138.8868263165445
 20
66.398936587164542
 30
0.0
  0
VERTEX
  5
2563
  8
0
 10
139.67654091165511
 20
66.490381688255553
 30
0.0
  0
VERTEX
  5
2564
  8
0
 10
140.4617280371732
 20
66.607686372182599
 30
0.0
  0
VERTEX
  5
2565
  8
0
 10
141.24204945373339
 20
66.751570890884523
 30
0.0
  0
VERTEX
  5
2566
  8
0
 10
142.01713654923319
 20
66.923023061528284
 30
0.0
  0
VERTEX
  5
2567
  8
0
 10
142.78470720039309
 20
67.122812518885382
 30
0.0
  0
VERTEX
  5
2568
  8
0
 10
143.16496063182041
 20
67.233589098300769
 30
0.0
  0
VERTEX
  5
2569
  8
0
 10
143.5424797996001
 20
67.351766266389404
 30
0.0
  0
VERTEX
  5
256A
  8
0
 10
144.28817259943639
 20
67.610799597150162
 30
0.0
  0
VERTEX
  5
256B
  8
0
 10
145.01802234507409
 20
67.900335387005043
 30
0.0
  0
VERTEX
  5
256C
  8
0
 10
145.71620855518751
 20
68.214877543594795
 30
0.0
  0
VERTEX
  5
256D
  8
0
 10
146.37848862204231
 20
68.552060069752599
 30
0.0
  0
VERTEX
  5
256E
  8
0
 10
147.0042350336501
 20
68.910943835402193
 30
0.0
  0
VERTEX
  5
256F
  8
0
 10
147.3032019041936
 20
69.09825198111642
 30
0.0
  0
VERTEX
  5
2570
  8
0
 10
147.59278056689391
 20
69.29066979648573
 30
0.0
  0
VERTEX
  5
2571
  8
0
 10
148.1433754096613
 20
69.690453504458233
 30
0.0
  0
VERTEX
  5
2572
  8
0
 10
148.652615741342
 20
70.107379281813735
 30
0.0
  0
VERTEX
  5
2573
  8
0
 10
149.11806434711389
 20
70.538532786812965
 30
0.0
  0
VERTEX
  5
2574
  8
0
 10
149.3692026225842
 20
70.796035396450151
 30
0.0
  0
VERTEX
  5
2575
  8
0
 10
149.43818427679841
 20
70.870367910859102
 30
0.0
  0
VERTEX
  5
2576
  8
0
 10
149.505930183674
 20
70.9450266884987
 30
0.0
  0
VERTEX
  5
2577
  8
0
 10
149.5393390787161
 20
70.982476461358914
 30
0.0
  0
VERTEX
  5
2578
  8
0
 10
149.57243824581329
 20
71.020005448903575
 30
0.0
  0
VERTEX
  5
2579
  8
0
 10
149.63770630574291
 20
71.095297963649386
 30
0.0
  0
VERTEX
  5
257A
  8
0
 10
149.70173214122161
 20
71.170898056886585
 30
0.0
  0
VERTEX
  5
257B
  8
0
 10
149.764513460297
 20
71.246799605666752
 30
0.0
  0
VERTEX
  5
257C
  8
0
 10
149.82604789610889
 20
71.322996540032193
 30
0.0
  0
VERTEX
  5
257D
  8
0
 10
149.8863330014413
 20
71.39948284283858
 30
0.0
  0
VERTEX
  5
257E
  8
0
 10
149.91600626705289
 20
71.437832641380268
 30
0.0
  0
VERTEX
  5
257F
  8
0
 10
149.94536624302361
 20
71.476252549279323
 30
0.0
  0
VERTEX
  5
2580
  8
0
 10
150.0031449955913
 20
71.553299746079347
 30
0.0
  0
VERTEX
  5
2581
  8
0
 10
150.05966653571031
 20
71.630618570325353
 30
0.0
  0
VERTEX
  5
2582
  8
0
 10
150.08745497161539
 20
71.669378023974133
 30
0.0
  0
VERTEX
  5
2583
  8
0
 10
150.11492803538101
 20
71.70820320789926
 30
0.0
  0
VERTEX
  5
2584
  8
0
 10
150.1689265554366
 20
71.786047891481914
 30
0.0
  0
VERTEX
  5
2585
  8
0
 10
150.22165903875469
 20
71.864146898093807
 30
0.0
  0
VERTEX
  5
2586
  8
0
 10
150.24754952732579
 20
71.90328999551248
 30
0.0
  0
VERTEX
  5
2587
  8
0
 10
150.27312832049279
 20
71.942503835781395
 30
0.0
  0
VERTEX
  5
2588
  8
0
 10
150.32346456643381
 20
72.021325894213419
 30
0.0
  0
VERTEX
  5
2589
  8
0
 10
150.37270535231841
 20
72.10069431032332
 30
0.0
  0
VERTEX
  5
258A
  8
0
 10
150.4208288650137
 20
72.18060092271358
 30
0.0
  0
VERTEX
  5
258B
  8
0
 10
150.4678133837217
 20
72.261037505381125
 30
0.0
  0
VERTEX
  5
258C
  8
0
 10
150.5136372724092
 20
72.34199578165277
 30
0.0
  0
VERTEX
  5
258D
  8
0
 10
150.53610724019609
 20
72.382667957994315
 30
0.0
  0
VERTEX
  5
258E
  8
0
 10
150.55827897066311
 20
72.423467438066368
 30
0.0
  0
VERTEX
  5
258F
  8
0
 10
150.6017169828813
 20
72.505444138040147
 30
0.0
  0
VERTEX
  5
2590
  8
0
 10
150.64392986571499
 20
72.587917535153892
 30
0.0
  0
VERTEX
  5
2591
  8
0
 10
150.68489621369221
 20
72.670879285845899
 30
0.0
  0
VERTEX
  5
2592
  8
0
 10
150.72459464296111
 20
72.754321061310861
 30
0.0
  0
VERTEX
  5
2593
  8
0
 10
150.76300377311651
 20
72.838234558366779
 30
0.0
  0
VERTEX
  5
2594
  8
0
 10
150.78171816568229
 20
72.880365617143255
 30
0.0
  0
VERTEX
  5
2595
  8
0
 10
150.8001022070859
 20
72.922611509042838
 30
0.0
  0
VERTEX
  5
2596
  8
0
 10
150.83586850908191
 20
73.007443688627319
 30
0.0
  0
VERTEX
  5
2597
  8
0
 10
150.8702811806555
 20
73.092722921904453
 30
0.0
  0
VERTEX
  5
2598
  8
0
 10
150.9033186349144
 20
73.178441087303526
 30
0.0
  0
VERTEX
  5
2599
  8
0
 10
150.93495916900881
 20
73.264590118682477
 30
0.0
  0
VERTEX
  5
259A
  8
0
 10
150.96518093502749
 20
73.351162004473281
 30
0.0
  0
VERTEX
  5
259B
  8
0
 10
150.9797529053867
 20
73.394604028220172
 30
0.0
  0
VERTEX
  5
259C
  8
0
 10
150.99396190948281
 20
73.438148783927303
 30
0.0
  0
VERTEX
  5
259D
  8
0
 10
151.02127986161341
 20
73.525542540218225
 30
0.0
  0
VERTEX
  5
259E
  8
0
 10
151.0471123207725
 20
73.61333539018554
 30
0.0
  0
VERTEX
  5
259F
  8
0
 10
151.07143654321681
 20
73.701519470537562
 30
0.0
  0
VERTEX
  5
25A0
  8
0
 10
151.0942294786517
 20
73.790086920374804
 30
0.0
  0
VERTEX
  5
25A1
  8
0
 10
151.11545179897911
 20
73.878960409434953
 30
0.0
  0
VERTEX
  5
25A2
  8
0
 10
151.125445046576
 20
73.923406178775963
 30
0.0
  0
VERTEX
  5
25A3
  8
0
 10
151.1350233247897
 20
73.967845975623419
 30
0.0
  0
VERTEX
  5
25A4
  8
0
 10
151.15293347320809
 20
74.056702334309605
 30
0.0
  0
VERTEX
  5
25A5
  8
0
 10
151.16917921575759
 20
74.145518881887185
 30
0.0
  0
VERTEX
  5
25A6
  8
0
 10
151.18375747554731
 20
74.234285067041114
 30
0.0
  0
VERTEX
  5
25A7
  8
0
 10
151.19666512357921
 20
74.322990393291974
 30
0.0
  0
VERTEX
  5
25A8
  8
0
 10
151.20789897473179
 20
74.411624421147124
 30
0.0
  0
VERTEX
  5
25A9
  8
0
 10
151.21288721472831
 20
74.455911451850511
 30
0.0
  0
VERTEX
  5
25AA
  8
0
 10
151.21745578345909
 20
74.500176769823952
 30
0.0
  0
VERTEX
  5
25AB
  8
0
 10
151.22533223924631
 20
74.588637118516033
 30
0.0
  0
VERTEX
  5
25AC
  8
0
 10
151.23152496187251
 20
74.676995207179104
 30
0.0
  0
VERTEX
  5
25AD
  8
0
 10
151.23398884667179
 20
74.721132714432244
 30
0.0
  0
VERTEX
  5
25AE
  8
0
 10
151.23603049652971
 20
74.765240836820894
 30
0.0
  0
VERTEX
  5
25AF
  8
0
 10
151.2388453088553
 20
74.853363869286497
 30
0.0
  0
VERTEX
  5
25B0
  8
0
 10
151.23996577993421
 20
74.941354226538735
 30
0.0
  0
VERTEX
  5
25B1
  8
0
 10
151.23988948225141
 20
74.985296518722265
 30
0.0
  0
VERTEX
  5
25B2
  8
0
 10
151.23938820133111
 20
75.029201889441694
 30
0.0
  0
VERTEX
  5
25B3
  8
0
 10
151.23710877020881
 20
75.11689689606311
 30
0.0
  0
VERTEX
  5
25B4
  8
0
 10
151.23312358459449
 20
75.204429339520246
 30
0.0
  0
VERTEX
  5
25B5
  8
0
 10
151.2274286388454
 20
75.291789365400945
 30
0.0
  0
VERTEX
  5
25B6
  8
0
 10
151.22001981936879
 20
75.378967168799264
 30
0.0
  0
VERTEX
  5
25B7
  8
0
 10
151.21089290064319
 20
75.465952991011051
 30
0.0
  0
VERTEX
  5
25B8
  8
0
 10
151.20568380207879
 20
75.509370871331015
 30
0.0
  0
VERTEX
  5
25B9
  8
0
 10
151.20004354158331
 20
75.552737115940772
 30
0.0
  0
VERTEX
  5
25BA
  8
0
 10
151.18748154859639
 20
75.639218088478231
 30
0.0
  0
VERTEX
  5
25BB
  8
0
 10
151.1732627161596
 20
75.725075034321947
 30
0.0
  0
VERTEX
  5
25BC
  8
0
 10
151.1574111381847
 20
75.810278621284382
 30
0.0
  0
VERTEX
  5
25BD
  8
0
 10
151.139947030836
 20
75.894825930381018
 30
0.0
  0
VERTEX
  5
25BE
  8
0
 10
151.12089032060629
 20
75.978714079020676
 30
0.0
  0
VERTEX
  5
25BF
  8
0
 10
151.11077089402241
 20
76.020410073324015
 30
0.0
  0
VERTEX
  5
25C0
  8
0
 10
151.10026067195099
 20
76.061940205087453
 30
0.0
  0
VERTEX
  5
25C1
  8
0
 10
151.07807751539161
 20
76.144501454382038
 30
0.0
  0
VERTEX
  5
25C2
  8
0
 10
151.05436007573141
 20
76.226394971305851
 30
0.0
  0
VERTEX
  5
25C3
  8
0
 10
151.02912740004851
 20
76.30761789262931
 30
0.0
  0
VERTEX
  5
25C4
  8
0
 10
151.0023983851604
 20
76.388167344148073
 30
0.0
  0
VERTEX
  5
25C5
  8
0
 10
150.97419180428909
 20
76.468040440003321
 30
0.0
  0
VERTEX
  5
25C6
  8
0
 10
150.95954026577749
 20
76.507722449921815
 30
0.0
  0
VERTEX
  5
25C7
  8
0
 10
150.94452633268941
 20
76.547234284420071
 30
0.0
  0
VERTEX
  5
25C8
  8
0
 10
150.91342057204031
 20
76.625745975603365
 30
0.0
  0
VERTEX
  5
25C9
  8
0
 10
150.8808930734329
 20
76.703572611523953
 30
0.0
  0
VERTEX
  5
25CA
  8
0
 10
150.84696235882819
 20
76.780711297323748
 30
0.0
  0
VERTEX
  5
25CB
  8
0
 10
150.81164694088679
 20
76.857159154073983
 30
0.0
  0
VERTEX
  5
25CC
  8
0
 10
150.7749653411075
 20
76.932913328628004
 30
0.0
  0
VERTEX
  5
25CD
  8
0
 10
150.75611801748821
 20
76.97052940314245
 30
0.0
  0
VERTEX
  5
25CE
  8
0
 10
150.73693610623951
 20
77.007971004321078
 30
0.0
  0
VERTEX
  5
25CF
  8
0
 10
150.69757782296011
 20
77.082329412286015
 30
0.0
  0
VERTEX
  5
25D0
  8
0
 10
150.65690913082921
 20
77.155985843168864
 30
0.0
  0
VERTEX
  5
25D1
  8
0
 10
150.61494873355861
 20
77.228937659049365
 30
0.0
  0
VERTEX
  5
25D2
  8
0
 10
150.5717154086424
 20
77.30118230538902
 30
0.0
  0
VERTEX
  5
25D3
  8
0
 10
150.52722540119171
 20
77.372721448020712
 30
0.0
  0
VERTEX
  5
25D4
  8
0
 10
150.50448480183709
 20
77.408272439725366
 30
0.0
  0
VERTEX
  5
25D5
  8
0
 10
150.48139900800319
 20
77.443702312033537
 30
0.0
  0
VERTEX
  5
25D6
  8
0
 10
150.43419326780111
 20
77.514197307472742
 30
0.0
  0
VERTEX
  5
25D7
  8
0
 10
150.38561094539119
 20
77.584203662146535
 30
0.0
  0
VERTEX
  5
25D8
  8
0
 10
150.36080438857221
 20
77.619022736545588
 30
0.0
  0
VERTEX
  5
25D9
  8
0
 10
150.33565465528801
 20
77.653718616903831
 30
0.0
  0
VERTEX
  5
25DA
  8
0
 10
150.28432686876619
 20
77.722739422377003
 30
0.0
  0
VERTEX
  5
25DB
  8
0
 10
150.23162992091571
 20
77.791263336333216
 30
0.0
  0
VERTEX
  5
25DC
  8
0
 10
150.20476870569769
 20
77.825338103473882
 30
0.0
  0
VERTEX
  5
25DD
  8
0
 10
150.17756601765649
 20
77.859287621599805
 30
0.0
  0
VERTEX
  5
25DE
  8
0
 10
150.1221372426709
 20
77.926809544526648
 30
0.0
  0
VERTEX
  5
25DF
  8
0
 10
150.0653455642217
 20
77.993826373947115
 30
0.0
  0
VERTEX
  5
25E0
  8
0
 10
150.00719284182219
 20
78.060335380598033
 30
0.0
  0
VERTEX
  5
25E1
  8
0
 10
149.9476808327351
 20
78.126333836959176
 30
0.0
  0
VERTEX
  5
25E2
  8
0
 10
149.8868111982776
 20
78.191819017472284
 30
0.0
  0
VERTEX
  5
25E3
  8
0
 10
149.8558677659658
 20
78.224368278216787
 30
0.0
  0
VERTEX
  5
25E4
  8
0
 10
149.82458550991561
 20
78.256788199101067
 30
0.0
  0
VERTEX
  5
25E5
  8
0
 10
149.76100525513391
 20
78.321238662193622
 30
0.0
  0
VERTEX
  5
25E6
  8
0
 10
149.69607184307259
 20
78.385167691610874
 30
0.0
  0
VERTEX
  5
25E7
  8
0
 10
149.62978660992201
 20
78.448572578085219
 30
0.0
  0
VERTEX
  5
25E8
  8
0
 10
149.56215082407419
 20
78.511450619776099
 30
0.0
  0
VERTEX
  5
25E9
  8
0
 10
149.49316569102811
 20
78.573799123990256
 30
0.0
  0
VERTEX
  5
25EA
  8
0
 10
149.45816747997841
 20
78.604773961032365
 30
0.0
  0
VERTEX
  5
25EB
  8
0
 10
149.4228323580495
 20
78.635615409036845
 30
0.0
  0
VERTEX
  5
25EC
  8
0
 10
149.35115191859069
 20
78.696896806189244
 30
0.0
  0
VERTEX
  5
25ED
  8
0
 10
149.2781254164716
 20
78.757640661727478
 30
0.0
  0
VERTEX
  5
25EE
  8
0
 10
149.24110770551391
 20
78.787810186722851
 30
0.0
  0
VERTEX
  5
25EF
  8
0
 10
149.20375384983129
 20
78.817844339036924
 30
0.0
  0
VERTEX
  5
25F0
  8
0
 10
149.1280381748557
 20
78.877505220741469
 30
0.0
  0
VERTEX
  5
25F1
  8
0
 10
149.0509793092898
 20
78.93662071085015
 30
0.0
  0
VERTEX
  5
25F2
  8
0
 10
149.01194645713781
 20
78.965973129183908
 30
0.0
  0
VERTEX
  5
25F3
  8
0
 10
148.97257813574549
 20
78.995188236899224
 30
0.0
  0
VERTEX
  5
25F4
  8
0
 10
148.8928355048111
 20
79.053205252072317
 30
0.0
  0
VERTEX
  5
25F5
  8
0
 10
148.8117522379772
 20
79.11066923728373
 30
0.0
  0
VERTEX
  5
25F6
  8
0
 10
148.51752838910579
 20
79.307329702360221
 30
0.0
  0
VERTEX
  5
25F7
  8
0
 10
147.97858248889401
 20
79.626424616638062
 30
0.0
  0
VERTEX
  5
25F8
  8
0
 10
147.69320387488909
 20
79.777359642478075
 30
0.0
  0
VERTEX
  5
25F9
  8
0
 10
147.39733030690829
 20
79.922621853084621
 30
0.0
  0
VERTEX
  5
25FA
  8
0
 10
146.7743826524254
 20
80.196309682024889
 30
0.0
  0
VERTEX
  5
25FB
  8
0
 10
146.11026169619461
 20
80.447818180524706
 30
0.0
  0
VERTEX
  5
25FC
  8
0
 10
145.40544143069809
 20
80.677431558336195
 30
0.0
  0
VERTEX
  5
25FD
  8
0
 10
144.67161208273581
 20
80.882495666352455
 30
0.0
  0
VERTEX
  5
25FE
  8
0
 10
143.92153887928259
 20
81.061809784204087
 30
0.0
  0
VERTEX
  5
25FF
  8
0
 10
143.54121172825759
 20
81.142460597711491
 30
0.0
  0
VERTEX
  5
2600
  8
0
 10
143.15777927011189
 20
81.217419776335817
 30
0.0
  0
VERTEX
  5
2601
  8
0
 10
142.3828606318325
 20
81.351111872799137
 30
0.0
  0
VERTEX
  5
2602
  8
0
 10
141.59931422678579
 20
81.464453264670638
 30
0.0
  0
VERTEX
  5
2603
  8
0
 10
140.80968753617759
 20
81.558823302923983
 30
0.0
  0
VERTEX
  5
2604
  8
0
 10
140.0147958866109
 20
81.635586866359034
 30
0.0
  0
VERTEX
  5
2605
  8
0
 10
139.21416890353601
 20
81.695904114653828
 30
0.0
  0
VERTEX
  5
2606
  8
0
 10
138.81219389845691
 20
81.720124885226824
 30
0.0
  0
VERTEX
  5
2607
  8
0
 10
138.40937475955391
 20
81.740487905415009
 30
0.0
  0
VERTEX
  5
2608
  8
0
 10
137.60199476911561
 20
81.769881524478293
 30
0.0
  0
VERTEX
  5
2609
  8
0
 10
136.79361123968579
 20
81.784466908521239
 30
0.0
  0
VERTEX
  5
260A
  8
0
 10
136.389537925692
 20
81.786283083528744
 30
0.0
  0
SEQEND
  5
260B
  8
0
  0
POLYLINE
  5
1D99
  8
0
 66
     1
 10
0.0
 20
0.0
 30
0.0
  0
VERTEX
  5
260C
  8
0
 10
136.86320582278029
 20
57.684584629528459
 30
0.0
  0
VERTEX
  5
260D
  8
0
 10
136.96426918907451
 20
57.68603401423691
 30
0.0
  0
VERTEX
  5
260E
  8
0
 10
138.11277818978871
 20
57.722133700680132
 30
0.0
  0
VERTEX
  5
260F
  8
0
 10
139.2564314356276
 20
57.793918383635457
 30
0.0
  0
VERTEX
  5
2610
  8
0
 10
139.8253145841519
 20
57.842933828422822
 30
0.0
  0
VERTEX
  5
2611
  8
0
 10
140.3914379440499
 20
57.900480576159012
 30
0.0
  0
VERTEX
  5
2612
  8
0
 10
141.51273120026809
 20
58.040251607463361
 30
0.0
  0
VERTEX
  5
2613
  8
0
 10
142.61497835907039
 20
58.210994781657718
 30
0.0
  0
VERTEX
  5
2614
  8
0
 10
143.69284633615391
 20
58.409845945413387
 30
0.0
  0
VERTEX
  5
2615
  8
0
 10
144.744884028972
 20
58.63423339258712
 30
0.0
  0
VERTEX
  5
2616
  8
0
 10
145.34565147556091
 20
58.77575204735134
 30
0.0
  0
VERTEX
  5
2617
  8
0
 10
145.51513148236501
 20
58.81743000489525
 30
0.0
  0
VERTEX
  5
2618
  8
0
 10
145.68355048270081
 20
58.859610876704231
 30
0.0
  0
VERTEX
  5
2619
  8
0
 10
145.7673455482454
 20
58.880880987385389
 30
0.0
  0
VERTEX
  5
261A
  8
0
 10
145.85085550787099
 20
58.902266021969268
 30
0.0
  0
VERTEX
  5
261B
  8
0
 10
146.0169936949637
 20
58.945365979972792
 30
0.0
  0
VERTEX
  5
261C
  8
0
 10
146.18191225378911
 20
58.988880482162273
 30
0.0
  0
VERTEX
  5
261D
  8
0
 10
146.26389768549859
 20
59.010783509934932
 30
0.0
  0
VERTEX
  5
261E
  8
0
 10
146.34555842526009
 20
59.032778461761389
 30
0.0
  0
VERTEX
  5
261F
  8
0
 10
146.50787943038441
 20
59.077028060446949
 30
0.0
  0
VERTEX
  5
2620
  8
0
 10
146.66882240895669
 20
59.121596631579123
 30
0.0
  0
VERTEX
  5
2621
  8
0
 10
146.74876057964519
 20
59.143990114084453
 30
0.0
  0
VERTEX
  5
2622
  8
0
 10
146.82833434694871
 20
59.166450739431539
 30
0.0
  0
VERTEX
  5
2623
  8
0
 10
146.9863619915123
 20
59.211556153825811
 30
0.0
  0
VERTEX
  5
2624
  8
0
 10
147.1428517524304
 20
59.256877839533587
 30
0.0
  0
VERTEX
  5
2625
  8
0
 10
147.29774958876919
 20
59.302379939769388
 30
0.0
  0
VERTEX
  5
2626
  8
0
 10
147.451000879421
 20
59.348025753061329
 30
0.0
  0
VERTEX
  5
2627
  8
0
 10
147.60201452543859
 20
59.39361488949848
 30
0.0
  0
VERTEX
  5
2628
  8
0
 10
147.67641559938991
 20
59.416298028341089
 30
0.0
  0
VERTEX
  5
2629
  8
0
 10
147.75007794289391
 20
59.438900464052082
 30
0.0
  0
VERTEX
  5
262A
  8
0
 10
147.8951843978995
 20
59.483845028913379
 30
0.0
  0
VERTEX
  5
262B
  8
0
 10
148.03732974567649
 20
59.52841260096497
 30
0.0
  0
VERTEX
  5
262C
  8
0
 10
148.1765097307491
 20
59.572567852428158
 30
0.0
  0
VERTEX
  5
262D
  8
0
 10
148.3127199733664
 20
59.616276106791169
 30
0.0
  0
VERTEX
  5
262E
  8
0
 10
148.44595595515099
 20
59.659503334233349
 30
0.0
  0
VERTEX
  5
262F
  8
0
 10
148.51145714459221
 20
59.680926104120111
 30
0.0
  0
VERTEX
  5
2630
  8
0
 10
148.57621300381169
 20
59.702216146497648
 30
0.0
  0
VERTEX
  5
2631
  8
0
 10
148.70348627674679
 20
59.744381791157053
 30
0.0
  0
VERTEX
  5
2632
  8
0
 10
148.82777074335399
 20
59.78596814521589
 30
0.0
  0
VERTEX
  5
2633
  8
0
 10
148.94906116585869
 20
59.826943707982529
 30
0.0
  0
VERTEX
  5
2634
  8
0
 10
149.0673520784635
 20
59.867277593146312
 30
0.0
  0
VERTEX
  5
2635
  8
0
 10
149.18263776462109
 20
59.906939519989741
 30
0.0
  0
VERTEX
  5
2636
  8
0
 10
149.2391517867382
 20
59.926509199536639
 30
0.0
  0
VERTEX
  5
2637
  8
0
 10
149.29491223222971
 20
59.945899803666123
 30
0.0
  0
VERTEX
  5
2638
  8
0
 10
149.40416918656001
 20
59.984129344475228
 30
0.0
  0
VERTEX
  5
2639
  8
0
 10
149.51040200072759
 20
60.021599616073459
 30
0.0
  0
VERTEX
  5
263A
  8
0
 10
149.61360368354369
 20
60.058282652562809
 30
0.0
  0
VERTEX
  5
263B
  8
0
 10
149.7137668446056
 20
60.094151034414963
 30
0.0
  0
VERTEX
  5
263C
  8
0
 10
149.81088365651269
 20
60.129177873201847
 30
0.0
  0
VERTEX
  5
263D
  8
0
 10
149.85829710601939
 20
60.146367452505999
 30
0.0
  0
VERTEX
  5
263E
  8
0
 10
149.9049458141499
 20
60.163336795125588
 30
0.0
  0
VERTEX
  5
263F
  8
0
 10
149.99595882794429
 20
60.196607181251409
 30
0.0
  0
VERTEX
  5
2640
  8
0
 10
150.0842957256117
 20
60.22910485389594
 30
0.0
  0
VERTEX
  5
2641
  8
0
 10
150.17006133433509
 20
60.260850132345283
 30
0.0
  0
VERTEX
  5
2642
  8
0
 10
150.253171032382
 20
60.291794087074528
 30
0.0
  0
VERTEX
  5
2643
  8
0
 10
150.33354081661929
 20
60.32188786030904
 30
0.0
  0
VERTEX
  5
2644
  8
0
 10
150.37267215016439
 20
60.33660069303923
 30
0.0
  0
VERTEX
  5
2645
  8
0
 10
150.4110872640363
 20
60.351082716672579
 30
0.0
  0
VERTEX
  5
2646
  8
0
 10
150.48572747302299
 20
60.379330086538772
 30
0.0
  0
VERTEX
  5
2647
  8
0
 10
150.55737898208639
 20
60.406581600959413
 30
0.0
  0
VERTEX
  5
2648
  8
0
 10
150.5920582997195
 20
60.419818858426112
 30
0.0
  0
VERTEX
  5
2649
  8
0
 10
150.62595966381221
 20
60.432789117109493
 30
0.0
  0
VERTEX
  5
264A
  8
0
 10
150.69138759213311
 20
60.457904733322358
 30
0.0
  0
VERTEX
  5
264B
  8
0
 10
150.75358088140831
 20
60.481880793002489
 30
0.0
  0
VERTEX
  5
264C
  8
0
 10
150.78343891204179
 20
60.493426661832189
 30
0.0
  0
VERTEX
  5
264D
  8
0
 10
150.81245749644441
 20
60.504669877010748
 30
0.0
  0
VERTEX
  5
264E
  8
0
 10
150.8679350334404
 20
60.526224784525141
 30
0.0
  0
VERTEX
  5
264F
  8
0
 10
150.91993047290961
 20
60.546498502892483
 30
0.0
  0
VERTEX
  5
2650
  8
0
 10
150.96835990691261
 20
60.565444167600589
 30
0.0
  0
VERTEX
  5
2651
  8
0
 10
151.01313266640631
 20
60.583012822215487
 30
0.0
  0
VERTEX
  5
2652
  8
0
 10
151.05400627238271
 20
60.599096306217213
 30
0.0
  0
VERTEX
  5
2653
  8
0
 10
151.07294202253831
 20
60.606561894306438
 30
0.0
  0
VERTEX
  5
2654
  8
0
 10
151.09087416219791
 20
60.613640261388852
 30
0.0
  0
VERTEX
  5
2655
  8
0
 10
151.12371882925319
 20
60.62662639937632
 30
0.0
  0
VERTEX
  5
2656
  8
0
 10
151.15252260332471
 20
60.638037557753002
 30
0.0
  0
VERTEX
  5
2657
  8
0
 10
151.17726761172281
 20
60.647857699385703
 30
0.0
  0
VERTEX
  5
2658
  8
0
 10
151.19793573280671
 20
60.656071909236353
 30
0.0
  0
VERTEX
  5
2659
  8
0
 10
151.21450854264239
 20
60.66266638900187
 30
0.0
  0
VERTEX
  5
265A
  8
0
 10
151.2212533512554
 20
60.665352221796489
 30
0.0
  0
VERTEX
  5
265B
  8
0
 10
151.22696725589549
 20
60.667628450140477
 30
0.0
  0
VERTEX
  5
265C
  8
0
 10
151.2352926623322
 20
60.670946505967379
 30
0.0
  0
VERTEX
  5
265D
  8
0
 10
151.23946506053849
 20
60.672610063614847
 30
0.0
  0
VERTEX
  5
265E
  8
0
 10
151.23998757398959
 20
60.672818423865039
 30
0.0
  0
SEQEND
  5
265F
  8
0
  0
POLYLINE
  5
1DA1
  8
0
 66
     1
 10
0.0
 20
0.0
 30
0.0
  0
VERTEX
  5
2660
  8
0
 10
136.86320582278029
 20
57.684584629528459
 30
0.0
  0
VERTEX
  5
2661
  8
0
 10
136.56083072164429
 20
57.681916869399728
 30
0.0
  0
VERTEX
  5
2662
  8
0
 10
135.9567645233098
 20
57.684077557326532
 30
0.0
  0
VERTEX
  5
2663
  8
0
 10
135.3541298330843
 20
57.6961803936519
 30
0.0
  0
VERTEX
  5
2664
  8
0
 10
135.0535441021409
 20
57.705930384345379
 30
0.0
  0
SEQEND
  5
2665
  8
0
  0
POLYLINE
  5
1DA2
  8
0
 66
     1
 10
0.0
 20
0.0
 30
0.0
  0
VERTEX
  5
2666
  8
0
 10
135.0535441021409
 20
57.705930384345379
 30
0.0
  0
VERTEX
  5
2667
  8
0
 10
134.68029698770121
 20
57.72147649255291
 30
0.0
  0
VERTEX
  5
2668
  8
0
 10
133.93715240438161
 20
57.763770679933437
 30
0.0
  0
VERTEX
  5
2669
  8
0
 10
133.19968258161839
 20
57.820660733343409
 30
0.0
  0
VERTEX
  5
266A
  8
0
 10
132.83544280228071
 20
57.85423811846627
 30
0.0
  0
SEQEND
  5
266B
  8
0
  0
POLYLINE
  5
1DA3
  8
0
 66
     1
 10
0.0
 20
0.0
 30
0.0
  0
VERTEX
  5
266C
  8
0
 10
132.83544280228071
 20
57.85423811846627
 30
0.0
  0
VERTEX
  5
266D
  8
0
 10
132.5615160833832
 20
57.881875413290409
 30
0.0
  0
VERTEX
  5
266E
  8
0
 10
132.02093855308209
 20
57.942420507334482
 30
0.0
  0
VERTEX
  5
266F
  8
0
 10
131.49028842799541
 20
58.009599870256601
 30
0.0
  0
VERTEX
  5
2670
  8
0
 10
131.22877095163699
 20
58.045528128276601
 30
0.0
  0
SEQEND
  5
2671
  8
0
  0
POLYLINE
  5
1DA4
  8
0
 66
     1
 10
0.0
 20
0.0
 30
0.0
  0
VERTEX
  5
2672
  8
0
 10
131.22877095163699
 20
58.045528128276601
 30
0.0
  0
VERTEX
  5
2673
  8
0
 10
130.83058486431821
 20
58.103805926611891
 30
0.0
  0
VERTEX
  5
2674
  8
0
 10
130.05314340583681
 20
58.230010195307138
 30
0.0
  0
VERTEX
  5
2675
  8
0
 10
129.3017829061144
 20
58.367562209079502
 30
0.0
  0
VERTEX
  5
2676
  8
0
 10
128.9362009620213
 20
58.440017877181972
 30
0.0
  0
VERTEX
  5
2677
  8
0
 10
128.57752263323309
 20
58.51461652798676
 30
0.0
  0
VERTEX
  5
2678
  8
0
 10
127.88139881225131
 20
58.669304874905031
 30
0.0
  0
VERTEX
  5
2679
  8
0
 10
127.2165378244416
 20
58.829226095179251
 30
0.0
  0
VERTEX
  5
267A
  8
0
 10
126.5852832390796
 20
58.992043271192209
 30
0.0
  0
VERTEX
  5
267B
  8
0
 10
125.9878512394983
 20
59.155955079197533
 30
0.0
  0
VERTEX
  5
267C
  8
0
 10
125.4244878357937
 20
59.31923646521323
 30
0.0
  0
VERTEX
  5
267D
  8
0
 10
125.1556712663582
 20
59.400121186605467
 30
0.0
  0
VERTEX
  5
267E
  8
0
 10
124.8954869585874
 20
59.480233005495933
 30
0.0
  0
VERTEX
  5
267F
  8
0
 10
124.4014302273454
 20
59.637282206429383
 30
0.0
  0
VERTEX
  5
2680
  8
0
 10
123.9455467876577
 20
59.787904749105053
 30
0.0
  0
VERTEX
  5
2681
  8
0
 10
123.5287270755272
 20
59.930396410194497
 30
0.0
  0
VERTEX
  5
2682
  8
0
 10
123.1509227014338
 20
60.063476587613103
 30
0.0
  0
VERTEX
  5
2683
  8
0
 10
122.94855338267909
 20
60.13629076562863
 30
0.0
  0
VERTEX
  5
2684
  8
0
 10
122.8931734414155
 20
60.156402570403827
 30
0.0
  0
VERTEX
  5
2685
  8
0
 10
122.83887854988841
 20
60.176197683075721
 30
0.0
  0
VERTEX
  5
2686
  8
0
 10
122.81213814180229
 20
60.185974974435588
 30
0.0
  0
VERTEX
  5
2687
  8
0
 10
122.78566917759321
 20
60.195671294865548
 30
0.0
  0
VERTEX
  5
2688
  8
0
 10
122.7335458637872
 20
60.214818665483101
 30
0.0
  0
VERTEX
  5
2689
  8
0
 10
122.68250922041381
 20
60.233635121532672
 30
0.0
  0
VERTEX
  5
268A
  8
0
 10
122.6573986119745
 20
60.242917814055971
 30
0.0
  0
VERTEX
  5
268B
  8
0
 10
122.6325599350621
 20
60.25211605491257
 30
0.0
  0
VERTEX
  5
268C
  8
0
 10
122.5836987739513
 20
60.270256921212912
 30
0.0
  0
VERTEX
  5
268D
  8
0
 10
122.5359265849312
 20
60.288053238117229
 30
0.0
  0
VERTEX
  5
268E
  8
0
 10
122.51244914296799
 20
60.296820806409521
 30
0.0
  0
VERTEX
  5
268F
  8
0
 10
122.4892443004846
 20
60.305500583814428
 30
0.0
  0
VERTEX
  5
2690
  8
0
 10
122.44360585703021
 20
60.322612276747627
 30
0.0
  0
VERTEX
  5
2691
  8
0
 10
122.3989164060075
 20
60.339420320302928
 30
0.0
  0
VERTEX
  5
2692
  8
0
 10
122.3551865892842
 20
60.355917378256493
 30
0.0
  0
VERTEX
  5
2693
  8
0
 10
122.31243071732111
 20
60.372094750363857
 30
0.0
  0
VERTEX
  5
2694
  8
0
 10
122.2706630378849
 20
60.387943773036021
 30
0.0
  0
VERTEX
  5
2695
  8
0
 10
122.2501542061957
 20
60.395742456732933
 30
0.0
  0
VERTEX
  5
2696
  8
0
 10
122.2298977383295
 20
60.40345582235561
 30
0.0
  0
VERTEX
  5
2697
  8
0
 10
122.19014894858201
 20
60.418622316827822
 30
0.0
  0
VERTEX
  5
2698
  8
0
 10
122.1514307448771
 20
60.433434719845323
 30
0.0
  0
VERTEX
  5
2699
  8
0
 10
122.1137571542809
 20
60.44788454184706
 30
0.0
  0
VERTEX
  5
269A
  8
0
 10
122.07714216004329
 20
60.4619633421527
 30
0.0
  0
VERTEX
  5
269B
  8
0
 10
122.0415997078135
 20
60.475662730456378
 30
0.0
  0
VERTEX
  5
269C
  8
0
 10
122.02423503441619
 20
60.482367537198833
 30
0.0
  0
VERTEX
  5
269D
  8
0
 10
122.007143712749
 20
60.488974367965263
 30
0.0
  0
VERTEX
  5
269E
  8
0
 10
121.9737880675431
 20
60.501889968172293
 30
0.0
  0
VERTEX
  5
269F
  8
0
 10
121.94154665138571
 20
60.514401297255198
 30
0.0
  0
VERTEX
  5
26A0
  8
0
 10
121.9258481151729
 20
60.520502801474763
 30
0.0
  0
SEQEND
  5
26A1
  8
0
  0
POLYLINE
  5
1DA5
  8
0
 66
     1
 10
0.0
 20
0.0
 30
0.0
  0
VERTEX
  5
26A2
  8
0
 10
121.9258481151729
 20
60.520502801474763
 30
0.0
  0
VERTEX
  5
26A3
  8
0
 10
121.86249871561419
 20
60.545188899229132
 30
0.0
  0
VERTEX
  5
26A4
  8
0
 10
121.7516141012386
 20
60.588646347667627
 30
0.0
  0
VERTEX
  5
26A5
  8
0
 10
121.69701230684819
 20
60.610161411166331
 30
0.0
  0
VERTEX
  5
26A6
  8
0
 10
121.6828157597465
 20
60.615767860438901
 30
0.0
  0
VERTEX
  5
26A7
  8
0
 10
121.6692525845413
 20
60.621128997930747
 30
0.0
  0
VERTEX
  5
26A8
  8
0
 10
121.66271051150289
 20
60.623716575935092
 30
0.0
  0
VERTEX
  5
26A9
  8
0
 10
121.6563353774732
 20
60.626239178050142
 30
0.0
  0
VERTEX
  5
26AA
  8
0
 10
121.64409285312691
 20
60.631086386118568
 30
0.0
  0
VERTEX
  5
26AB
  8
0
 10
121.6325269995051
 20
60.635669199673373
 30
0.0
  0
VERTEX
  5
26AC
  8
0
 10
121.62699770698021
 20
60.637861315810362
 30
0.0
  0
SEQEND
  5
26AD
  8
0
  0
POLYLINE
  5
1DA6
  8
0
 66
     1
 10
0.0
 20
0.0
 30
0.0
  0
VERTEX
  5
26AE
  8
0
 10
121.62699770698021
 20
60.637861315810362
 30
0.0
  0
VERTEX
  5
26AF
  8
0
 10
121.60011630859761
 20
60.648529719719768
 30
0.0
  0
VERTEX
  5
26B0
  8
0
 10
121.56104532822491
 20
60.664068722786212
 30
0.0
  0
VERTEX
  5
26B1
  8
0
 10
121.5415267180345
 20
60.671846117921348
 30
0.0
  0
VERTEX
  5
26B2
  8
0
 10
121.5390882773944
 20
60.672818423865039
 30
0.0
  0
SEQEND
  5
26B3
  8
0
  0
LINE
  5
1DB0
  8
1
 10
201.2973536365854
 20
81.342818423865026
 30
0.0
 11
105.8090266931804
 21
81.342818423865026
 31
0.0
  0
LINE
  5
1DC1
  8
0
 10
115.0858902330253
 20
95.846347742505202
 30
0.0
 11
115.0858902330253
 21
66.83928910522485
 31
0.0
  0
POLYLINE
  5
1F91
  8
0
 66
     1
 10
0.0
 20
0.0
 30
0.0
  0
VERTEX
  5
26B4
  8
0
 10
59.434599569516358
 20
57.542322393995647
 30
0.0
  0
VERTEX
  5
26B5
  8
0
 10
59.429626873556117
 20
57.546275536889162
 30
0.0
  0
VERTEX
  5
26B6
  8
0
 10
59.359054581035018
 20
57.601779499439537
 30
0.0
  0
VERTEX
  5
26B7
  8
0
 10
59.281904996012088
 20
57.661534056831009
 30
0.0
  0
VERTEX
  5
26B8
  8
0
 10
59.198241206514119
 20
57.725264570869449
 30
0.0
  0
VERTEX
  5
26B9
  8
0
 10
59.108118985938738
 20
57.792693267878342
 30
0.0
  0
VERTEX
  5
26BA
  8
0
 10
59.01158804625566
 20
57.863539525277119
 30
0.0
  0
VERTEX
  5
26BB
  8
0
 10
58.960933471314767
 20
57.90015583594321
 30
0.0
  0
VERTEX
  5
26BC
  8
0
 10
58.90869319665461
 20
57.937520157675287
 30
0.0
  0
VERTEX
  5
26BD
  8
0
 10
58.799475412290001
 20
58.014349704945282
 30
0.0
  0
VERTEX
  5
26BE
  8
0
 10
58.683972816838718
 20
58.093740724051699
 30
0.0
  0
VERTEX
  5
26BF
  8
0
 10
58.623876071887139
 20
58.134306490300858
 30
0.0
  0
VERTEX
  5
26C0
  8
0
 10
58.562221581811741
 20
58.175404085754558
 30
0.0
  0
VERTEX
  5
26C1
  8
0
 10
58.43425674492493
 20
58.259049276664499
 30
0.0
  0
VERTEX
  5
26C2
  8
0
 10
58.300310066133989
 20
58.344261046880654
 30
0.0
  0
VERTEX
  5
26C3
  8
0
 10
58.23120645090421
 20
58.387303284742693
 30
0.0
  0
VERTEX
  5
26C4
  8
0
 10
58.160695235217531
 20
58.430587845571573
 30
0.0
  0
VERTEX
  5
26C5
  8
0
 10
58.015485086621077
 20
58.517741324059521
 30
0.0
  0
VERTEX
  5
26C6
  8
0
 10
57.864747045350732
 20
58.60544038652516
 30
0.0
  0
VERTEX
  5
26C7
  8
0
 10
57.708544257522128
 20
58.693410437164907
 30
0.0
  0
VERTEX
  5
26C8
  8
0
 10
57.546935688009967
 20
58.781383195474461
 30
0.0
  0
VERTEX
  5
26C9
  8
0
 10
57.379976147914192
 20
58.869096462422021
 30
0.0
  0
VERTEX
  5
26CA
  8
0
 10
57.294505750625042
 20
58.912775442600569
 30
0.0
  0
VERTEX
  5
26CB
  8
0
 10
57.207716267034918
 20
58.956293832095739
 30
0.0
  0
VERTEX
  5
26CC
  8
0
 10
57.030202430778438
 20
59.042724342177777
 30
0.0
  0
VERTEX
  5
26CD
  8
0
 10
56.847476706471753
 20
59.128142055634491
 30
0.0
  0
VERTEX
  5
26CE
  8
0
 10
56.659619386122763
 20
59.212286902371027
 30
0.0
  0
VERTEX
  5
26CF
  8
0
 10
56.4673203218764
 20
59.29464919940019
 30
0.0
  0
VERTEX
  5
26D0
  8
0
 10
56.27091520907635
 20
59.374913880887782
 30
0.0
  0
VERTEX
  5
26D1
  8
0
 10
56.171215134429239
 20
59.414192487091093
 30
0.0
  0
VERTEX
  5
26D2
  8
0
 10
56.070539038574509
 20
59.452867398964671
 30
0.0
  0
VERTEX
  5
26D3
  8
0
 10
55.866325081989999
 20
59.528306203965421
 30
0.0
  0
VERTEX
  5
26D4
  8
0
 10
55.658404741110189
 20
59.601036350348117
 30
0.0
  0
VERTEX
  5
26D5
  8
0
 10
55.446907424747621
 20
59.670873067323861
 30
0.0
  0
VERTEX
  5
26D6
  8
0
 10
55.231960480500668
 20
59.737640293984548
 30
0.0
  0
VERTEX
  5
26D7
  8
0
 10
55.013689213382349
 20
59.801170180839868
 30
0.0
  0
VERTEX
  5
26D8
  8
0
 10
54.903345589699661
 20
59.831670784946311
 30
0.0
  0
VERTEX
  5
26D9
  8
0
 10
54.792217027175873
 20
59.861302562833558
 30
0.0
  0
VERTEX
  5
26DA
  8
0
 10
54.567631502776457
 20
59.917892703385853
 30
0.0
  0
VERTEX
  5
26DB
  8
0
 10
54.338469351829588
 20
59.97114480891269
 30
0.0
  0
VERTEX
  5
26DC
  8
0
 10
54.104002563328429
 20
60.020995027861019
 30
0.0
  0
VERTEX
  5
26DD
  8
0
 10
53.864376515412907
 20
60.067157034591808
 30
0.0
  0
VERTEX
  5
26DE
  8
0
 10
53.619741175978326
 20
60.109349547750007
 30
0.0
  0
VERTEX
  5
26DF
  8
0
 10
53.495592483727698
 20
60.128870847415321
 30
0.0
  0
VERTEX
  5
26E0
  8
0
 10
53.370248450468402
 20
60.147296802136083
 30
0.0
  0
VERTEX
  5
26E1
  8
0
 10
53.116049879575307
 20
60.180728618405269
 30
0.0
  0
VERTEX
  5
26E2
  8
0
 10
52.857295088926548
 20
60.209380072719512
 30
0.0
  0
VERTEX
  5
26E3
  8
0
 10
52.594513101188113
 20
60.232960612307828
 30
0.0
  0
VERTEX
  5
26E4
  8
0
 10
52.330446304240013
 20
60.251087489134697
 30
0.0
  0
VERTEX
  5
26E5
  8
0
 10
52.065807312616698
 20
60.263677086172457
 30
0.0
  0
VERTEX
  5
26E6
  8
0
 10
51.933348614244657
 20
60.267887616498221
 30
0.0
  0
VERTEX
  5
26E7
  8
0
 10
51.80083730130935
 20
60.27070610141827
 30
0.0
  0
VERTEX
  5
26E8
  8
0
 10
51.535777392987477
 20
60.272164176753947
 30
0.0
  0
VERTEX
  5
26E9
  8
0
 10
51.270868740029471
 20
60.268053853074932
 30
0.0
  0
VERTEX
  5
26EA
  8
0
 10
51.138546510086371
 20
60.26391486242624
 30
0.0
  0
VERTEX
  5
26EB
  8
0
 10
51.006352549978033
 20
60.258390572493951
 30
0.0
  0
VERTEX
  5
26EC
  8
0
 10
50.742972047133883
 20
60.243236883522819
 30
0.0
  0
VERTEX
  5
26ED
  8
0
 10
50.483651272749228
 20
60.222904335718781
 30
0.0
  0
VERTEX
  5
26EE
  8
0
 10
50.355704347780481
 20
60.210886110901882
 30
0.0
  0
VERTEX
  5
26EF
  8
0
 10
50.228918065054472
 20
60.197677384547248
 30
0.0
  0
VERTEX
  5
26F0
  8
0
 10
49.97888289433422
 20
60.167821066549543
 30
0.0
  0
VERTEX
  5
26F1
  8
0
 10
49.733658739431583
 20
60.13360160587105
 30
0.0
  0
VERTEX
  5
26F2
  8
0
 10
49.493362492569297
 20
60.095287449163621
 30
0.0
  0
VERTEX
  5
26F3
  8
0
 10
49.258114688262822
 20
60.053150088700207
 30
0.0
  0
VERTEX
  5
26F4
  8
0
 10
49.028038006131062
 20
60.007464535427822
 30
0.0
  0
VERTEX
  5
26F5
  8
0
 10
48.914975453220897
 20
59.983377730893402
 30
0.0
  0
VERTEX
  5
26F6
  8
0
 10
48.802935021609869
 20
59.958436626728307
 30
0.0
  0
VERTEX
  5
26F7
  8
0
 10
48.581271862844801
 20
59.905922584503337
 30
0.0
  0
VERTEX
  5
26F8
  8
0
 10
48.3629065589123
 20
59.850027336398099
 30
0.0
  0
VERTEX
  5
26F9
  8
0
 10
48.147929852923653
 20
59.790908081579559
 30
0.0
  0
VERTEX
  5
26FA
  8
0
 10
47.936434656952819
 20
59.728726750238302
 30
0.0
  0
VERTEX
  5
26FB
  8
0
 10
47.728516096683727
 20
59.663650486516268
 30
0.0
  0
VERTEX
  5
26FC
  8
0
 10
47.625928344973893
 20
59.630080514447052
 30
0.0
  0
VERTEX
  5
26FD
  8
0
 10
47.524271326343523
 20
59.59585205272375
 30
0.0
  0
VERTEX
  5
26FE
  8
0
 10
47.323799186106839
 20
59.525510149362333
 30
0.0
  0
VERTEX
  5
26FF
  8
0
 10
47.127199764385061
 20
59.452809652273189
 30
0.0
  0
VERTEX
  5
2700
  8
0
 10
46.934573916156523
 20
59.377941772714209
 30
0.0
  0
VERTEX
  5
2701
  8
0
 10
46.746022777307068
 20
59.301104148740471
 30
0.0
  0
VERTEX
  5
2702
  8
0
 10
46.561860801352623
 20
59.222593905244189
 30
0.0
  0
VERTEX
  5
2703
  8
0
 10
46.471641287917002
 20
59.182862797382541
 30
0.0
  0
VERTEX
  5
2704
  8
0
 10
46.382670617930437
 20
59.14285269613174
 30
0.0
  0
VERTEX
  5
2705
  8
0
 10
46.208474187408292
 20
59.06209952692528
 30
0.0
  0
VERTEX
  5
2706
  8
0
 10
46.039271481651888
 20
58.980543298852169
 30
0.0
  0
VERTEX
  5
2707
  8
0
 10
45.875067406614448
 20
58.89839462600343
 30
0.0
  0
VERTEX
  5
2708
  8
0
 10
45.715871457985259
 20
58.815866200191969
 30
0.0
  0
VERTEX
  5
2709
  8
0
 10
45.561697346909391
 20
58.733173054564951
 30
0.0
  0
VERTEX
  5
270A
  8
0
 10
45.486498826304157
 20
58.691832594679902
 30
0.0
  0
VERTEX
  5
270B
  8
0
 10
45.412562630130878
 20
58.650532739106197
 30
0.0
  0
VERTEX
  5
270C
  8
0
 10
45.268488370232149
 20
58.568165420551807
 30
0.0
  0
VERTEX
  5
270D
  8
0
 10
45.129498844633808
 20
58.48629391816916
 30
0.0
  0
VERTEX
  5
270E
  8
0
 10
44.995621316509698
 20
58.405143685530042
 30
0.0
  0
VERTEX
  5
270F
  8
0
 10
44.866924008608521
 20
58.324966822337771
 30
0.0
  0
VERTEX
  5
2710
  8
0
 10
44.743721423996817
 20
58.246178138744419
 30
0.0
  0
VERTEX
  5
2711
  8
0
 10
44.684200789361903
 20
58.207387834320279
 30
0.0
  0
VERTEX
  5
2712
  8
0
 10
44.626065016014529
 20
58.169036309694093
 30
0.0
  0
VERTEX
  5
2713
  8
0
 10
44.513942203218328
 20
58.093756994645673
 30
0.0
  0
VERTEX
  5
2714
  8
0
 10
44.407342831459232
 20
58.020553449248602
 30
0.0
  0
VERTEX
  5
2715
  8
0
 10
44.356111970145321
 20
57.98479603124359
 30
0.0
  0
VERTEX
  5
2716
  8
0
 10
44.306259355315433
 20
57.949636344914801
 30
0.0
  0
VERTEX
  5
2717
  8
0
 10
44.210687069387753
 20
57.881213570927372
 30
0.0
  0
VERTEX
  5
2718
  8
0
 10
44.120624391065569
 20
57.815490023328998
 30
0.0
  0
VERTEX
  5
2719
  8
0
 10
44.077659595482586
 20
57.783703616803777
 30
0.0
  0
VERTEX
  5
271A
  8
0
 10
44.03607319572216
 20
57.752667384203377
 30
0.0
  0
VERTEX
  5
271B
  8
0
 10
43.957039204917351
 20
57.692943894396393
 30
0.0
  0
VERTEX
  5
271C
  8
0
 10
43.883532428031913
 20
57.636514122215452
 30
0.0
  0
VERTEX
  5
271D
  8
0
 10
43.81556765779078
 20
57.583568730187856
 30
0.0
  0
VERTEX
  5
271E
  8
0
 10
43.763332104774179
 20
57.542322393997473
 30
0.0
  0
SEQEND
  5
271F
  8
0
  0
ARC
  5
1F92
  8
0
 10
51.622582975559737
 20
43.048914865481663
 30
0.0
 40
17.786749663283381
 50
56.782986419901562
 51
123.2884943812625
  0
ARC
  5
1F93
  8
0
 10
87.645867825200355
 20
69.257678835458705
 30
0.0
 40
17.786749663283381
 50
128.78298641990139
 51
195.2884943812615
  0
POLYLINE
  5
1F94
  8
0
 66
     1
 10
0.0
 20
0.0
 30
0.0
  0
VERTEX
  5
2720
  8
0
 10
76.275864039757494
 20
81.166057355259625
 30
0.0
  0
VERTEX
  5
2721
  8
0
 10
76.270567729889194
 20
81.162549628698443
 30
0.0
  0
VERTEX
  5
2722
  8
0
 10
76.195972286904464
 20
81.112583057709585
 30
0.0
  0
VERTEX
  5
2723
  8
0
 10
76.115301792837883
 20
81.057674615869345
 30
0.0
  0
VERTEX
  5
2724
  8
0
 10
76.028836939406105
 20
80.997799435587524
 30
0.0
  0
VERTEX
  5
2725
  8
0
 10
75.936859140001957
 20
80.932924723730594
 30
0.0
  0
VERTEX
  5
2726
  8
0
 10
75.839650644402624
 20
80.863011042044988
 30
0.0
  0
VERTEX
  5
2727
  8
0
 10
75.789173339041383
 20
80.826150740734434
 30
0.0
  0
VERTEX
  5
2728
  8
0
 10
75.737494624720341
 20
80.78801349750438
 30
0.0
  0
VERTEX
  5
2729
  8
0
 10
75.630675231688542
 20
80.707882847765632
 30
0.0
  0
VERTEX
  5
272A
  8
0
 10
75.51947762074326
 20
80.622566525817263
 30
0.0
  0
VERTEX
  5
272B
  8
0
 10
75.46232636891682
 20
80.577946636083766
 30
0.0
  0
VERTEX
  5
272C
  8
0
 10
75.404187947743708
 20
80.532009586961934
 30
0.0
  0
VERTEX
  5
272D
  8
0
 10
75.285093334591579
 20
80.436155580472985
 30
0.0
  0
VERTEX
  5
272E
  8
0
 10
75.162660325176034
 20
80.335096603890292
 30
0.0
  0
VERTEX
  5
272F
  8
0
 10
75.100370532902616
 20
80.28267594330174
 30
0.0
  0
VERTEX
  5
2730
  8
0
 10
75.037415305330114
 20
80.228991457041204
 30
0.0
  0
VERTEX
  5
2731
  8
0
 10
74.909655018024353
 20
80.117820304958059
 30
0.0
  0
VERTEX
  5
2732
  8
0
 10
74.779667636742147
 20
80.001560409246963
 30
0.0
  0
VERTEX
  5
2733
  8
0
 10
74.647733830834568
 20
79.880186970662805
 30
0.0
  0
VERTEX
  5
2734
  8
0
 10
74.514126971371979
 20
79.753673164898771
 30
0.0
  0
VERTEX
  5
2735
  8
0
 10
74.3791133620133
 20
79.621990096452009
 30
0.0
  0
VERTEX
  5
2736
  8
0
 10
74.311160378011024
 20
79.554200465331974
 30
0.0
  0
VERTEX
  5
2737
  8
0
 10
74.242952504740629
 20
79.485106683339495
 30
0.0
  0
VERTEX
  5
2738
  8
0
 10
74.10589741278045
 20
79.342989489083152
 30
0.0
  0
VERTEX
  5
2739
  8
0
 10
73.968194985670152
 20
79.19560252336521
 30
0.0
  0
VERTEX
  5
273A
  8
0
 10
73.830117376363148
 20
79.042941782344258
 30
0.0
  0
VERTEX
  5
273B
  8
0
 10
73.692362498221996
 20
78.885505853693076
 30
0.0
  0
VERTEX
  5
273C
  8
0
 10
73.555333732227552
 20
78.723516641958611
 30
0.0
  0
VERTEX
  5
273D
  8
0
 10
73.487168540440507
 20
78.640833993122612
 30
0.0
  0
VERTEX
  5
273E
  8
0
 10
73.419275888939524
 20
78.557036541149671
 30
0.0
  0
VERTEX
  5
273F
  8
0
 10
73.284423738788846
 20
78.386129399802144
 30
0.0
  0
VERTEX
  5
2740
  8
0
 10
73.151002340332411
 20
78.210860255973728
 30
0.0
  0
VERTEX
  5
2741
  8
0
 10
73.019227410555231
 20
78.031295087445017
 30
0.0
  0
VERTEX
  5
2742
  8
0
 10
72.889305745903414
 20
77.847500603166665
 30
0.0
  0
VERTEX
  5
2743
  8
0
 10
72.761435702106837
 20
77.659544106942803
 30
0.0
  0
VERTEX
  5
2744
  8
0
 10
72.698329848881599
 20
77.564026289615356
 30
0.0
  0
VERTEX
  5
2745
  8
0
 10
72.635807739052211
 20
77.467493469021292
 30
0.0
  0
VERTEX
  5
2746
  8
0
 10
72.512586573391843
 20
77.271387257720392
 30
0.0
  0
VERTEX
  5
2747
  8
0
 10
72.391125812314044
 20
77.069896906368172
 30
0.0
  0
VERTEX
  5
2748
  8
0
 10
72.271261214481115
 20
76.862310304137736
 30
0.0
  0
VERTEX
  5
2749
  8
0
 10
72.153310016073704
 20
76.648677234367881
 30
0.0
  0
VERTEX
  5
274A
  8
0
 10
72.037586074185811
 20
76.429053404283763
 30
0.0
  0
VERTEX
  5
274B
  8
0
 10
71.980656159197679
 20
76.317013394878174
 30
0.0
  0
VERTEX
  5
274C
  8
0
 10
71.92439859847093
 20
76.203498068414547
 30
0.0
  0
VERTEX
  5
274D
  8
0
 10
71.814051373404709
 20
75.972071860513722
 30
0.0
  0
VERTEX
  5
274E
  8
0
 10
71.706842593391457
 20
75.73483521704128
 30
0.0
  0
VERTEX
  5
274F
  8
0
 10
71.603212067531373
 20
75.492201482707003
 30
0.0
  0
VERTEX
  5
2750
  8
0
 10
71.504371255297997
 20
75.246660547726719
 30
0.0
  0
VERTEX
  5
2751
  8
0
 10
71.410619891211866
 20
74.998864309714577
 30
0.0
  0
VERTEX
  5
2752
  8
0
 10
71.365683450058725
 20
74.874189726913926
 30
0.0
  0
VERTEX
  5
2753
  8
0
 10
71.322054663965446
 20
74.749034939002598
 30
0.0
  0
VERTEX
  5
2754
  8
0
 10
71.238759935717326
 20
74.497398556042313
 30
0.0
  0
VERTEX
  5
2755
  8
0
 10
71.160807810115315
 20
74.244185295554445
 30
0.0
  0
VERTEX
  5
2756
  8
0
 10
71.123854406356656
 20
74.11706035806634
 30
0.0
  0
VERTEX
  5
2757
  8
0
 10
71.088258138067431
 20
73.989629331419508
 30
0.0
  0
VERTEX
  5
2758
  8
0
 10
71.021281101343504
 20
73.734456840504933
 30
0.0
  0
VERTEX
  5
2759
  8
0
 10
70.960483977146055
 20
73.481545025405325
 30
0.0
  0
VERTEX
  5
275A
  8
0
 10
70.932376213979126
 20
73.356146432963214
 30
0.0
  0
VERTEX
  5
275B
  8
0
 10
70.905759343234706
 20
73.231483791682166
 30
0.0
  0
VERTEX
  5
275C
  8
0
 10
70.856889272075023
 20
72.984460103614964
 30
0.0
  0
VERTEX
  5
275D
  8
0
 10
70.813655481841224
 20
72.74066367825381
 30
0.0
  0
VERTEX
  5
275E
  8
0
 10
70.775838786279223
 20
72.50028864128646
 30
0.0
  0
VERTEX
  5
275F
  8
0
 10
70.743218228107366
 20
72.263533523575376
 30
0.0
  0
VERTEX
  5
2760
  8
0
 10
70.715570166459486
 20
72.030599983427777
 30
0.0
  0
VERTEX
  5
2761
  8
0
 10
70.703539828592
 20
71.915627873792289
 30
0.0
  0
VERTEX
  5
2762
  8
0
 10
70.692637830806916
 20
71.801363866174583
 30
0.0
  0
VERTEX
  5
2763
  8
0
 10
70.674083969776746
 20
71.574321943117695
 30
0.0
  0
VERTEX
  5
2764
  8
0
 10
70.659764919820134
 20
71.349371616310563
 30
0.0
  0
VERTEX
  5
2765
  8
0
 10
70.649559216808584
 20
71.126647764794711
 30
0.0
  0
VERTEX
  5
2766
  8
0
 10
70.643341567388973
 20
70.906288792384231
 30
0.0
  0
VERTEX
  5
2767
  8
0
 10
70.640982403488806
 20
70.688436819361044
 30
0.0
  0
VERTEX
  5
2768
  8
0
 10
70.641207985484016
 20
70.580496377735244
 30
0.0
  0
VERTEX
  5
2769
  8
0
 10
70.642347440694493
 20
70.473237631375895
 30
0.0
  0
VERTEX
  5
276A
  8
0
 10
70.647297268023124
 20
70.260840452512781
 30
0.0
  0
VERTEX
  5
276B
  8
0
 10
70.655686987121271
 20
70.051397602284396
 30
0.0
  0
VERTEX
  5
276C
  8
0
 10
70.667365911178592
 20
69.845064087003209
 30
0.0
  0
VERTEX
  5
276D
  8
0
 10
70.682177327942213
 20
69.641997166130295
 30
0.0
  0
VERTEX
  5
276E
  8
0
 10
70.699935826327646
 20
69.44258771937217
 30
0.0
  0
VERTEX
  5
276F
  8
0
 10
70.709842992483289
 20
69.344506275687635
 30
0.0
  0
VERTEX
  5
2770
  8
0
 10
70.720401410968691
 20
69.247526339004622
 30
0.0
  0
VERTEX
  5
2771
  8
0
 10
70.74337258136319
 20
69.056901587006735
 30
0.0
  0
VERTEX
  5
2772
  8
0
 10
70.768650651943631
 20
68.870777990650652
 30
0.0
  0
VERTEX
  5
2773
  8
0
 10
70.796036832829202
 20
68.689225299108443
 30
0.0
  0
VERTEX
  5
2774
  8
0
 10
70.825331776414714
 20
68.512318268702131
 30
0.0
  0
VERTEX
  5
2775
  8
0
 10
70.856335211001181
 20
68.340136388402314
 30
0.0
  0
VERTEX
  5
2776
  8
0
 10
70.872414703942582
 20
68.255843440705206
 30
0.0
  0
VERTEX
  5
2777
  8
0
 10
70.888845659591027
 20
68.172763582307027
 30
0.0
  0
VERTEX
  5
2778
  8
0
 10
70.92266023987122
 20
68.010287917385568
 30
0.0
  0
VERTEX
  5
2779
  8
0
 10
70.957574540261135
 20
67.852801337777237
 30
0.0
  0
VERTEX
  5
277A
  8
0
 10
70.993382566456205
 20
67.700399441286322
 30
0.0
  0
VERTEX
  5
277B
  8
0
 10
71.029865639379523
 20
67.553225014695187
 30
0.0
  0
VERTEX
  5
277C
  8
0
 10
71.066726437925354
 20
67.411705351581034
 30
0.0
  0
VERTEX
  5
277D
  8
0
 10
71.085225322098836
 20
67.343111000873449
 30
0.0
  0
VERTEX
  5
277E
  8
0
 10
71.103734847558997
 20
67.275969321931882
 30
0.0
  0
VERTEX
  5
277F
  8
0
 10
71.140681876066878
 20
67.146071602521843
 30
0.0
  0
VERTEX
  5
2780
  8
0
 10
71.177361567469404
 20
67.022068435801202
 30
0.0
  0
VERTEX
  5
2781
  8
0
 10
71.195537686086482
 20
66.962295341474686
 30
0.0
  0
VERTEX
  5
2782
  8
0
 10
71.213571229683893
 20
66.904017746693881
 30
0.0
  0
VERTEX
  5
2783
  8
0
 10
71.249111694204771
 20
66.791979301420724
 30
0.0
  0
VERTEX
  5
2784
  8
0
 10
71.283787604261761
 20
66.686014911188906
 30
0.0
  0
VERTEX
  5
2785
  8
0
 10
71.300741421322186
 20
66.635330422572054
 30
0.0
  0
VERTEX
  5
2786
  8
0
 10
71.317407728317164
 20
66.586188682775713
 30
0.0
  0
VERTEX
  5
2787
  8
0
 10
71.349785296182063
 20
66.492567317498271
 30
0.0
  0
VERTEX
  5
2788
  8
0
 10
71.380738355468452
 20
66.40522045975689
 30
0.0
  0
VERTEX
  5
2789
  8
0
 10
71.410090146540824
 20
66.32422109623019
 30
0.0
  0
VERTEX
  5
278A
  8
0
 10
71.433176069755291
 20
66.26179631431296
 30
0.0
  0
SEQEND
  5
278B
  8
0
  0
ARC
  5
1F95
  8
0
 10
15.552882681188411
 20
69.255085165989613
 30
0.0
 40
17.786749663283381
 50
344.71150561874032
 51
51.2170135800989
  0
POLYLINE
  5
1F96
  8
0
 66
     1
 10
0.0
 20
0.0
 30
0.0
  0
VERTEX
  5
278C
  8
0
 10
26.922886466630821
 20
81.163463685790987
 30
0.0
  0
VERTEX
  5
278D
  8
0
 10
26.92818277649911
 20
81.159955959229734
 30
0.0
  0
VERTEX
  5
278E
  8
0
 10
27.002778219483901
 20
81.109989388240891
 30
0.0
  0
VERTEX
  5
278F
  8
0
 10
27.083448713550411
 20
81.055080946400636
 30
0.0
  0
VERTEX
  5
2790
  8
0
 10
27.169913566982189
 20
80.995205766118801
 30
0.0
  0
VERTEX
  5
2791
  8
0
 10
27.261891366386411
 20
80.930331054261913
 30
0.0
  0
VERTEX
  5
2792
  8
0
 10
27.35909986198573
 20
80.860417372576336
 30
0.0
  0
VERTEX
  5
2793
  8
0
 10
27.409577167346932
 20
80.823557071265753
 30
0.0
  0
VERTEX
  5
2794
  8
0
 10
27.46125588166797
 20
80.785419828035657
 30
0.0
  0
VERTEX
  5
2795
  8
0
 10
27.568075274699769
 20
80.705289178296965
 30
0.0
  0
VERTEX
  5
2796
  8
0
 10
27.679272885645108
 20
80.619972856348596
 30
0.0
  0
VERTEX
  5
2797
  8
0
 10
27.736424137471491
 20
80.575352966615185
 30
0.0
  0
VERTEX
  5
2798
  8
0
 10
27.79456255864466
 20
80.529415917493225
 30
0.0
  0
VERTEX
  5
2799
  8
0
 10
27.913657171796729
 20
80.433561911004276
 30
0.0
  0
VERTEX
  5
279A
  8
0
 10
28.03609018121233
 20
80.332502934421598
 30
0.0
  0
VERTEX
  5
279B
  8
0
 10
28.098379973485692
 20
80.280082273833102
 30
0.0
  0
VERTEX
  5
279C
  8
0
 10
28.161335201058201
 20
80.226397787572566
 30
0.0
  0
VERTEX
  5
279D
  8
0
 10
28.289095488364008
 20
80.115226635489364
 30
0.0
  0
VERTEX
  5
279E
  8
0
 10
28.419082869646282
 20
79.998966739778325
 30
0.0
  0
VERTEX
  5
279F
  8
0
 10
28.5510166755538
 20
79.877593301194182
 30
0.0
  0
VERTEX
  5
27A0
  8
0
 10
28.684623535016438
 20
79.751079495430162
 30
0.0
  0
VERTEX
  5
27A1
  8
0
 10
28.819637144375069
 20
79.619396426983343
 30
0.0
  0
VERTEX
  5
27A2
  8
0
 10
28.887590128377379
 20
79.551606795863364
 30
0.0
  0
VERTEX
  5
27A3
  8
0
 10
28.955798001647789
 20
79.482513013870943
 30
0.0
  0
VERTEX
  5
27A4
  8
0
 10
29.092853093607971
 20
79.340395819614486
 30
0.0
  0
VERTEX
  5
27A5
  8
0
 10
29.230555520718209
 20
79.193008853896657
 30
0.0
  0
VERTEX
  5
27A6
  8
0
 10
29.36863313002528
 20
79.040348112875662
 30
0.0
  0
VERTEX
  5
27A7
  8
0
 10
29.506388008166368
 20
78.882912184224438
 30
0.0
  0
VERTEX
  5
27A8
  8
0
 10
29.643416774160869
 20
78.720922972490087
 30
0.0
  0
VERTEX
  5
27A9
  8
0
 10
29.711581965947911
 20
78.638240323653974
 30
0.0
  0
VERTEX
  5
27AA
  8
0
 10
29.779474617448901
 20
78.55444287168109
 30
0.0
  0
VERTEX
  5
27AB
  8
0
 10
29.914326767599562
 20
78.383535730333563
 30
0.0
  0
VERTEX
  5
27AC
  8
0
 10
30.04774816605601
 20
78.208266586505104
 30
0.0
  0
VERTEX
  5
27AD
  8
0
 10
30.17952309583319
 20
78.02870141797645
 30
0.0
  0
VERTEX
  5
27AE
  8
0
 10
30.309444760485071
 20
77.84490693369807
 30
0.0
  0
VERTEX
  5
27AF
  8
0
 10
30.437314804281641
 20
77.656950437474194
 30
0.0
  0
VERTEX
  5
27B0
  8
0
 10
30.50042065750683
 20
77.561432620146746
 30
0.0
  0
VERTEX
  5
27B1
  8
0
 10
30.562942767336271
 20
77.464899799552683
 30
0.0
  0
VERTEX
  5
27B2
  8
0
 10
30.686163932996632
 20
77.268793588251839
 30
0.0
  0
VERTEX
  5
27B3
  8
0
 10
30.807624694074441
 20
77.067303236899633
 30
0.0
  0
VERTEX
  5
27B4
  8
0
 10
30.92748929190742
 20
76.859716634669141
 30
0.0
  0
VERTEX
  5
27B5
  8
0
 10
31.045440490314778
 20
76.646083564899286
 30
0.0
  0
VERTEX
  5
27B6
  8
0
 10
31.161164432202732
 20
76.426459734815296
 30
0.0
  0
VERTEX
  5
27B7
  8
0
 10
31.21809434719086
 20
76.314419725409664
 30
0.0
  0
VERTEX
  5
27B8
  8
0
 10
31.274351907917609
 20
76.200904398945966
 30
0.0
  0
VERTEX
  5
27B9
  8
0
 10
31.384699132983769
 20
75.969478191045198
 30
0.0
  0
VERTEX
  5
27BA
  8
0
 10
31.491907912997078
 20
75.732241547572755
 30
0.0
  0
VERTEX
  5
27BB
  8
0
 10
31.595538438857151
 20
75.489607813238436
 30
0.0
  0
VERTEX
  5
27BC
  8
0
 10
31.694379251090542
 20
75.244066878258209
 30
0.0
  0
VERTEX
  5
27BD
  8
0
 10
31.78813061517673
 20
74.996270640246067
 30
0.0
  0
VERTEX
  5
27BE
  8
0
 10
31.83306705632987
 20
74.871596057445373
 30
0.0
  0
VERTEX
  5
27BF
  8
0
 10
31.876695842423089
 20
74.746441269534131
 30
0.0
  0
VERTEX
  5
27C0
  8
0
 10
31.95999057067127
 20
74.494804886573803
 30
0.0
  0
VERTEX
  5
27C1
  8
0
 10
32.037942696273213
 20
74.241591626085921
 30
0.0
  0
VERTEX
  5
27C2
  8
0
 10
32.074896100031928
 20
74.114466688597844
 30
0.0
  0
VERTEX
  5
27C3
  8
0
 10
32.110492368321097
 20
73.987035661951012
 30
0.0
  0
VERTEX
  5
27C4
  8
0
 10
32.177469405045152
 20
73.731863171036423
 30
0.0
  0
VERTEX
  5
27C5
  8
0
 10
32.238266529242537
 20
73.4789513559368
 30
0.0
  0
VERTEX
  5
27C6
  8
0
 10
32.266374292409473
 20
73.353552763494719
 30
0.0
  0
VERTEX
  5
27C7
  8
0
 10
32.292991163153943
 20
73.22889012221367
 30
0.0
  0
VERTEX
  5
27C8
  8
0
 10
32.341861234313633
 20
72.981866434146454
 30
0.0
  0
VERTEX
  5
27C9
  8
0
 10
32.385095024547361
 20
72.738070008785357
 30
0.0
  0
VERTEX
  5
27CA
  8
0
 10
32.422911720109369
 20
72.497694971817936
 30
0.0
  0
VERTEX
  5
27CB
  8
0
 10
32.455532278281339
 20
72.260939854106866
 30
0.0
  0
VERTEX
  5
27CC
  8
0
 10
32.48318033992922
 20
72.028006313959267
 30
0.0
  0
VERTEX
  5
27CD
  8
0
 10
32.495210677796649
 20
71.913034204323779
 30
0.0
  0
VERTEX
  5
27CE
  8
0
 10
32.506112675581733
 20
71.798770196706087
 30
0.0
  0
VERTEX
  5
27CF
  8
0
 10
32.52466653661196
 20
71.571728273649185
 30
0.0
  0
VERTEX
  5
27D0
  8
0
 10
32.538985586568522
 20
71.346777946842067
 30
0.0
  0
VERTEX
  5
27D1
  8
0
 10
32.549191289580051
 20
71.124054095326201
 30
0.0
  0
VERTEX
  5
27D2
  8
0
 10
32.555408938999733
 20
70.903695122915721
 30
0.0
  0
VERTEX
  5
27D3
  8
0
 10
32.5577681028999
 20
70.685843149892563
 30
0.0
  0
VERTEX
  5
27D4
  8
0
 10
32.55754252090469
 20
70.577902708266762
 30
0.0
  0
VERTEX
  5
27D5
  8
0
 10
32.556403065694269
 20
70.470643961907385
 30
0.0
  0
VERTEX
  5
27D6
  8
0
 10
32.551453238365639
 20
70.258246783044299
 30
0.0
  0
VERTEX
  5
27D7
  8
0
 10
32.543063519267427
 20
70.048803932815915
 30
0.0
  0
VERTEX
  5
27D8
  8
0
 10
32.53138459521017
 20
69.842470417534727
 30
0.0
  0
VERTEX
  5
27D9
  8
0
 10
32.516573178446549
 20
69.639403496661814
 30
0.0
  0
VERTEX
  5
27DA
  8
0
 10
32.498814680061059
 20
69.43999404990366
 30
0.0
  0
VERTEX
  5
27DB
  8
0
 10
32.488907513905467
 20
69.341912606219168
 30
0.0
  0
VERTEX
  5
27DC
  8
0
 10
32.478349095420022
 20
69.244932669536141
 30
0.0
  0
VERTEX
  5
27DD
  8
0
 10
32.45537792502563
 20
69.054307917538253
 30
0.0
  0
VERTEX
  5
27DE
  8
0
 10
32.430099854445189
 20
68.868184321182142
 30
0.0
  0
VERTEX
  5
27DF
  8
0
 10
32.40271367355956
 20
68.686631629639962
 30
0.0
  0
VERTEX
  5
27E0
  8
0
 10
32.373418729974048
 20
68.509724599233621
 30
0.0
  0
VERTEX
  5
27E1
  8
0
 10
32.342415295387639
 20
68.337542718933847
 30
0.0
  0
VERTEX
  5
27E2
  8
0
 10
32.326335802446181
 20
68.253249771236753
 30
0.0
  0
VERTEX
  5
27E3
  8
0
 10
32.309904846797792
 20
68.170169912838531
 30
0.0
  0
VERTEX
  5
27E4
  8
0
 10
32.276090266517542
 20
68.007694247917044
 30
0.0
  0
VERTEX
  5
27E5
  8
0
 10
32.241175966127628
 20
67.850207668308713
 30
0.0
  0
VERTEX
  5
27E6
  8
0
 10
32.205367939932607
 20
67.697805771817826
 30
0.0
  0
VERTEX
  5
27E7
  8
0
 10
32.168884867009297
 20
67.550631345226691
 30
0.0
  0
VERTEX
  5
27E8
  8
0
 10
32.132024068463473
 20
67.409111682112524
 30
0.0
  0
VERTEX
  5
27E9
  8
0
 10
32.11352518428999
 20
67.340517331404953
 30
0.0
  0
VERTEX
  5
27EA
  8
0
 10
32.09501565882988
 20
67.273375652463386
 30
0.0
  0
VERTEX
  5
27EB
  8
0
 10
32.058068630321998
 20
67.143477933053362
 30
0.0
  0
VERTEX
  5
27EC
  8
0
 10
32.021388938919472
 20
67.019474766332706
 30
0.0
  0
VERTEX
  5
27ED
  8
0
 10
32.003212820302338
 20
66.959701672006162
 30
0.0
  0
VERTEX
  5
27EE
  8
0
 10
31.985179276704908
 20
66.901424077225357
 30
0.0
  0
VERTEX
  5
27EF
  8
0
 10
31.949638812184109
 20
66.789385631952229
 30
0.0
  0
VERTEX
  5
27F0
  8
0
 10
31.914962902127112
 20
66.683421241720424
 30
0.0
  0
VERTEX
  5
27F1
  8
0
 10
31.89800908506669
 20
66.632736753103529
 30
0.0
  0
VERTEX
  5
27F2
  8
0
 10
31.881342778071708
 20
66.583595013307246
 30
0.0
  0
VERTEX
  5
27F3
  8
0
 10
31.84896521020681
 20
66.489973648029746
 30
0.0
  0
VERTEX
  5
27F4
  8
0
 10
31.818012150920421
 20
66.402626790288352
 30
0.0
  0
VERTEX
  5
27F5
  8
0
 10
31.788660359848048
 20
66.32162742676168
 30
0.0
  0
VERTEX
  5
27F6
  8
0
 10
31.765574436633589
 20
66.259202644844422
 30
0.0
  0
SEQEND
  5
27F7
  8
0
  0
POLYLINE
  5
1F97
  8
0
 66
     1
 10
0.0
 20
0.0
 30
0.0
  0
VERTEX
  5
27F8
  8
0
 10
31.507840062596191
 20
95.269245124191031
 30
0.0
  0
VERTEX
  5
27F9
  8
0
 10
31.51418665722889
 20
95.268969841758533
 30
0.0
  0
VERTEX
  5
27FA
  8
0
 10
31.603905251841301
 20
95.265547545564544
 30
0.0
  0
VERTEX
  5
27FB
  8
0
 10
31.701443424825811
 20
95.262552481440423
 30
0.0
  0
VERTEX
  5
27FC
  8
0
 10
31.806588708616289
 20
95.26016975414089
 30
0.0
  0
VERTEX
  5
27FD
  8
0
 10
31.919132710315751
 20
95.25859130451019
 30
0.0
  0
VERTEX
  5
27FE
  8
0
 10
32.038870266281442
 20
95.258014941022367
 30
0.0
  0
VERTEX
  5
27FF
  8
0
 10
32.10137320565434
 20
95.258165735533538
 30
0.0
  0
VERTEX
  5
2800
  8
0
 10
32.165598672921249
 20
95.258643427290025
 30
0.0
  0
VERTEX
  5
2801
  8
0
 10
32.299116991385752
 20
95.260683620816053
 30
0.0
  0
VERTEX
  5
2802
  8
0
 10
32.43922542419557
 20
95.264345659365915
 30
0.0
  0
VERTEX
  5
2803
  8
0
 10
32.511688671317188
 20
95.266851245473845
 30
0.0
  0
VERTEX
  5
2804
  8
0
 10
32.585724762080083
 20
95.269842192327758
 30
0.0
  0
VERTEX
  5
2805
  8
0
 10
32.738415899445947
 20
95.277387655317966
 30
0.0
  0
VERTEX
  5
2806
  8
0
 10
32.896867260782699
 20
95.287181767479154
 30
0.0
  0
VERTEX
  5
2807
  8
0
 10
32.978072852517357
 20
95.292977951485085
 30
0.0
  0
VERTEX
  5
2808
  8
0
 10
33.060559650809068
 20
95.299405458882319
 30
0.0
  0
VERTEX
  5
2809
  8
0
 10
33.229264658120428
 20
95.314249197494803
 30
0.0
  0
VERTEX
  5
280A
  8
0
 10
33.402762510764212
 20
95.331900763187505
 30
0.0
  0
VERTEX
  5
280B
  8
0
 10
33.580840719095711
 20
95.35254519227658
 30
0.0
  0
VERTEX
  5
280C
  8
0
 10
33.763293888205567
 20
95.376364869565464
 30
0.0
  0
VERTEX
  5
280D
  8
0
 10
33.949923558258213
 20
95.403539701370519
 30
0.0
  0
VERTEX
  5
280E
  8
0
 10
34.044744422565259
 20
95.418440903143306
 30
0.0
  0
VERTEX
  5
280F
  8
0
 10
34.140538057271499
 20
95.434247364982227
 30
0.0
  0
VERTEX
  5
2810
  8
0
 10
34.334952346714033
 20
95.468663628522791
 30
0.0
  0
VERTEX
  5
2811
  8
0
 10
34.532987835242011
 20
95.506962732677579
 30
0.0
  0
VERTEX
  5
2812
  8
0
 10
34.73442669989015
 20
95.549307884114995
 30
0.0
  0
VERTEX
  5
2813
  8
0
 10
34.93841125440656
 20
95.595705940116304
 30
0.0
  0
VERTEX
  5
2814
  8
0
 10
35.144484724502263
 20
95.646214477523444
 30
0.0
  0
VERTEX
  5
2815
  8
0
 10
35.24823116468918
 20
95.673039651119595
 30
0.0
  0
VERTEX
  5
2816
  8
0
 10
35.35241237999594
 20
95.700926914559716
 30
0.0
  0
VERTEX
  5
2817
  8
0
 10
35.56196675839135
 20
95.759929591271458
 30
0.0
  0
VERTEX
  5
2818
  8
0
 10
35.772927555080173
 20
95.823302176865226
 30
0.0
  0
VERTEX
  5
2819
  8
0
 10
35.98508147058908
 20
95.891118089457905
 30
0.0
  0
VERTEX
  5
281A
  8
0
 10
36.198221992541448
 20
95.963444912275804
 30
0.0
  0
VERTEX
  5
281B
  8
0
 10
36.4121490875973
 20
96.040344785970433
 30
0.0
  0
VERTEX
  5
281C
  8
0
 10
36.51934675965731
 20
96.080527633594883
 30
0.0
  0
VERTEX
  5
281D
  8
0
 10
36.626668777340861
 20
96.12187475187045
 30
0.0
  0
VERTEX
  5
281E
  8
0
 10
36.841625133312391
 20
96.208100425569938
 30
0.0
  0
VERTEX
  5
281F
  8
0
 10
37.058322010178081
 20
96.299716699922612
 30
0.0
  0
VERTEX
  5
2820
  8
0
 10
37.277310850213439
 20
96.397203146053485
 30
0.0
  0
VERTEX
  5
2821
  8
0
 10
37.498305742044522
 20
96.500705955143715
 30
0.0
  0
VERTEX
  5
2822
  8
0
 10
37.721020026063343
 20
96.610364539672545
 30
0.0
  0
VERTEX
  5
2823
  8
0
 10
37.832932759972437
 20
96.667544246887303
 30
0.0
  0
VERTEX
  5
2824
  8
0
 10
37.945168717466913
 20
96.726312710593334
 30
0.0
  0
VERTEX
  5
2825
  8
0
 10
38.170470409825668
 20
96.848679974203534
 30
0.0
  0
VERTEX
  5
2826
  8
0
 10
38.396648335139112
 20
96.977592710653155
 30
0.0
  0
VERTEX
  5
2827
  8
0
 10
38.623103722446217
 20
97.112975030350384
 30
0.0
  0
VERTEX
  5
2828
  8
0
 10
38.847392959696322
 20
97.253524647808717
 30
0.0
  0
VERTEX
  5
2829
  8
0
 10
39.068890380764969
 20
97.398890346310594
 30
0.0
  0
VERTEX
  5
282A
  8
0
 10
39.17852660643053
 20
97.473341225162642
 30
0.0
  0
VERTEX
  5
282B
  8
0
 10
39.287387174411947
 20
97.548949218469247
 30
0.0
  0
VERTEX
  5
282C
  8
0
 10
39.502682179950853
 20
97.703567915829211
 30
0.0
  0
VERTEX
  5
282D
  8
0
 10
39.714581794510188
 20
97.862602636951237
 30
0.0
  0
VERTEX
  5
282E
  8
0
 10
39.819199889605052
 20
97.943728206036624
 30
0.0
  0
VERTEX
  5
282F
  8
0
 10
39.922899953734827
 20
98.025899110667496
 30
0.0
  0
VERTEX
  5
2830
  8
0
 10
40.1270721416277
 20
98.192969877885844
 30
0.0
  0
VERTEX
  5
2831
  8
0
 10
40.324915883358642
 20
98.361844181394602
 30
0.0
  0
VERTEX
  5
2832
  8
0
 10
40.421362984730308
 20
98.446772445086481
 30
0.0
  0
VERTEX
  5
2833
  8
0
 10
40.51617134755633
 20
98.53198163636074
 30
0.0
  0
VERTEX
  5
2834
  8
0
 10
40.700904946453761
 20
98.703102890914124
 30
0.0
  0
VERTEX
  5
2835
  8
0
 10
40.879181760872939
 20
98.87492615789904
 30
0.0
  0
VERTEX
  5
2836
  8
0
 10
41.051065012002418
 20
99.04716555188736
 30
0.0
  0
VERTEX
  5
2837
  8
0
 10
41.216616764524872
 20
99.219530582605927
 30
0.0
  0
VERTEX
  5
2838
  8
0
 10
41.375899415922497
 20
99.391726652254135
 30
0.0
  0
VERTEX
  5
2839
  8
0
 10
41.453211074174078
 20
99.477669787649816
 30
0.0
  0
VERTEX
  5
283A
  8
0
 10
41.529193674200371
 20
99.563703278139258
 30
0.0
  0
VERTEX
  5
283B
  8
0
 10
41.677655957110062
 20
99.736478366441276
 30
0.0
  0
VERTEX
  5
283C
  8
0
 10
41.82146279646377
 20
99.910050477327104
 30
0.0
  0
VERTEX
  5
283D
  8
0
 10
41.960633178894447
 20
100.08423909653661
 30
0.0
  0
VERTEX
  5
283E
  8
0
 10
42.095187117133207
 20
100.2588586074469
 30
0.0
  0
VERTEX
  5
283F
  8
0
 10
42.225145897746749
 20
100.4337178741325
 30
0.0
  0
VERTEX
  5
2840
  8
0
 10
42.288409197792653
 20
100.52117611955811
 30
0.0
  0
VERTEX
  5
2841
  8
0
 10
42.350532468452457
 20
100.60862002312651
 30
0.0
  0
VERTEX
  5
2842
  8
0
 10
42.471371903388608
 20
100.78336238588921
 30
0.0
  0
VERTEX
  5
2843
  8
0
 10
42.587691896622452
 20
100.9577365642311
 30
0.0
  0
VERTEX
  5
2844
  8
0
 10
42.699523245920091
 20
101.1315285839262
 30
0.0
  0
VERTEX
  5
2845
  8
0
 10
42.806900299365097
 20
101.304519106247
 30
0.0
  0
VERTEX
  5
2846
  8
0
 10
42.909743304348922
 20
101.47628292096709
 30
0.0
  0
VERTEX
  5
2847
  8
0
 10
42.959379064684178
 20
101.561455761899
 30
0.0
  0
VERTEX
  5
2848
  8
0
 10
43.007840501246392
 20
101.6461202614622
 30
0.0
  0
VERTEX
  5
2849
  8
0
 10
43.101302851962771
 20
101.81384104056281
 30
0.0
  0
VERTEX
  5
284A
  8
0
 10
43.190253168319991
 20
101.9792762701626
 30
0.0
  0
VERTEX
  5
284B
  8
0
 10
43.27481127717499
 20
102.1422526762359
 30
0.0
  0
VERTEX
  5
284C
  8
0
 10
43.355094513464792
 20
102.3025926060654
 30
0.0
  0
VERTEX
  5
284D
  8
0
 10
43.431218177952523
 20
102.4601140349717
 30
0.0
  0
VERTEX
  5
284E
  8
0
 10
43.467755746430612
 20
102.5377597509799
 30
0.0
  0
VERTEX
  5
284F
  8
0
 10
43.503295939606232
 20
102.6146306417255
 30
0.0
  0
VERTEX
  5
2850
  8
0
 10
43.57144016919915
 20
102.7659519274205
 30
0.0
  0
VERTEX
  5
2851
  8
0
 10
43.635762195764748
 20
102.9138833575729
 30
0.0
  0
VERTEX
  5
2852
  8
0
 10
43.696372481216649
 20
103.0582265115202
 30
0.0
  0
VERTEX
  5
2853
  8
0
 10
43.753364012679519
 20
103.1987373359925
 30
0.0
  0
VERTEX
  5
2854
  8
0
 10
43.806726171117639
 20
103.334895382263
 30
0.0
  0
VERTEX
  5
2855
  8
0
 10
43.832079007180823
 20
103.4012627490046
 30
0.0
  0
VERTEX
  5
2856
  8
0
 10
43.856569375221731
 20
103.46646113439159
 30
0.0
  0
VERTEX
  5
2857
  8
0
 10
43.903030565042847
 20
103.5932675153978
 30
0.0
  0
VERTEX
  5
2858
  8
0
 10
43.946243303985732
 20
103.7151479662962
 30
0.0
  0
VERTEX
  5
2859
  8
0
 10
43.966672258461813
 20
103.7741890698798
 30
0.0
  0
VERTEX
  5
285A
  8
0
 10
43.986337525973902
 20
103.83193648542181
 30
0.0
  0
VERTEX
  5
285B
  8
0
 10
44.023439232009871
 20
103.9434676525762
 30
0.0
  0
VERTEX
  5
285C
  8
0
 10
44.057670137324799
 20
104.0495766336136
 30
0.0
  0
VERTEX
  5
285D
  8
0
 10
44.073745806132358
 20
104.100546449894
 30
0.0
  0
VERTEX
  5
285E
  8
0
 10
44.089147270464188
 20
104.1500991619842
 30
0.0
  0
VERTEX
  5
285F
  8
0
 10
44.117982525634602
 20
104.24487149442641
 30
0.0
  0
VERTEX
  5
2860
  8
0
 10
44.144282169458499
 20
104.3337303385062
 30
0.0
  0
VERTEX
  5
2861
  8
0
 10
44.168146302991659
 20
104.4165127500536
 30
0.0
  0
VERTEX
  5
2862
  8
0
 10
44.186161764968851
 20
104.4805850246959
 30
0.0
  0
SEQEND
  5
2863
  8
0
  0
ARC
  5
1F98
  8
0
 10
29.30888304672078
 20
111.5864462657524
 30
0.0
 40
17.786749663283381
 50
272.78298641990227
 51
339.28849438126218
  0
ARC
  5
1F99
  8
0
 10
73.853022218523733
 20
111.6126159285121
 30
0.0
 40
17.786749663283381
 50
200.7829864199025
 51
267.2884943812623
  0
POLYLINE
  5
1F9A
  8
0
 66
     1
 10
0.0
 20
0.0
 30
0.0
  0
VERTEX
  5
2864
  8
0
 10
59.013956832948402
 20
104.47899107613419
 30
0.0
  0
VERTEX
  5
2865
  8
0
 10
59.01565622939512
 20
104.4728700390026
 30
0.0
  0
VERTEX
  5
2866
  8
0
 10
59.040126002745751
 20
104.3864850372798
 30
0.0
  0
VERTEX
  5
2867
  8
0
 10
59.067418480546401
 20
104.2927951965617
 30
0.0
  0
VERTEX
  5
2868
  8
0
 10
59.097644051791242
 20
104.1920597860267
 30
0.0
  0
VERTEX
  5
2869
  8
0
 10
59.13092086612437
 20
104.0845363120799
 30
0.0
  0
VERTEX
  5
286A
  8
0
 10
59.167373651531811
 20
103.9704810231206
 30
0.0
  0
VERTEX
  5
286B
  8
0
 10
59.186831536098957
 20
103.91108379340911
 30
0.0
  0
VERTEX
  5
286C
  8
0
 10
59.207132608813822
 20
103.85014935912361
 30
0.0
  0
VERTEX
  5
286D
  8
0
 10
59.25033237762716
 20
103.72379634677451
 30
0.0
  0
VERTEX
  5
286E
  8
0
 10
59.297111070046469
 20
103.5916769409089
 30
0.0
  0
VERTEX
  5
286F
  8
0
 10
59.321886398869651
 20
103.5235345662302
 30
0.0
  0
VERTEX
  5
2870
  8
0
 10
59.347609368607827
 20
103.4540463130762
 30
0.0
  0
VERTEX
  5
2871
  8
0
 10
59.401969686689647
 20
103.31116008819821
 30
0.0
  0
VERTEX
  5
2872
  8
0
 10
59.46024860431686
 20
103.1634904355857
 30
0.0
  0
VERTEX
  5
2873
  8
0
 10
59.490855010769451
 20
103.0880504477673
 30
0.0
  0
VERTEX
  5
2874
  8
0
 10
59.52245775604684
 20
103.01158704976081
 30
0.0
  0
VERTEX
  5
2875
  8
0
 10
59.588707704675919
 20
102.855726020717
 30
0.0
  0
VERTEX
  5
2876
  8
0
 10
59.65910912620518
 20
102.6961743911734
 30
0.0
  0
VERTEX
  5
2877
  8
0
 10
59.733772337717816
 20
102.5331914301571
 30
0.0
  0
VERTEX
  5
2878
  8
0
 10
59.812807326951997
 20
102.36702883983941
 30
0.0
  0
VERTEX
  5
2879
  8
0
 10
59.89632386752038
 20
102.19793096084879
 30
0.0
  0
VERTEX
  5
287A
  8
0
 10
59.939797011059063
 20
102.11235568455319
 30
0.0
  0
VERTEX
  5
287B
  8
0
 10
59.984431710667707
 20
102.02613498937539
 30
0.0
  0
VERTEX
  5
287C
  8
0
 10
60.077240841761522
 20
101.8518712228571
 30
0.0
  0
VERTEX
  5
287D
  8
0
 10
60.174861785780713
 20
101.67536335508809
 30
0.0
  0
VERTEX
  5
287E
  8
0
 10
60.277382450492667
 20
101.4968689816529
 30
0.0
  0
VERTEX
  5
287F
  8
0
 10
60.384544317931727
 20
101.3172059296669
 30
0.0
  0
VERTEX
  5
2880
  8
0
 10
60.496260995910689
 20
101.1368264095166
 30
0.0
  0
VERTEX
  5
2881
  8
0
 10
60.553832665183791
 20
101.0464471160527
 30
0.0
  0
VERTEX
  5
2882
  8
0
 10
60.61254879482459
 20
100.9559825306893
 30
0.0
  0
VERTEX
  5
2883
  8
0
 10
60.733419539159961
 20
100.77491730341561
 30
0.0
  0
VERTEX
  5
2884
  8
0
 10
60.858880920967181
 20
100.5938648689679
 30
0.0
  0
VERTEX
  5
2885
  8
0
 10
60.988936851862263
 20
100.4130507746458
 30
0.0
  0
VERTEX
  5
2886
  8
0
 10
61.123587791479451
 20
100.2326923097563
 30
0.0
  0
VERTEX
  5
2887
  8
0
 10
61.26283102538855
 20
100.0529989198283
 30
0.0
  0
VERTEX
  5
2888
  8
0
 10
61.334173086888988
 20
99.96346505808242
 30
0.0
  0
VERTEX
  5
2889
  8
0
 10
61.406660860489872
 20
99.874172716038061
 30
0.0
  0
VERTEX
  5
288A
  8
0
 10
61.555091516377722
 20
99.696382271496816
 30
0.0
  0
VERTEX
  5
288B
  8
0
 10
61.709186788679119
 20
99.518602280429207
 30
0.0
  0
VERTEX
  5
288C
  8
0
 10
61.869573181671683
 20
99.340456485693323
 30
0.0
  0
VERTEX
  5
288D
  8
0
 10
62.036301379957699
 20
99.162261980723784
 30
0.0
  0
VERTEX
  5
288E
  8
0
 10
62.209415389993353
 20
98.984334475834274
 30
0.0
  0
VERTEX
  5
288F
  8
0
 10
62.298379459804671
 20
98.895568642256421
 30
0.0
  0
VERTEX
  5
2890
  8
0
 10
62.388954408410711
 20
98.806986357537014
 30
0.0
  0
VERTEX
  5
2891
  8
0
 10
62.574954643648653
 20
98.630525278897665
 30
0.0
  0
VERTEX
  5
2892
  8
0
 10
62.767450764356802
 20
98.455253515540505
 30
0.0
  0
VERTEX
  5
2893
  8
0
 10
62.96618556484173
 20
98.281717081316231
 30
0.0
  0
VERTEX
  5
2894
  8
0
 10
63.169165380353938
 20
98.111837561042194
 30
0.0
  0
VERTEX
  5
2895
  8
0
 10
63.375862842480331
 20
97.946101466628534
 30
0.0
  0
VERTEX
  5
2896
  8
0
 10
63.48054929288628
 20
97.864837806598757
 30
0.0
  0
VERTEX
  5
2897
  8
0
 10
63.586096533128057
 20
97.784669408894786
 30
0.0
  0
VERTEX
  5
2898
  8
0
 10
63.799677468308907
 20
97.627691496083514
 30
0.0
  0
VERTEX
  5
2899
  8
0
 10
64.016409058149577
 20
97.475307418378861
 30
0.0
  0
VERTEX
  5
289A
  8
0
 10
64.125892828569803
 20
97.400878876842185
 30
0.0
  0
VERTEX
  5
289B
  8
0
 10
64.236087085002737
 20
97.327646461085465
 30
0.0
  0
VERTEX
  5
289C
  8
0
 10
64.45807350268575
 20
97.1850948776774
 30
0.0
  0
VERTEX
  5
289D
  8
0
 10
64.67981958789818
 20
97.049119327593417
 30
0.0
  0
VERTEX
  5
289E
  8
0
 10
64.790394959881993
 20
96.983636960139734
 30
0.0
  0
VERTEX
  5
289F
  8
0
 10
64.900731111813798
 20
96.919799937055302
 30
0.0
  0
VERTEX
  5
28A0
  8
0
 10
65.120562917524751
 20
96.796987219801153
 30
0.0
  0
VERTEX
  5
28A1
  8
0
 10
65.339067120600419
 20
96.680532203270786
 30
0.0
  0
VERTEX
  5
28A2
  8
0
 10
65.555991364263207
 20
96.570286417085299
 30
0.0
  0
VERTEX
  5
28A3
  8
0
 10
65.771078554887424
 20
96.466101067792749
 30
0.0
  0
VERTEX
  5
28A4
  8
0
 10
65.984067795197802
 20
96.367825776134111
 30
0.0
  0
VERTEX
  5
28A5
  8
0
 10
66.089695190409714
 20
96.320855909155512
 30
0.0
  0
VERTEX
  5
28A6
  8
0
 10
66.194997816844236
 20
96.275177972922165
 30
0.0
  0
VERTEX
  5
28A7
  8
0
 10
66.405194058870109
 20
96.187372389826734
 30
0.0
  0
VERTEX
  5
28A8
  8
0
 10
66.614709703242852
 20
96.104240690184852
 30
0.0
  0
VERTEX
  5
28A9
  8
0
 10
66.823378937891277
 20
96.025709034661304
 30
0.0
  0
VERTEX
  5
28AA
  8
0
 10
67.031031415190625
 20
95.951701031326877
 30
0.0
  0
VERTEX
  5
28AB
  8
0
 10
67.23749193198438
 20
95.882137371204351
 30
0.0
  0
VERTEX
  5
28AC
  8
0
 10
67.340219101034563
 20
95.848996481588188
 30
0.0
  0
VERTEX
  5
28AD
  8
0
 10
67.442580341713608
 20
95.816935392470597
 30
0.0
  0
VERTEX
  5
28AE
  8
0
 10
67.646111643477866
 20
95.756008620180125
 30
0.0
  0
VERTEX
  5
28AF
  8
0
 10
67.84789619675837
 20
95.69926631712741
 30
0.0
  0
VERTEX
  5
28B0
  8
0
 10
68.047740017006333
 20
95.646613071224394
 30
0.0
  0
VERTEX
  5
28B1
  8
0
 10
68.245445114837253
 20
95.597948436107913
 30
0.0
  0
VERTEX
  5
28B2
  8
0
 10
68.440582446383075
 20
95.553216863829846
 30
0.0
  0
VERTEX
  5
28B3
  8
0
 10
68.536924925234985
 20
95.532330305828737
 30
0.0
  0
VERTEX
  5
28B4
  8
0
 10
68.632421056713042
 20
95.512403509982676
 30
0.0
  0
VERTEX
  5
28B5
  8
0
 10
68.82081445130035
 20
95.475344103357415
 30
0.0
  0
VERTEX
  5
28B6
  8
0
 10
69.005639863845431
 20
95.441869622774064
 30
0.0
  0
VERTEX
  5
28B7
  8
0
 10
69.186769529492267
 20
95.41181256150071
 30
0.0
  0
VERTEX
  5
28B8
  8
0
 10
69.364070748955783
 20
95.385006429672259
 30
0.0
  0
VERTEX
  5
28B9
  8
0
 10
69.53740603637408
 20
95.361285321027125
 30
0.0
  0
VERTEX
  5
28BA
  8
0
 10
69.622542230138947
 20
95.350529874223525
 30
0.0
  0
VERTEX
  5
28BB
  8
0
 10
69.706633315370595
 20
95.340483553526497
 30
0.0
  0
VERTEX
  5
28BC
  8
0
 10
69.871606135197851
 20
95.322435388814768
 30
0.0
  0
VERTEX
  5
28BD
  8
0
 10
70.032173885130589
 20
95.306974832227468
 30
0.0
  0
VERTEX
  5
28BE
  8
0
 10
70.188181990513272
 20
95.293935512885298
 30
0.0
  0
VERTEX
  5
28BF
  8
0
 10
70.339427077495088
 20
95.283153578169504
 30
0.0
  0
VERTEX
  5
28C0
  8
0
 10
70.485410888460592
 20
95.274478299881807
 30
0.0
  0
VERTEX
  5
28C1
  8
0
 10
70.556364462268675
 20
95.270874964132474
 30
0.0
  0
VERTEX
  5
28C2
  8
0
 10
70.625939751466035
 20
95.267730649111058
 30
0.0
  0
VERTEX
  5
28C3
  8
0
 10
70.760897083663394
 20
95.262728758502945
 30
0.0
  0
VERTEX
  5
28C4
  8
0
 10
70.89016575140613
 20
95.259294132153968
 30
0.0
  0
VERTEX
  5
28C5
  8
0
 10
70.952630071808983
 20
95.258109746252487
 30
0.0
  0
VERTEX
  5
28C6
  8
0
 10
71.013628029519666
 20
95.257251898224126
 30
0.0
  0
VERTEX
  5
28C7
  8
0
 10
71.131165530497185
 20
95.256431104986063
 30
0.0
  0
VERTEX
  5
28C8
  8
0
 10
71.242659099825403
 20
95.256665057824009
 30
0.0
  0
VERTEX
  5
28C9
  8
0
 10
71.296101930590794
 20
95.257126727681623
 30
0.0
  0
VERTEX
  5
28CA
  8
0
 10
71.347988674541057
 20
95.257791694821535
 30
0.0
  0
VERTEX
  5
28CB
  8
0
 10
71.447033102759406
 20
95.259653998813917
 30
0.0
  0
VERTEX
  5
28CC
  8
0
 10
71.539669922339669
 20
95.262100444100156
 30
0.0
  0
VERTEX
  5
28CD
  8
0
 10
71.625775097094163
 20
95.264985476401193
 30
0.0
  0
VERTEX
  5
28CE
  8
0
 10
71.692278535319019
 20
95.267651175626369
 30
0.0
  0
SEQEND
  5
28CF
  8
0
  0
LINE
  5
1F9B
  8
1
 10
82.258864661080906
 20
80.942311522584475
 30
0.0
 11
21.495768431897091
 21
80.94231152259178
 31
0.0
  0
LINE
  5
1F9C
  8
1
 10
51.5989592075004
 20
110.9423115225881
 30
0.0
 11
51.598959207493237
 21
50.942311522588142
 31
0.0
  0
LINE
  5
1F9E
  8
0
 10
26.930476445496989
 20
81.140104132791265
 30
0.0
 11
31.761492369395341
 21
66.27176595599073
 31
0.0
  0
LINE
  5
1F9F
  8
0
 10
71.442109012195374
 20
66.289256328785967
 30
0.0
 11
76.273131831196793
 21
81.157615726685364
 31
0.0
  0
CIRCLE
  5
1FA0
  8
0
 10
51.598959207496989
 20
80.942311522588142
 30
0.0
 40
15.64999999999999
  0
LINE
  5
1FA1
  8
0
 10
71.670969468598628
 20
95.283133118885814
 30
0.0
 11
59.011760756094979
 21
104.4805863429068
 31
0.0
  0
ARC
  5
1FA2
  8
0
 10
51.598959207496989
 20
80.942311522588142
 30
0.0
 40
25.0
 50
5.0563956043931624
 51
30.98343273099276
  0
ARC
  5
1FA3
  8
0
 10
68.753457885986677
 20
91.219326949990261
 30
0.0
 40
5.002638745005342
 50
31.058985475343029
 51
54.324455586520919
  0
ARC
  5
1FA4
  8
0
 10
71.520586755797353
 20
82.711131523886223
 30
0.0
 40
4.9999997480999978
 50
341.99999924509291
 51
5.073944699592599
  0
ARC
  5
1FA5
  8
0
 10
51.598959207496989
 20
80.942311522588142
 30
0.0
 40
25.0
 50
77.06172525489481
 51
102.9332678867935
  0
ARC
  5
1FA6
  8
0
 10
56.072834496699393
 20
100.43550140438759
 30
0.0
 40
4.9999999717999994
 50
53.999999794491217
 51
77.073928327295704
  0
CIRCLE
  5
1FA7
  8
0
 10
51.598959207497217
 20
89.692311522588113
 30
0.0
 40
1.2499999999999989
  0
CIRCLE
  5
1FA8
  8
0
 10
51.5989592074963
 20
76.567311522588142
 30
0.0
 40
1.2499999999999989
  0
CIRCLE
  5
1FA9
  8
0
 10
51.5989592074963
 20
80.942311522588142
 30
0.0
 40
1.2499999999999989
  0
CIRCLE
  5
1FAA
  8
0
 10
51.598959207497217
 20
85.317311522588142
 30
0.0
 40
1.2499999999999989
  0
CIRCLE
  5
1FAB
  8
0
 10
51.598959207495398
 20
72.192311522588142
 30
0.0
 40
1.2499999999999989
  0
ARC
  5
1FAC
  8
0
 10
51.598959207496989
 20
80.942311522588142
 30
0.0
 40
25.0
 50
149.0274877848926
 51
174.9798368042928
  0
LINE
  5
1FAD
  8
0
 10
44.183219167699633
 20
104.4784516805893
 30
0.0
 11
31.50340808213798
 21
95.266012622566095
 31
0.0
  0
ARC
  5
1FAE
  8
0
 10
47.125083021299297
 20
100.4355012909886
 30
0.0
 40
5.0000000346999993
 50
102.9260804179941
 51
126.00000001259551
  0
ARC
  5
1FAF
  8
0
 10
34.442333147498061
 20
91.220928933790191
 30
0.0
 40
4.999998258899998
 50
125.99999755369291
 51
149.0741017468923
  0
ARC
  5
1FB0
  8
0
 10
31.679764337532671
 20
82.711177669441625
 30
0.0
 40
5.0024001778145744
 50
175.06992938976981
 51
198.3043142908229
  0
ARC
  5
1FB1
  8
0
 10
51.598959207496989
 20
80.942311522588142
 30
0.0
 40
25.0
 50
293.04015433209543
 51
318.9937710956944
  0
ARC
  5
1FB2
  8
0
 10
66.676174715395405
 20
67.801650431286788
 30
0.0
 40
4.9999959058999979
 50
319.12588514189292
 51
342.00000303389191
  0
LINE
  5
1FB3
  8
0
 10
43.763345780021552
 20
57.542311522589422
 30
0.0
 11
59.434613244763732
 21
57.542311522587603
 31
0.0
  0
ARC
  5
1FB4
  8
0
 10
59.437337101394753
 20
62.542320367687317
 30
0.0
 40
4.9999987230999992
 50
269.9686301858394
 51
293.07404961299142
  0
ARC
  5
1FB5
  8
0
 10
51.598959207496989
 20
80.942311522588142
 30
0.0
 40
25.0
 50
221.042396401996
 51
246.94678434589341
  0
ARC
  5
1FB6
  8
0
 10
43.760588285394867
 20
62.542314759189111
 30
0.0
 40
4.9999995329999987
 50
246.926034726491
 51
270.03166339288322
  0
ARC
  5
1FB7
  8
0
 10
36.52171631909539
 20
67.801670176890156
 30
0.0
 40
4.9999987869999991
 50
197.99999764249489
 51
220.9162904335941
  0
LINE
  5
21E6
  8
0
 10
197.67184201104749
 20
86.342818423864514
 30
0.0
 11
197.671842011048
 21
76.342818423864514
 31
0.0
  0
LINE
  5
21E7
  8
0
 10
199.17184201104749
 20
84.842818423864628
 30
0.0
 11
199.17184201104789
 21
77.842818423864614
 31
0.0
1001
GENIUS_GENOREF_13
1005
0
1005
0
  0
LINE
  5
21E8
  8
0
 10
176.1718420110472
 20
76.342818423863264
 30
0.0
 11
176.1718420110484
 21
86.342818423863264
 31
0.0
1001
GENIUS_GENOREF_13
1005
0
1005
0
1005
0
  0
LINE
  5
21E9
  8
0
 10
174.17184201102449
 20
87.342818423863505
 30
0.0
 11
174.1718420110478
 21
75.342818423863548
 31
0.0
  0
LINE
  5
21EA
  8
3
 10
198.5918420110475
 20
85.422818423864555
 30
0.0
 11
176.17184201104831
 21
85.422818423863305
 31
0.0
1001
GENIUS_GENOREF_13
1005
0
1005
0
  0
LINE
  5
21EB
  8
0
 10
174.17184201104749
 20
86.34281842386315
 30
0.0
 11
197.67184201104749
 21
86.342818423864514
 31
0.0
1001
GENIUS_GENOREF_13
1005
0
1005
0
  0
LINE
  5
21EC
  8
0
 10
197.67184201104749
 20
86.342818423864514
 30
0.0
 11
199.17184201104749
 21
84.842818423864628
 31
0.0
  0
LINE
  5
21EE
  8
3
 10
176.17184201104831
 20
85.422818423863305
 30
0.0
 11
175.25184201104841
 21
86.34281842386315
 31
0.0
  0
LINE
  5
21EF
  8
0
 10
174.17184201102449
 20
87.342818423863505
 30
0.0
 11
173.87184201102349
 21
87.406585392363468
 31
0.0
  0
LINE
  5
21F0
  8
3
 10
198.59184201104799
 20
77.262818423864587
 30
0.0
 11
176.1718420110474
 21
77.262818423863266
 31
0.0
1001
GENIUS_GENOREF_13
1005
0
1005
0
  0
LINE
  5
21F1
  8
0
 10
174.171842011048
 20
76.34281842386315
 30
0.0
 11
197.671842011048
 21
76.342818423864514
 31
0.0
1001
GENIUS_GENOREF_13
1005
0
1005
0
  0
LINE
  5
21F2
  8
0
 10
197.671842011048
 20
76.342818423864514
 30
0.0
 11
199.17184201104789
 21
77.842818423864614
 31
0.0
  0
LINE
  5
21F3
  8
3
 10
176.17184201104789
 20
77.262818423866406
 30
0.0
 11
175.25184201104781
 21
76.342818423866561
 31
0.0
  0
LINE
  5
21F4
  8
0
 10
174.1718420110478
 20
75.342818423863548
 30
0.0
 11
173.87184201104719
 21
75.279051455362435
 31
0.0
  0
TEXT
  5
2315
  8
0
 62
     3
 10
0.0
 20
0.0
 30
0.0
 40
10.0
  1
EBG50AX25-SOFT
  7
STANDARD1
  0
ENDSEC
  0
EOF
