  0
SECTION
  2
HEADER
  9
$ACADVER
  1
AC1009
  9
$INSBASE
 10
0.0
 20
0.0
 30
0.0
  9
$EXTMIN
 10
0.0
 20
-2.960436562073669
 30
0.0
  9
$EXTMAX
 10
198.589751797698
 20
183.8409889752553
 30
0.0
  9
$LIMMIN
 10
0.0
 20
0.0
  9
$LIMMAX
 10
375.0
 20
270.0
  9
$ORTHOMODE
 70
     1
  9
$REGENMODE
 70
     1
  9
$FILLMODE
 70
     1
  9
$QTEXTMODE
 70
     0
  9
$MIRRTEXT
 70
     0
  9
$DRAGMODE
 70
     2
  9
$LTSCALE
 40
10.0
  9
$OSMODE
 70
  3071
  9
$ATTMODE
 70
     1
  9
$TEXTSIZE
 40
5.0
  9
$TRACEWID
 40
0.05
  9
$TEXTSTYLE
  7
STANDARD
  9
$CLAYER
  8
0
  9
$CELTYPE
  6
BYLAYER
  9
$CECOLOR
 62
   256
  9
$DIMSCALE
 40
1.0
  9
$DIMASZ
 40
3.0
  9
$DIMEXO
 40
2.0
  9
$DIMDLI
 40
0.38
  9
$DIMRND
 40
0.0
  9
$DIMDLE
 40
0.0
  9
$DIMEXE
 40
2.0
  9
$DIMTP
 40
0.0
  9
$DIMTM
 40
0.0
  9
$DIMTXT
 40
3.2000000000000002
  9
$DIMCEN
 40
0.0
  9
$DIMTSZ
 40
0.0
  9
$DIMTOL
 70
     0
  9
$DIMLIM
 70
     0
  9
$DIMTIH
 70
     0
  9
$DIMTOH
 70
     0
  9
$DIMSE1
 70
     0
  9
$DIMSE2
 70
     0
  9
$DIMTAD
 70
     1
  9
$DIMZIN
 70
     0
  9
$DIMBLK
  1

  9
$DIMASO
 70
     1
  9
$DIMSHO
 70
     0
  9
$DIMPOST
  1

  9
$DIMAPOST
  1

  9
$DIMALT
 70
     0
  9
$DIMALTD
 70
     2
  9
$DIMALTF
 40
25.399999999999999
  9
$DIMLFAC
 40
1.0
  9
$DIMTOFL
 70
     1
  9
$DIMTVP
 40
1.6000000000000001
  9
$DIMTIX
 70
     1
  9
$DIMSOXD
 70
     0
  9
$DIMSAH
 70
     0
  9
$DIMBLK1
  1

  9
$DIMBLK2
  1

  9
$DIMSTYLE
  2
STANDARD
  9
$DIMCLRD
 70
     0
  9
$DIMCLRE
 70
     0
  9
$DIMCLRT
 70
     0
  9
$DIMTFAC
 40
1.0
  9
$DIMGAP
 40
0.09
  9
$LUNITS
 70
     2
  9
$LUPREC
 70
     4
  9
$SKETCHINC
 40
0.1
  9
$FILLETRAD
 40
0.0
  9
$AUNITS
 70
     0
  9
$AUPREC
 70
     4
  9
$MENU
  1
E:\r13\win\SUPPORT\ACAD
  9
$ELEVATION
 40
0.0
  9
$PELEVATION
 40
0.0
  9
$THICKNESS
 40
0.0
  9
$LIMCHECK
 70
     0
  9
$BLIPMODE
 70
     0
  9
$CHAMFERA
 40
0.0
  9
$CHAMFERB
 40
0.0
  9
$SKPOLY
 70
     0
  9
$TDCREATE
 40
2449839.783958334
  9
$TDUPDATE
 40
2456598.6413334608
  9
$TDINDWG
 40
0.0551817361
  9
$TDUSRTIMER
 40
0.0551817361
  9
$USRTIMER
 70
     1
  9
$ANGBASE
 50
0.0
  9
$ANGDIR
 70
     0
  9
$PDMODE
 70
     0
  9
$PDSIZE
 40
0.0
  9
$PLINEWID
 40
0.0
  9
$COORDS
 70
     1
  9
$SPLFRAME
 70
     0
  9
$SPLINETYPE
 70
     6
  9
$SPLINESEGS
 70
     8
  9
$ATTDIA
 70
     0
  9
$ATTREQ
 70
     1
  9
$HANDLING
 70
     1
  9
$HANDSEED
  5
27EC
  9
$SURFTAB1
 70
     6
  9
$SURFTAB2
 70
     6
  9
$SURFTYPE
 70
     6
  9
$SURFU
 70
     6
  9
$SURFV
 70
     6
  9
$UCSNAME
  2

  9
$UCSORG
 10
0.0
 20
0.0
 30
0.0
  9
$UCSXDIR
 10
1.0
 20
0.0
 30
0.0
  9
$UCSYDIR
 10
0.0
 20
1.0
 30
0.0
  9
$PUCSNAME
  2

  9
$PUCSORG
 10
0.0
 20
0.0
 30
0.0
  9
$PUCSXDIR
 10
1.0
 20
0.0
 30
0.0
  9
$PUCSYDIR
 10
0.0
 20
1.0
 30
0.0
  9
$USERI1
 70
     0
  9
$USERI2
 70
     1
  9
$USERI3
 70
     1
  9
$USERI4
 70
     0
  9
$USERI5
 70
     0
  9
$USERR1
 40
0.0
  9
$USERR2
 40
0.0
  9
$USERR3
 40
0.0
  9
$USERR4
 40
0.0
  9
$USERR5
 40
0.0
  9
$WORLDVIEW
 70
     1
  9
$SHADEDGE
 70
     3
  9
$SHADEDIF
 70
    70
  9
$TILEMODE
 70
     1
  9
$MAXACTVP
 70
    16
  9
$PLIMCHECK
 70
     0
  9
$PEXTMIN
 10
1.0000000000000000E+020
 20
1.0000000000000000E+020
 30
1.0000000000000000E+020
  9
$PEXTMAX
 10
-1.0000000000000000E+020
 20
-1.0000000000000000E+020
 30
-1.0000000000000000E+020
  9
$PLIMMIN
 10
0.0
 20
0.0
  9
$PLIMMAX
 10
12.0
 20
9.0
  9
$UNITMODE
 70
     0
  9
$VISRETAIN
 70
     0
  9
$PLINEGEN
 70
     0
  9
$PSLTSCALE
 70
     0
  0
ENDSEC
  0
SECTION
  2
TABLES
  0
TABLE
  2
VPORT
 70
     1
  0
VPORT
  2
*ACTIVE
 70
     0
 10
0.0
 20
0.0
 11
1.0
 21
1.0
 12
195.0581083320873
 22
133.5127261426681
 13
0.0
 23
0.0
 14
10.0
 24
10.0
 15
10.0
 25
10.0
 16
0.0
 26
0.0
 36
1.0
 17
0.0
 27
0.0
 37
0.0
 40
275.42274993631997
 41
1.831871345029239
 42
50.0
 43
0.0
 44
0.0
 50
0.0
 51
0.0
 71
     0
 72
   500
 73
     1
 74
     0
 75
     0
 76
     0
 77
     0
 78
     2
  0
ENDTAB
  0
TABLE
  2
LTYPE
 70
     4
  0
LTYPE
  2
CONTINUOUS
 70
     0
  3
Solid Line
 72
    65
 73
     0
 40
0.0
  0
LTYPE
  2
CENTER
 70
     0
  3
____ _ ____ _ ____ _ ____ _ ____ _ ____ _ ____
 72
    65
 73
     4
 40
2.0
 49
1.25
 49
-0.25
 49
0.25
 49
-0.25
  0
LTYPE
  2
HIDDEN
 70
     0
  3
_ _ _ _ _ _ _ _ _ _ _ _ _ _ _ _ _ _ _ _ _ _ _
 72
    65
 73
     2
 40
0.375
 49
0.25
 49
-0.125
  0
LTYPE
  2
PHANTOM2
 70
     0
  3
___ _ _ ___ _ _ ___ _ _ ___ _ _
 72
    65
 73
     6
 40
1.25
 49
0.625
 49
-0.125
 49
0.125
 49
-0.125
 49
0.125
 49
-0.125
  0
ENDTAB
  0
TABLE
  2
LAYER
 70
     4
  0
LAYER
  2
0
 70
     0
 62
     7
  6
CONTINUOUS
  0
LAYER
  2
1
 70
     0
 62
     1
  6
CENTER
  0
LAYER
  2
2
 70
     0
 62
     2
  6
HIDDEN
  0
LAYER
  2
DEFPOINTS
 70
     0
 62
     7
  6
CONTINUOUS
  0
ENDTAB
  0
TABLE
  2
STYLE
 70
     2
  0
STYLE
  2
STANDARD
 70
     0
 40
0.0
 41
1.0
 50
0.0
 71
     0
 42
5.0
  3
TXT
  4
BIGFONT
  0
STYLE
  2
STANDARD1
 70
     0
 40
0.0
 41
1.0
 50
0.0
 71
     0
 42
3.0
  3
txt
  4

  0
ENDTAB
  0
TABLE
  2
VIEW
 70
     1
  0
VIEW
  2
ALL
 70
     0
 40
270.0
 10
220.99159663865549
 20
135.0
 41
0.0
 11
0.0
 21
0.0
 31
1.0
 12
0.0
 22
0.0
 32
0.0
 42
0.0
 43
0.0
 44
0.0
 50
0.0
 71
     0
  0
ENDTAB
  0
TABLE
  2
UCS
 70
     0
  0
ENDTAB
  0
TABLE
  2
APPID
 70
     6
  0
APPID
  2
ACAD
 70
     0
  0
APPID
  2
GENIUS_GENODEF_13
 70
     0
  0
APPID
  2
GENIUS_GENOBJ-N-FIL_13
 70
     0
  0
APPID
  2
GENIUS_GENOREF_13
 70
     0
  0
APPID
  2
ACAD_MLEADERVER
 70
     0
  0
APPID
  2
ACAD_NAV_VCDISPLAY
 70
     0
  0
ENDTAB
  0
TABLE
  2
DIMSTYLE
 70
     1
  0
DIMSTYLE
  2
STANDARD
 70
     0
  3

  4

  5

  6

  7

 40
1.0
 41
0.18
 42
0.0625
 43
0.38
 44
0.18
 45
0.0
 46
0.0
 47
0.0
 48
0.0
140
0.18
141
0.09
142
0.0
143
25.399999999999999
144
1.0
145
0.0
146
1.0
147
0.09
 71
     0
 72
     0
 73
     1
 74
     1
 75
     0
 76
     0
 77
     0
 78
     0
170
     0
171
     2
172
     0
173
     0
174
     0
175
     0
176
     0
177
     0
178
     0
  0
ENDTAB
  0
ENDSEC
  0
SECTION
  2
BLOCKS
  0
BLOCK
  8
0
  2
$MODEL_SPACE
 70
     0
 10
0.0
 20
0.0
 30
0.0
  3
$MODEL_SPACE
  1

  0
ENDBLK
  5
163B
  8
0
  0
BLOCK
 67
     1
  8
0
  2
$PAPER_SPACE
 70
     0
 10
0.0
 20
0.0
 30
0.0
  3
$PAPER_SPACE
  1

  0
ENDBLK
  5
1639
 67
     1
  8
0
  0
ENDSEC
  0
SECTION
  2
ENTITIES
  0
LINE
  5
172C
  8
1
 10
109.0951814166457
 20
153.8409889752553
 30
0.0
 11
39.095181416645687
 21
153.8409889752553
 31
0.0
  0
LINE
  5
172D
  8
2
 10
44.095181416645687
 20
149.8409889752553
 30
0.0
 11
64.095181416645687
 21
149.8409889752553
 31
0.0
  0
LINE
  5
172E
  8
2
 10
44.095181416645687
 20
157.8409889752553
 30
0.0
 11
64.095181416645687
 21
157.8409889752553
 31
0.0
  0
LINE
  5
1730
  8
2
 10
63.418681416645711
 20
157.1644889752553
 30
0.0
 11
63.418681416645711
 21
150.51748897525519
 31
0.0
  0
LINE
  5
1731
  8
2
 10
44.77168141664572
 20
157.1644889752553
 30
0.0
 11
44.77168141664572
 21
150.5174889752553
 31
0.0
  0
POLYLINE
  5
1733
  8
0
 66
     1
 10
0.0
 20
0.0
 30
0.0
  0
VERTEX
  5
1B24
  8
0
 10
83.215181416645734
 20
154.18727820045481
 30
0.0
  0
VERTEX
  5
1B25
  8
0
 10
83.643486765532487
 20
154.18513599358411
 30
0.0
  0
VERTEX
  5
1B26
  8
0
 10
84.499159988634062
 20
154.1679588534796
 30
0.0
  0
VERTEX
  5
1B27
  8
0
 10
85.351941870857786
 20
154.1333977107812
 30
0.0
  0
VERTEX
  5
1B28
  8
0
 10
85.776823518609277
 20
154.1094658896283
 30
0.0
  0
VERTEX
  5
1B29
  8
0
 10
86.201097640621924
 20
154.08095145752719
 30
0.0
  0
VERTEX
  5
1B2A
  8
0
 10
87.046818183861944
 20
154.00970899923331
 30
0.0
  0
VERTEX
  5
1B2B
  8
0
 10
87.886780960604028
 20
153.91862109983779
 30
0.0
  0
VERTEX
  5
1B2C
  8
0
 10
88.718606385581595
 20
153.8064135230662
 30
0.0
  0
VERTEX
  5
1B2D
  8
0
 10
89.539912185293375
 20
153.6715597245128
 30
0.0
  0
VERTEX
  5
1B2E
  8
0
 10
90.343239435281362
 20
153.51333496307399
 30
0.0
  0
VERTEX
  5
1B2F
  8
0
 10
90.732672089020355
 20
153.4260899754147
 30
0.0
  0
VERTEX
  5
1B30
  8
0
 10
91.113539816832699
 20
153.33339730801211
 30
0.0
  0
VERTEX
  5
1B31
  8
0
 10
91.849072051048665
 20
153.1314334618807
 30
0.0
  0
VERTEX
  5
1B32
  8
0
 10
92.548811506974744
 20
152.90693429697049
 30
0.0
  0
VERTEX
  5
1B33
  8
0
 10
93.21170916906442
 20
152.6593345782166
 30
0.0
  0
VERTEX
  5
1B34
  8
0
 10
93.836669227326126
 20
152.38801411618689
 30
0.0
  0
VERTEX
  5
1B35
  8
0
 10
94.426558789282126
 20
152.09008936423339
 30
0.0
  0
VERTEX
  5
1B36
  8
0
 10
94.712381410278113
 20
151.9279730939422
 30
0.0
  0
VERTEX
  5
1B37
  8
0
 10
94.759372673743201
 20
151.90005285044791
 30
0.0
  0
VERTEX
  5
1B38
  8
0
 10
94.852762260469035
 20
151.84342870095799
 30
0.0
  0
VERTEX
  5
1B39
  8
0
 10
94.945332236702725
 20
151.78575107613901
 30
0.0
  0
VERTEX
  5
1B3A
  8
0
 10
94.991299011997796
 20
151.75651396771619
 30
0.0
  0
VERTEX
  5
1B3B
  8
0
 10
95.037047866285079
 20
151.72700958653169
 30
0.0
  0
VERTEX
  5
1B3C
  8
0
 10
95.127874507155397
 20
151.66719373627501
 30
0.0
  0
VERTEX
  5
1B3D
  8
0
 10
95.217777596305382
 20
151.6062929043122
 30
0.0
  0
VERTEX
  5
1B3E
  8
0
 10
95.306722631618356
 20
151.54429632461751
 30
0.0
  0
VERTEX
  5
1B3F
  8
0
 10
95.394675150328396
 20
151.4811930655674
 30
0.0
  0
VERTEX
  5
1B40
  8
0
 10
95.481600703819765
 20
151.4169720086123
 30
0.0
  0
VERTEX
  5
1B41
  8
0
 10
95.524667600197446
 20
151.3844387748959
 30
0.0
  0
VERTEX
  5
1B42
  8
0
 10
95.567464828477398
 20
151.3516218264493
 30
0.0
  0
VERTEX
  5
1B43
  8
0
 10
95.652233012291617
 20
151.28513096094301
 30
0.0
  0
VERTEX
  5
1B44
  8
0
 10
95.735870656917584
 20
151.21748760109261
 30
0.0
  0
VERTEX
  5
1B45
  8
0
 10
95.818343034893815
 20
151.14867966140329
 30
0.0
  0
VERTEX
  5
1B46
  8
0
 10
95.899615241732604
 20
151.0786947610809
 30
0.0
  0
VERTEX
  5
1B47
  8
0
 10
95.979652142615578
 20
151.007520204538
 30
0.0
  0
VERTEX
  5
1B48
  8
0
 10
96.019196296325845
 20
150.9714827473513
 30
0.0
  0
VERTEX
  5
1B49
  8
0
 10
96.058418313453004
 20
150.9351429637714
 30
0.0
  0
VERTEX
  5
1B4A
  8
0
 10
96.135877976107395
 20
150.8615496632481
 30
0.0
  0
VERTEX
  5
1B4B
  8
0
 10
96.211994927631963
 20
150.7867265680145
 30
0.0
  0
VERTEX
  5
1B4C
  8
0
 10
96.249538438358627
 20
150.74884945489569
 30
0.0
  0
SEQEND
  5
1B4D
  8
0
  0
POLYLINE
  5
1734
  8
0
 66
     1
 10
0.0
 20
0.0
 30
0.0
  0
VERTEX
  5
1B4E
  8
0
 10
70.787355970045724
 20
151.2924665163462
 30
0.0
  0
VERTEX
  5
1B4F
  8
0
 10
70.828895498694692
 20
151.32519290159379
 30
0.0
  0
VERTEX
  5
1B50
  8
0
 10
70.912773816135541
 20
151.38981943641929
 30
0.0
  0
VERTEX
  5
1B51
  8
0
 10
70.997692317974384
 20
151.4533547258815
 30
0.0
  0
VERTEX
  5
1B52
  8
0
 10
71.040532126342271
 20
151.48471698775009
 30
0.0
  0
VERTEX
  5
1B53
  8
0
 10
71.083620589273721
 20
151.51581100503091
 30
0.0
  0
VERTEX
  5
1B54
  8
0
 10
71.170528383212627
 20
151.57720023989501
 30
0.0
  0
VERTEX
  5
1B55
  8
0
 10
71.258385582985568
 20
151.6375341436887
 30
0.0
  0
VERTEX
  5
1B56
  8
0
 10
71.572929438723065
 20
151.84055584416831
 30
0.0
  0
VERTEX
  5
1B57
  8
0
 10
72.134652809461954
 20
152.16018697695529
 30
0.0
  0
VERTEX
  5
1B58
  8
0
 10
72.424484529865026
 20
152.3071283294893
 30
0.0
  0
VERTEX
  5
1B59
  8
0
 10
72.719315757515005
 20
152.4458960647741
 30
0.0
  0
VERTEX
  5
1B5A
  8
0
 10
73.324819730228214
 20
152.7015583437975
 30
0.0
  0
VERTEX
  5
1B5B
  8
0
 10
73.949136222788866
 20
152.93015864295171
 30
0.0
  0
VERTEX
  5
1B5C
  8
0
 10
74.588765226556461
 20
153.13365108402809
 30
0.0
  0
VERTEX
  5
1B5D
  8
0
 10
75.240195094585815
 20
153.31381533429311
 30
0.0
  0
VERTEX
  5
1B5E
  8
0
 10
75.906349923686776
 20
153.47374612480681
 30
0.0
  0
VERTEX
  5
1B5F
  8
0
 10
76.248267395189828
 20
153.5473422693612
 30
0.0
  0
VERTEX
  5
1B60
  8
0
 10
76.59594824838274
 20
153.6167702828385
 30
0.0
  0
VERTEX
  5
1B61
  8
0
 10
77.308048643934043
 20
153.74330199200151
 30
0.0
  0
VERTEX
  5
1B62
  8
0
 10
78.041552553097503
 20
153.85367418228341
 30
0.0
  0
VERTEX
  5
1B63
  8
0
 10
78.795367351642312
 20
153.9481640049226
 30
0.0
  0
VERTEX
  5
1B64
  8
0
 10
79.568404764698244
 20
154.0269737025057
 30
0.0
  0
VERTEX
  5
1B65
  8
0
 10
80.359578873746557
 20
154.09020913053789
 30
0.0
  0
VERTEX
  5
1B66
  8
0
 10
80.761627828457975
 20
154.1159873501098
 30
0.0
  0
VERTEX
  5
1B67
  8
0
 10
81.167751293017758
 20
154.13785313451319
 30
0.0
  0
VERTEX
  5
1B68
  8
0
 10
81.984947234082085
 20
154.16954807141991
 30
0.0
  0
VERTEX
  5
1B69
  8
0
 10
82.804800108345603
 20
154.18531160987621
 30
0.0
  0
VERTEX
  5
1B6A
  8
0
 10
83.215181416645734
 20
154.18727820045481
 30
0.0
  0
SEQEND
  5
1B6B
  8
0
  0
POLYLINE
  5
1735
  8
0
 66
     1
 10
0.0
 20
0.0
 30
0.0
  0
VERTEX
  5
1B6C
  8
0
 10
70.787355970045667
 20
143.18517307029919
 30
0.0
  0
VERTEX
  5
1B6D
  8
0
 10
70.586359262568521
 20
143.39109499943959
 30
0.0
  0
VERTEX
  5
1B6E
  8
0
 10
70.197845310198545
 20
143.81715282065531
 30
0.0
  0
VERTEX
  5
1B6F
  8
0
 10
69.833334041016087
 20
144.2609008565932
 30
0.0
  0
VERTEX
  5
1B70
  8
0
 10
69.662341999846944
 20
144.48893633812719
 30
0.0
  0
VERTEX
  5
1B71
  8
0
 10
69.634666145742528
 20
144.52732218619039
 30
0.0
  0
VERTEX
  5
1B72
  8
0
 10
69.580057299759574
 20
144.60441163838061
 30
0.0
  0
VERTEX
  5
1B73
  8
0
 10
69.526465807791396
 20
144.6819202597961
 30
0.0
  0
VERTEX
  5
1B74
  8
0
 10
69.500061177638031
 20
144.72083078464919
 30
0.0
  0
VERTEX
  5
1B75
  8
0
 10
69.473922883419505
 20
144.7598442702371
 30
0.0
  0
VERTEX
  5
1B76
  8
0
 10
69.422462188884992
 20
144.83817637219201
 30
0.0
  0
VERTEX
  5
1B77
  8
0
 10
69.372117469771865
 20
144.91690900992469
 30
0.0
  0
VERTEX
  5
1B78
  8
0
 10
69.322922419944632
 20
144.99603454086011
 30
0.0
  0
VERTEX
  5
1B79
  8
0
 10
69.274910667574659
 20
145.0755452330632
 30
0.0
  0
VERTEX
  5
1B7A
  8
0
 10
69.228115759927732
 20
145.15543326374839
 30
0.0
  0
VERTEX
  5
1B7B
  8
0
 10
69.205185080251283
 20
145.19551631146999
 30
0.0
  0
VERTEX
  5
1B7C
  8
0
 10
69.182571146919713
 20
145.2356907190356
 30
0.0
  0
VERTEX
  5
1B7D
  8
0
 10
69.138310163474713
 20
145.3163095951862
 30
0.0
  0
VERTEX
  5
1B7E
  8
0
 10
69.095366010754447
 20
145.39728180156831
 30
0.0
  0
VERTEX
  5
1B7F
  8
0
 10
69.053771736368503
 20
145.4785991656131
 30
0.0
  0
VERTEX
  5
1B80
  8
0
 10
69.013560213723395
 20
145.5602534400285
 30
0.0
  0
VERTEX
  5
1B81
  8
0
 10
68.974764120720806
 20
145.64223631253921
 30
0.0
  0
VERTEX
  5
1B82
  8
0
 10
68.955907013388071
 20
145.6833483607457
 30
0.0
  0
VERTEX
  5
1B83
  8
0
 10
68.937415918075033
 20
145.7245394184078
 30
0.0
  0
VERTEX
  5
1B84
  8
0
 10
68.901547827584182
 20
145.8071543559785
 30
0.0
  0
VERTEX
  5
1B85
  8
0
 10
68.867191810756538
 20
145.89007270544499
 30
0.0
  0
VERTEX
  5
1B86
  8
0
 10
68.834379548263314
 20
145.97328605100381
 30
0.0
  0
VERTEX
  5
1B87
  8
0
 10
68.803142416798892
 20
146.0567860173602
 30
0.0
  0
VERTEX
  5
1B88
  8
0
 10
68.773511448646673
 20
146.14056436971401
 30
0.0
  0
VERTEX
  5
1B89
  8
0
 10
68.759307901626073
 20
146.1825553416499
 30
0.0
  0
VERTEX
  5
1B8A
  8
0
 10
68.745517420029557
 20
146.2246127535912
 30
0.0
  0
VERTEX
  5
1B8B
  8
0
 10
68.719190883405702
 20
146.30892251376221
 30
0.0
  0
VERTEX
  5
1B8C
  8
0
 10
68.694562123230185
 20
146.3934847030358
 30
0.0
  0
VERTEX
  5
1B8D
  8
0
 10
68.671661109597153
 20
146.47829010037461
 30
0.0
  0
VERTEX
  5
1B8E
  8
0
 10
68.650517451957057
 20
146.5633292352222
 30
0.0
  0
VERTEX
  5
1B8F
  8
0
 10
68.631160353894813
 20
146.64859241828691
 30
0.0
  0
VERTEX
  5
1B90
  8
0
 10
68.622160769185371
 20
146.6913049492382
 30
0.0
  0
VERTEX
  5
1B91
  8
0
 10
68.613618570063409
 20
146.73406977886401
 30
0.0
  0
VERTEX
  5
1B92
  8
0
 10
68.597920366452797
 20
146.81975130859709
 30
0.0
  0
VERTEX
  5
1B93
  8
0
 10
68.584093485222922
 20
146.90562691136529
 30
0.0
  0
VERTEX
  5
1B94
  8
0
 10
68.572165115342045
 20
146.99168645875699
 30
0.0
  0
VERTEX
  5
1B95
  8
0
 10
68.562161870229545
 20
147.07791985035641
 30
0.0
  0
VERTEX
  5
1B96
  8
0
 10
68.554109773513574
 20
147.16431707783141
 30
0.0
  0
VERTEX
  5
1B97
  8
0
 10
68.550823375446896
 20
147.2075740439723
 30
0.0
  0
VERTEX
  5
1B98
  8
0
 10
68.548034253866149
 20
147.25086829159531
 30
0.0
  0
VERTEX
  5
1B99
  8
0
 10
68.543960149676309
 20
147.337563868617
 30
0.0
  0
VERTEX
  5
1B9A
  8
0
 10
68.541911724073429
 20
147.42439447980561
 30
0.0
  0
VERTEX
  5
1B9B
  8
0
 10
68.541654571753952
 20
147.4678576043809
 30
0.0
  0
VERTEX
  5
1B9C
  8
0
 10
68.541911724073429
 20
147.51126970295491
 30
0.0
  0
VERTEX
  5
1B9D
  8
0
 10
68.543960149676309
 20
147.59769383921761
 30
0.0
  0
VERTEX
  5
1B9E
  8
0
 10
68.548034253866149
 20
147.68358091847051
 30
0.0
  0
VERTEX
  5
1B9F
  8
0
 10
68.550823375446896
 20
147.7263216232063
 30
0.0
  0
VERTEX
  5
1BA0
  8
0
 10
68.554109773513574
 20
147.76892630513899
 30
0.0
  0
VERTEX
  5
1BA1
  8
0
 10
68.562161870229545
 20
147.85372512692399
 30
0.0
  0
VERTEX
  5
1BA2
  8
0
 10
68.572165115342045
 20
147.9379723476975
 30
0.0
  0
VERTEX
  5
1BA3
  8
0
 10
68.584093485222922
 20
148.02166283882889
 30
0.0
  0
VERTEX
  5
1BA4
  8
0
 10
68.597920366452797
 20
148.1047914474604
 30
0.0
  0
VERTEX
  5
1BA5
  8
0
 10
68.613618570063409
 20
148.18735306045369
 30
0.0
  0
VERTEX
  5
1BA6
  8
0
 10
68.622160769185371
 20
148.2284196711289
 30
0.0
  0
VERTEX
  5
1BA7
  8
0
 10
68.631160353894813
 20
148.2693426629607
 30
0.0
  0
VERTEX
  5
1BA8
  8
0
 10
68.650517451957057
 20
148.3507553908178
 30
0.0
  0
VERTEX
  5
1BA9
  8
0
 10
68.671661109597153
 20
148.4315865762166
 30
0.0
  0
VERTEX
  5
1BAA
  8
0
 10
68.694562123230185
 20
148.51183178634511
 30
0.0
  0
VERTEX
  5
1BAB
  8
0
 10
68.719190883405702
 20
148.5914868549205
 30
0.0
  0
VERTEX
  5
1BAC
  8
0
 10
68.745517420029557
 20
148.67054790673441
 30
0.0
  0
VERTEX
  5
1BAD
  8
0
 10
68.759307901626073
 20
148.70985454946711
 30
0.0
  0
VERTEX
  5
1BAE
  8
0
 10
68.773511448646673
 20
148.7490113755016
 30
0.0
  0
VERTEX
  5
1BAF
  8
0
 10
68.803142416798892
 20
148.8268740154401
 30
0.0
  0
VERTEX
  5
1BB0
  8
0
 10
68.834379548263314
 20
148.90413290390529
 30
0.0
  0
VERTEX
  5
1BB1
  8
0
 10
68.867191810756538
 20
148.98078526939969
 30
0.0
  0
VERTEX
  5
1BB2
  8
0
 10
68.901547827584182
 20
149.0568282517311
 30
0.0
  0
VERTEX
  5
1BB3
  8
0
 10
68.937415918075033
 20
149.13225899659511
 30
0.0
  0
VERTEX
  5
1BB4
  8
0
 10
68.955907013388071
 20
149.16974389846521
 30
0.0
  0
VERTEX
  5
1BB5
  8
0
 10
68.974764120720806
 20
149.20707469009139
 30
0.0
  0
VERTEX
  5
1BB6
  8
0
 10
69.013560213723395
 20
149.28127257936481
 30
0.0
  0
VERTEX
  5
1BB7
  8
0
 10
69.053771736368503
 20
149.3548499896518
 30
0.0
  0
VERTEX
  5
1BB8
  8
0
 10
69.095366010754447
 20
149.42780433797901
 30
0.0
  0
VERTEX
  5
1BB9
  8
0
 10
69.138310163474713
 20
149.50013314379541
 30
0.0
  0
VERTEX
  5
1BBA
  8
0
 10
69.182571146919713
 20
149.57183403683931
 30
0.0
  0
VERTEX
  5
1BBB
  8
0
 10
69.205185080251283
 20
149.60744830689879
 30
0.0
  0
VERTEX
  5
1BBC
  8
0
 10
69.228115759927732
 20
149.64290476254831
 30
0.0
  0
VERTEX
  5
1BBD
  8
0
 10
69.274910667574659
 20
149.71334318531939
 30
0.0
  0
VERTEX
  5
1BBE
  8
0
 10
69.322922419944632
 20
149.7831472899162
 30
0.0
  0
VERTEX
  5
1BBF
  8
0
 10
69.372117469771865
 20
149.8523151813055
 30
0.0
  0
VERTEX
  5
1BC0
  8
0
 10
69.422462188885049
 20
149.9208450831841
 30
0.0
  0
VERTEX
  5
1BC1
  8
0
 10
69.473922883419505
 20
149.98873533543829
 30
0.0
  0
VERTEX
  5
1BC2
  8
0
 10
69.500061177638031
 20
150.02244010512081
 30
0.0
  0
VERTEX
  5
1BC3
  8
0
 10
69.526465807791396
 20
150.05598439075149
 30
0.0
  0
VERTEX
  5
1BC4
  8
0
 10
69.580057299759574
 20
150.122590960395
 30
0.0
  0
VERTEX
  5
1BC5
  8
0
 10
69.634666145742528
 20
150.18855679285579
 30
0.0
  0
VERTEX
  5
1BC6
  8
0
 10
69.662341999846944
 20
150.22129954143469
 30
0.0
  0
VERTEX
  5
1BC7
  8
0
 10
69.833334041016087
 20
150.4143857998491
 30
0.0
  0
VERTEX
  5
1BC8
  8
0
 10
70.197845310198545
 20
150.78314842468231
 30
0.0
  0
VERTEX
  5
1BC9
  8
0
 10
70.586359262568521
 20
151.1285597865444
 30
0.0
  0
VERTEX
  5
1BCA
  8
0
 10
70.787355970045724
 20
151.2924665163462
 30
0.0
  0
SEQEND
  5
1BCB
  8
0
  0
POLYLINE
  5
1736
  8
0
 66
     1
 10
0.0
 20
0.0
 30
0.0
  0
VERTEX
  5
1BCC
  8
0
 10
83.215181416645734
 20
138.98130601502831
 30
0.0
  0
VERTEX
  5
1BCD
  8
0
 10
82.794452137278384
 20
138.98488052101419
 30
0.0
  0
VERTEX
  5
1BCE
  8
0
 10
81.953149201317274
 20
139.01353121323999
 30
0.0
  0
VERTEX
  5
1BCF
  8
0
 10
81.113606009123487
 20
139.0710155328143
 30
0.0
  0
VERTEX
  5
1BD0
  8
0
 10
80.69507618179324
 20
139.11065231752039
 30
0.0
  0
VERTEX
  5
1BD1
  8
0
 10
80.277684501343856
 20
139.15760729762769
 30
0.0
  0
VERTEX
  5
1BD2
  8
0
 10
79.44757092097808
 20
139.27362251619769
 30
0.0
  0
VERTEX
  5
1BD3
  8
0
 10
78.634123798178052
 20
139.41772641507339
 30
0.0
  0
VERTEX
  5
1BD4
  8
0
 10
77.842868663459171
 20
139.58852083325959
 30
0.0
  0
VERTEX
  5
1BD5
  8
0
 10
77.075110772652295
 20
139.78518083058259
 30
0.0
  0
VERTEX
  5
1BD6
  8
0
 10
76.332157971175604
 20
140.0069181584517
 30
0.0
  0
VERTEX
  5
1BD7
  8
0
 10
75.9703922941938
 20
140.1269496208968
 30
0.0
  0
VERTEX
  5
1BD8
  8
0
 10
75.615318226983618
 20
140.25296166583561
 30
0.0
  0
VERTEX
  5
1BD9
  8
0
 10
74.92589662622089
 20
140.52254181176119
 30
0.0
  0
VERTEX
  5
1BDA
  8
0
 10
74.265192215681395
 20
140.8148794614402
 30
0.0
  0
VERTEX
  5
1BDB
  8
0
 10
73.634505958556133
 20
141.12917359500111
 30
0.0
  0
VERTEX
  5
1BDC
  8
0
 10
73.036545388247475
 20
141.46376279642479
 30
0.0
  0
VERTEX
  5
1BDD
  8
0
 10
72.473283899029013
 20
141.8170427865316
 30
0.0
  0
VERTEX
  5
1BDE
  8
0
 10
72.204928481457785
 20
142.00035517540809
 30
0.0
  0
VERTEX
  5
1BDF
  8
0
 10
71.945564158164871
 20
142.18793585543941
 30
0.0
  0
VERTEX
  5
1BE0
  8
0
 10
71.454234199063421
 20
142.57536332445471
 30
0.0
  0
VERTEX
  5
1BE1
  8
0
 10
71.000153422715925
 20
142.97825571193681
 30
0.0
  0
VERTEX
  5
1BE2
  8
0
 10
70.787355970045667
 20
143.18517307029919
 30
0.0
  0
SEQEND
  5
1BE3
  8
0
  0
POLYLINE
  5
1737
  8
0
 66
     1
 10
0.0
 20
0.0
 30
0.0
  0
VERTEX
  5
1BE4
  8
0
 10
96.249538438358684
 20
143.85889790600291
 30
0.0
  0
VERTEX
  5
1BE5
  8
0
 10
96.211167989715136
 20
143.8117843053968
 30
0.0
  0
VERTEX
  5
1BE6
  8
0
 10
96.133361907574013
 20
143.7183795219706
 30
0.0
  0
VERTEX
  5
1BE7
  8
0
 10
96.054171291242255
 20
143.6260729615089
 30
0.0
  0
VERTEX
  5
1BE8
  8
0
 10
96.014070110201985
 20
143.58033217071969
 30
0.0
  0
VERTEX
  5
1BE9
  8
0
 10
95.973638760145263
 20
143.53486673800731
 30
0.0
  0
VERTEX
  5
1BEA
  8
0
 10
95.891806725681136
 20
143.4447630829259
 30
0.0
  0
VERTEX
  5
1BEB
  8
0
 10
95.80871745236027
 20
143.35576432619339
 30
0.0
  0
VERTEX
  5
1BEC
  8
0
 10
95.724413112119024
 20
143.26787287407339
 30
0.0
  0
VERTEX
  5
1BED
  8
0
 10
95.638935832170318
 20
143.1810911846724
 30
0.0
  0
VERTEX
  5
1BEE
  8
0
 10
95.552327736775567
 20
143.09542174177599
 30
0.0
  0
VERTEX
  5
1BEF
  8
0
 10
95.508612805303073
 20
143.05300488928219
 30
0.0
  0
VERTEX
  5
1BF0
  8
0
 10
95.464630983339248
 20
143.01086702761151
 30
0.0
  0
VERTEX
  5
1BF1
  8
0
 10
95.375887793229765
 20
142.92742949505001
 30
0.0
  0
VERTEX
  5
1BF2
  8
0
 10
95.286140477723677
 20
142.845111539686
 30
0.0
  0
VERTEX
  5
1BF3
  8
0
 10
95.195431459459655
 20
142.76391547216039
 30
0.0
  0
VERTEX
  5
1BF4
  8
0
 10
95.103803289769303
 20
142.6838434910288
 30
0.0
  0
VERTEX
  5
1BF5
  8
0
 10
95.01129866223323
 20
142.60489765642029
 30
0.0
  0
VERTEX
  5
1BF6
  8
0
 10
94.96473105996489
 20
142.56584764373849
 30
0.0
  0
VERTEX
  5
1BF7
  8
0
 10
94.917960091713667
 20
142.52707959184099
 30
0.0
  0
VERTEX
  5
1BF8
  8
0
 10
94.823754053500735
 20
142.45032938391481
 30
0.0
  0
VERTEX
  5
1BF9
  8
0
 10
94.728654404164786
 20
142.37459811410929
 30
0.0
  0
VERTEX
  5
1BFA
  8
0
 10
94.680778090146759
 20
142.3371135221646
 30
0.0
  0
VERTEX
  5
1BFB
  8
0
 10
94.389165228035779
 20
142.11751511144431
 30
0.0
  0
VERTEX
  5
1BFC
  8
0
 10
93.785874073004834
 20
141.70536396673751
 30
0.0
  0
VERTEX
  5
1BFD
  8
0
 10
93.160741111437517
 20
141.32875131304871
 30
0.0
  0
VERTEX
  5
1BFE
  8
0
 10
92.512249553549282
 20
140.9832741965995
 30
0.0
  0
VERTEX
  5
1BFF
  8
0
 10
91.830536906458008
 20
140.66239919722489
 30
0.0
  0
VERTEX
  5
1C00
  8
0
 10
91.116615983058466
 20
140.36669467918611
 30
0.0
  0
VERTEX
  5
1C01
  8
0
 10
90.747956576401634
 20
140.22851058878939
 30
0.0
  0
VERTEX
  5
1C02
  8
0
 10
90.371697165802686
 20
140.09689954514721
 30
0.0
  0
VERTEX
  5
1C03
  8
0
 10
89.596970622346475
 20
139.85379788972719
 30
0.0
  0
VERTEX
  5
1C04
  8
0
 10
88.793615739926565
 20
139.63822940935751
 30
0.0
  0
VERTEX
  5
1C05
  8
0
 10
87.962808500584075
 20
139.45110526967099
 30
0.0
  0
VERTEX
  5
1C06
  8
0
 10
87.111078468950041
 20
139.2943075006331
 30
0.0
  0
VERTEX
  5
1C07
  8
0
 10
86.251580474443188
 20
139.16983528364
 30
0.0
  0
VERTEX
  5
1C08
  8
0
 10
85.819734543046067
 20
139.1195497100168
 30
0.0
  0
VERTEX
  5
1C09
  8
0
 10
85.386850466830694
 20
139.07713928545911
 30
0.0
  0
VERTEX
  5
1C0A
  8
0
 10
84.519047756870691
 20
139.01570811905751
 30
0.0
  0
VERTEX
  5
1C0B
  8
0
 10
83.650164586455162
 20
138.98512688907849
 30
0.0
  0
VERTEX
  5
1C0C
  8
0
 10
83.215181416645734
 20
138.98130601502831
 30
0.0
  0
SEQEND
  5
1C0D
  8
0
  0
POLYLINE
  5
1738
  8
0
 66
     1
 10
0.0
 20
0.0
 30
0.0
  0
VERTEX
  5
1C0E
  8
0
 10
96.249538438358627
 20
150.74884945489561
 30
0.0
  0
VERTEX
  5
1C0F
  8
0
 10
96.272712037826864
 20
150.72510502550321
 30
0.0
  0
VERTEX
  5
1C10
  8
0
 10
96.318532315572838
 20
150.6771944461178
 30
0.0
  0
VERTEX
  5
1C11
  8
0
 10
96.363645157832266
 20
150.62872150743499
 30
0.0
  0
VERTEX
  5
1C12
  8
0
 10
96.385934469651261
 20
150.60427413532801
 30
0.0
  0
VERTEX
  5
1C13
  8
0
 10
96.408044740754917
 20
150.57968615487741
 30
0.0
  0
VERTEX
  5
1C14
  8
0
 10
96.45172526650947
 20
150.53008835773491
 30
0.0
  0
VERTEX
  5
1C15
  8
0
 10
96.494680960186443
 20
150.4799281056012
 30
0.0
  0
VERTEX
  5
1C16
  8
0
 10
96.536906066165159
 20
150.42920540473759
 30
0.0
  0
VERTEX
  5
1C17
  8
0
 10
96.578394843932074
 20
150.37792027439281
 30
0.0
  0
VERTEX
  5
1C18
  8
0
 10
96.619141563338431
 20
150.3260727431138
 30
0.0
  0
VERTEX
  5
1C19
  8
0
 10
96.63923486202367
 20
150.29993808768489
 30
0.0
  0
VERTEX
  5
1C1A
  8
0
 10
96.659140499288355
 20
150.27366284508321
 30
0.0
  0
VERTEX
  5
1C1B
  8
0
 10
96.698385925848697
 20
150.22069061652019
 30
0.0
  0
VERTEX
  5
1C1C
  8
0
 10
96.736872109775746
 20
150.16715609218781
 30
0.0
  0
VERTEX
  5
1C1D
  8
0
 10
96.774593303456413
 20
150.1130593020479
 30
0.0
  0
VERTEX
  5
1C1E
  8
0
 10
96.811543737262355
 20
150.0584002681106
 30
0.0
  0
VERTEX
  5
1C1F
  8
0
 10
96.847717611320434
 20
150.0031790015247
 30
0.0
  0
VERTEX
  5
1C20
  8
0
 10
96.865511515557728
 20
149.97535753085151
 30
0.0
  0
VERTEX
  5
1C21
  8
0
 10
96.883109086704621
 20
149.9473954999593
 30
0.0
  0
VERTEX
  5
1C22
  8
0
 10
96.917712276057728
 20
149.8910497453262
 30
0.0
  0
VERTEX
  5
1C23
  8
0
 10
96.951521233655455
 20
149.83414170189741
 30
0.0
  0
VERTEX
  5
1C24
  8
0
 10
96.968125998979303
 20
149.80547680553281
 30
0.0
  0
VERTEX
  5
1C25
  8
0
 10
96.984529944926862
 20
149.77667131486919
 30
0.0
  0
VERTEX
  5
1C26
  8
0
 10
97.016732315451179
 20
149.71863850942719
 30
0.0
  0
VERTEX
  5
1C27
  8
0
 10
97.048118420597916
 20
149.6600502955975
 30
0.0
  0
VERTEX
  5
1C28
  8
0
 10
97.063490763797304
 20
149.63057259472481
 30
0.0
  0
VERTEX
  5
1C29
  8
0
 10
97.078645484005065
 20
149.6009792558061
 30
0.0
  0
VERTEX
  5
1C2A
  8
0
 10
97.108300509693777
 20
149.54144780458839
 30
0.0
  0
VERTEX
  5
1C2B
  8
0
 10
97.137080410867043
 20
149.48146026037651
 30
0.0
  0
VERTEX
  5
1C2C
  8
0
 10
97.164982104810903
 20
149.42102099778009
 30
0.0
  0
VERTEX
  5
1C2D
  8
0
 10
97.192002507625716
 20
149.36013444353969
 30
0.0
  0
VERTEX
  5
1C2E
  8
0
 10
97.218138528509712
 20
149.2988050726222
 30
0.0
  0
VERTEX
  5
1C2F
  8
0
 10
97.230873926460845
 20
149.26797574160261
 30
0.0
  0
VERTEX
  5
1C30
  8
0
 10
97.243387063612545
 20
149.23703740449591
 30
0.0
  0
VERTEX
  5
1C31
  8
0
 10
97.267744989473286
 20
149.17483599962441
 30
0.0
  0
VERTEX
  5
1C32
  8
0
 10
97.291209156065975
 20
149.11220545621759
 30
0.0
  0
VERTEX
  5
1C33
  8
0
 10
97.313776379471904
 20
149.0491504072784
 30
0.0
  0
VERTEX
  5
1C34
  8
0
 10
97.335443434204933
 20
148.98567551798311
 30
0.0
  0
VERTEX
  5
1C35
  8
0
 10
97.356207045215925
 20
148.92178548343099
 30
0.0
  0
VERTEX
  5
1C36
  8
0
 10
97.366249020286261
 20
148.8896862616219
 30
0.0
  0
VERTEX
  5
1C37
  8
0
 10
97.376063879604772
 20
148.8574850268015
 30
0.0
  0
VERTEX
  5
1C38
  8
0
 10
97.395010538071233
 20
148.79277889795071
 30
0.0
  0
VERTEX
  5
1C39
  8
0
 10
97.413043546136805
 20
148.72767187248249
 30
0.0
  0
VERTEX
  5
1C3A
  8
0
 10
97.430159345172683
 20
148.6621687513238
 30
0.0
  0
VERTEX
  5
1C3B
  8
0
 10
97.446354283269287
 20
148.59627436083341
 30
0.0
  0
VERTEX
  5
1C3C
  8
0
 10
97.461624605985435
 20
148.5299935534714
 30
0.0
  0
VERTEX
  5
1C3D
  8
0
 10
97.468911832981533
 20
148.4967097672903
 30
0.0
  0
VERTEX
  5
1C3E
  8
0
 10
97.475966447016333
 20
148.4633312090516
 30
0.0
  0
VERTEX
  5
1C3F
  8
0
 10
97.489375818819397
 20
148.39629223659941
 30
0.0
  0
VERTEX
  5
1C40
  8
0
 10
97.501848603240774
 20
148.32888157683189
 30
0.0
  0
VERTEX
  5
1C41
  8
0
 10
97.513373691324205
 20
148.2611462995157
 30
0.0
  0
VERTEX
  5
1C42
  8
0
 10
97.523937454892973
 20
148.1931662498331
 30
0.0
  0
VERTEX
  5
1C43
  8
0
 10
97.533539860742621
 20
148.12495079255891
 30
0.0
  0
VERTEX
  5
1C44
  8
0
 10
97.537980598690766
 20
148.09075732145661
 30
0.0
  0
VERTEX
  5
1C45
  8
0
 10
97.542181041972924
 20
148.05650804771199
 30
0.0
  0
VERTEX
  5
1C46
  8
0
 10
97.549861065193852
 20
147.98784618946141
 30
0.0
  0
VERTEX
  5
1C47
  8
0
 10
97.556579928587951
 20
147.91897344541781
 30
0.0
  0
VERTEX
  5
1C48
  8
0
 10
97.562337560040206
 20
147.84989809606199
 30
0.0
  0
VERTEX
  5
1C49
  8
0
 10
97.567133815350431
 20
147.7806284743055
 30
0.0
  0
VERTEX
  5
1C4A
  8
0
 10
97.570968476540202
 20
147.711172965175
 30
0.0
  0
VERTEX
  5
1C4B
  8
0
 10
97.572525120655314
 20
147.6763781373653
 30
0.0
  0
VERTEX
  5
1C4C
  8
0
 10
97.573841250266824
 20
147.641540005617
 30
0.0
  0
VERTEX
  5
1C4D
  8
0
 10
97.575751766352695
 20
147.5717380844101
 30
0.0
  0
VERTEX
  5
1C4E
  8
0
 10
97.576699576441683
 20
147.50177574217849
 30
0.0
  0
VERTEX
  5
1C4F
  8
0
 10
97.576812304948135
 20
147.46673709632341
 30
0.0
  0
VERTEX
  5
1C50
  8
0
 10
97.576684152787493
 20
147.431661571494
 30
0.0
  0
VERTEX
  5
1C51
  8
0
 10
97.575704887181246
 20
147.3614042170573
 30
0.0
  0
VERTEX
  5
1C52
  8
0
 10
97.573761090022927
 20
147.29101237594389
 30
0.0
  0
VERTEX
  5
1C53
  8
0
 10
97.572427254160615
 20
147.2557687551141
 30
0.0
  0
VERTEX
  5
1C54
  8
0
 10
97.570851989538724
 20
147.2204947979055
 30
0.0
  0
VERTEX
  5
1C55
  8
0
 10
97.566976731147406
 20
147.14986028571059
 30
0.0
  0
VERTEX
  5
1C56
  8
0
 10
97.562134376973518
 20
147.0791176955139
 30
0.0
  0
VERTEX
  5
1C57
  8
0
 10
97.556323905507611
 20
147.00827593724
 30
0.0
  0
VERTEX
  5
1C58
  8
0
 10
97.549545810911695
 20
146.9373596018917
 30
0.0
  0
VERTEX
  5
1C59
  8
0
 10
97.541809733707495
 20
146.86646566930679
 30
0.0
  0
VERTEX
  5
1C5A
  8
0
 10
97.537583979569092
 20
146.8310348908831
 30
0.0
  0
VERTEX
  5
1C5B
  8
0
 10
97.533120300973167
 20
146.79561629018849
 30
0.0
  0
VERTEX
  5
1C5C
  8
0
 10
97.523480781550234
 20
146.72481979377019
 30
0.0
  0
VERTEX
  5
1C5D
  8
0
 10
97.512894323672924
 20
146.6540845488274
 30
0.0
  0
VERTEX
  5
1C5E
  8
0
 10
97.501363962136907
 20
146.58341896605211
 30
0.0
  0
VERTEX
  5
1C5F
  8
0
 10
97.488892625566109
 20
146.51283149997369
 30
0.0
  0
VERTEX
  5
1C60
  8
0
 10
97.47548314374194
 20
146.44233065041971
 30
0.0
  0
VERTEX
  5
1C61
  8
0
 10
97.46842745745063
 20
146.4071153756754
 30
0.0
  0
VERTEX
  5
1C62
  8
0
 10
97.461138254963785
 20
146.37192496350781
 30
0.0
  0
VERTEX
  5
1C63
  8
0
 10
97.445860613404491
 20
146.30162303216849
 30
0.0
  0
VERTEX
  5
1C64
  8
0
 10
97.429652796429195
 20
146.23143349619761
 30
0.0
  0
VERTEX
  5
1C65
  8
0
 10
97.412517311844283
 20
146.1613650418418
 30
0.0
  0
VERTEX
  5
1C66
  8
0
 10
97.394456605042592
 20
146.0914264009235
 30
0.0
  0
VERTEX
  5
1C67
  8
0
 10
97.375473066015218
 20
146.02162634951449
 30
0.0
  0
VERTEX
  5
1C68
  8
0
 10
97.365635967828837
 20
145.98678104907171
 30
0.0
  0
VERTEX
  5
1C69
  8
0
 10
97.355569036197494
 20
145.95197370616859
 30
0.0
  0
VERTEX
  5
1C6A
  8
0
 10
97.334746815119857
 20
145.882477329729
 30
0.0
  0
VERTEX
  5
1C6B
  8
0
 10
97.313008666835117
 20
145.8131461167269
 30
0.0
  0
VERTEX
  5
1C6C
  8
0
 10
97.290356826094296
 20
145.74398899839039
 30
0.0
  0
VERTEX
  5
1C6D
  8
0
 10
97.266793504245868
 20
145.67501493728469
 30
0.0
  0
VERTEX
  5
1C6E
  8
0
 10
97.242320894833085
 20
145.6062329236087
 30
0.0
  0
VERTEX
  5
1C6F
  8
0
 10
97.22974428920844
 20
145.57191675056629
 30
0.0
  0
VERTEX
  5
1C70
  8
0
 10
97.216941178867344
 20
145.53765197117241
 30
0.0
  0
VERTEX
  5
1C71
  8
0
 10
97.190680646619569
 20
145.4693426887788
 30
0.0
  0
VERTEX
  5
1C72
  8
0
 10
97.163570847230076
 20
145.40137985006601
 30
0.0
  0
VERTEX
  5
1C73
  8
0
 10
97.135617890157263
 20
145.3337685505638
 30
0.0
  0
VERTEX
  5
1C74
  8
0
 10
97.106827732696743
 20
145.26651386395679
 30
0.0
  0
VERTEX
  5
1C75
  8
0
 10
97.077206210132317
 20
145.1996208914037
 30
0.0
  0
VERTEX
  5
1C76
  8
0
 10
97.062085480153826
 20
145.1663116501048
 30
0.0
  0
VERTEX
  5
1C77
  8
0
 10
97.046759048115504
 20
145.13309476384049
 30
0.0
  0
VERTEX
  5
1C78
  8
0
 10
97.015491874666111
 20
145.06694064350671
 30
0.0
  0
VERTEX
  5
1C79
  8
0
 10
96.98341023175908
 20
145.00116372472789
 30
0.0
  0
VERTEX
  5
1C7A
  8
0
 10
96.967065695349902
 20
144.968418347956
 30
0.0
  0
VERTEX
  5
1C7B
  8
0
 10
96.950519586467365
 20
144.93576923399851
 30
0.0
  0
VERTEX
  5
1C7C
  8
0
 10
96.916825341634308
 20
144.8707624294037
 30
0.0
  0
VERTEX
  5
1C7D
  8
0
 10
96.882332846051327
 20
144.8061485994275
 30
0.0
  0
VERTEX
  5
1C7E
  8
0
 10
96.864788913335019
 20
144.77399071046179
 30
0.0
  0
VERTEX
  5
1C7F
  8
0
 10
96.847047404121099
 20
144.74193306119
 30
0.0
  0
VERTEX
  5
1C80
  8
0
 10
96.810974284989697
 20
144.6781211581644
 30
0.0
  0
VERTEX
  5
1C81
  8
0
 10
96.77411873113364
 20
144.61471825741759
 30
0.0
  0
VERTEX
  5
1C82
  8
0
 10
96.736485966392991
 20
144.551729746425
 30
0.0
  0
VERTEX
  5
1C83
  8
0
 10
96.698081203441745
 20
144.48916102950599
 30
0.0
  0
VERTEX
  5
1C84
  8
0
 10
96.658909650692635
 20
144.4270175239287
 30
0.0
  0
VERTEX
  5
1C85
  8
0
 10
96.639037956178754
 20
144.39610692080649
 30
0.0
  0
VERTEX
  5
1C86
  8
0
 10
96.618976518634099
 20
144.36530465573
 30
0.0
  0
VERTEX
  5
1C87
  8
0
 10
96.578287025601526
 20
144.30402785529759
 30
0.0
  0
VERTEX
  5
1C88
  8
0
 10
96.536846402985816
 20
144.24319255275771
 30
0.0
  0
VERTEX
  5
1C89
  8
0
 10
96.494659899885733
 20
144.1828041732133
 30
0.0
  0
VERTEX
  5
1C8A
  8
0
 10
96.451732787211995
 20
144.1228681318733
 30
0.0
  0
VERTEX
  5
1C8B
  8
0
 10
96.408070361253465
 20
144.06338982911379
 30
0.0
  0
VERTEX
  5
1C8C
  8
0
 10
96.385965068580731
 20
144.03382401204021
 30
0.0
  0
VERTEX
  5
1C8D
  8
0
 10
96.363677946717132
 20
144.0043746455076
 30
0.0
  0
VERTEX
  5
1C8E
  8
0
 10
96.318560899255544
 20
143.94582793686121
 30
0.0
  0
VERTEX
  5
1C8F
  8
0
 10
96.272724607496457
 20
143.88775502928971
 30
0.0
  0
VERTEX
  5
1C90
  8
0
 10
96.249538438358627
 20
143.85889790600299
 30
0.0
  0
SEQEND
  5
1C91
  8
0
  0
POLYLINE
  5
1739
  8
0
 66
     1
 10
0.0
 20
0.0
 30
0.0
  0
VERTEX
  5
1C92
  8
0
 10
83.215181416645734
 20
130.17386637504251
 30
0.0
  0
VERTEX
  5
1C93
  8
0
 10
83.657552038530014
 20
130.17657728730299
 30
0.0
  0
VERTEX
  5
1C94
  8
0
 10
84.540736320808719
 20
130.19820609588581
 30
0.0
  0
VERTEX
  5
1C95
  8
0
 10
85.421862968051073
 20
130.2413120209697
 30
0.0
  0
VERTEX
  5
1C96
  8
0
 10
85.861621995186155
 20
130.27086542565851
 30
0.0
  0
VERTEX
  5
1C97
  8
0
 10
86.300444355551576
 20
130.3056891291242
 30
0.0
  0
VERTEX
  5
1C98
  8
0
 10
87.174079496197862
 20
130.3908679706409
 30
0.0
  0
VERTEX
  5
1C99
  8
0
 10
88.040371216343601
 20
130.4961424649106
 30
0.0
  0
VERTEX
  5
1C9A
  8
0
 10
88.896907264522838
 20
130.62057206031841
 30
0.0
  0
VERTEX
  5
1C9B
  8
0
 10
89.731892167543663
 20
130.76129891571409
 30
0.0
  0
VERTEX
  5
1C9C
  8
0
 10
90.535242363892337
 20
130.91475325718201
 30
0.0
  0
VERTEX
  5
1C9D
  8
0
 10
90.924560097083415
 20
130.99547575811999
 30
0.0
  0
VERTEX
  5
1C9E
  8
0
 10
91.30537583883347
 20
131.07844129577759
 30
0.0
  0
VERTEX
  5
1C9F
  8
0
 10
92.040710746104864
 20
131.2498274000597
 30
0.0
  0
VERTEX
  5
1CA0
  8
0
 10
92.739668160095377
 20
131.42635123155549
 30
0.0
  0
VERTEX
  5
1CA1
  8
0
 10
93.400673128869471
 20
131.6054451952611
 30
0.0
  0
VERTEX
  5
1CA2
  8
0
 10
94.021793301284902
 20
131.7844449169971
 30
0.0
  0
VERTEX
  5
1CA3
  8
0
 10
94.598526831937065
 20
131.9598892846038
 30
0.0
  0
VERTEX
  5
1CA4
  8
0
 10
94.869702358782263
 20
132.04543750101911
 30
0.0
  0
VERTEX
  5
1CA5
  8
0
 10
95.129283027892939
 20
132.1291485310326
 30
0.0
  0
VERTEX
  5
1CA6
  8
0
 10
95.417335062927904
 20
132.22411511110249
 30
0.0
  0
VERTEX
  5
1CA7
  8
0
 10
95.496687766794025
 20
132.25065809528701
 30
0.0
  0
VERTEX
  5
1CA8
  8
0
 10
95.574722973286896
 20
132.2769205176119
 30
0.0
  0
VERTEX
  5
1CA9
  8
0
 10
95.613245241514903
 20
132.28994346163239
 30
0.0
  0
VERTEX
  5
1CAA
  8
0
 10
95.651436599908934
 20
132.30289260929851
 30
0.0
  0
VERTEX
  5
1CAB
  8
0
 10
95.726824504150215
 20
132.32856469593551
 30
0.0
  0
VERTEX
  5
1CAC
  8
0
 10
95.800882477570553
 20
132.35392719612079
 30
0.0
  0
VERTEX
  5
1CAD
  8
0
 10
95.873606239432533
 20
132.37897061990691
 30
0.0
  0
VERTEX
  5
1CAE
  8
0
 10
95.944991429868239
 20
132.403685567043
 30
0.0
  0
VERTEX
  5
1CAF
  8
0
 10
96.015033602564301
 20
132.42806272500721
 30
0.0
  0
VERTEX
  5
1CB0
  8
0
 10
96.049549642238162
 20
132.4401217463427
 30
0.0
  0
VERTEX
  5
1CB1
  8
0
 10
96.083728216953105
 20
132.45209286682459
 30
0.0
  0
VERTEX
  5
1CB2
  8
0
 10
96.151070629900417
 20
132.47576684866661
 30
0.0
  0
VERTEX
  5
1CB3
  8
0
 10
96.21705608688444
 20
132.49907560723241
 30
0.0
  0
VERTEX
  5
1CB4
  8
0
 10
96.249538438358627
 20
132.51059021683059
 30
0.0
  0
SEQEND
  5
1CB5
  8
0
  0
POLYLINE
  5
173A
  8
0
 66
     1
 10
0.0
 20
0.0
 30
0.0
  0
VERTEX
  5
1CB6
  8
0
 10
70.787355970045724
 20
132.3000311680525
 30
0.0
  0
VERTEX
  5
1CB7
  8
0
 10
70.827619436171062
 20
132.28638935342991
 30
0.0
  0
VERTEX
  5
1CB8
  8
0
 10
70.908889593590857
 20
132.2589823507337
 30
0.0
  0
VERTEX
  5
1CB9
  8
0
 10
70.991125896265487
 20
132.23142472566201
 30
0.0
  0
VERTEX
  5
1CBA
  8
0
 10
71.032597069144515
 20
132.21759458225
 30
0.0
  0
VERTEX
  5
1CBB
  8
0
 10
71.074298649507057
 20
132.20373293948549
 30
0.0
  0
VERTEX
  5
1CBC
  8
0
 10
71.158378235433702
 20
132.1759232401017
 30
0.0
  0
VERTEX
  5
1CBD
  8
0
 10
71.243335085398314
 20
132.1480116643296
 30
0.0
  0
VERTEX
  5
1CBE
  8
0
 10
71.547165952815931
 20
132.04974547743629
 30
0.0
  0
VERTEX
  5
1CBF
  8
0
 10
72.088521751107976
 20
131.8807102007691
 30
0.0
  0
VERTEX
  5
1CC0
  8
0
 10
72.367797725701791
 20
131.79655640740219
 30
0.0
  0
VERTEX
  5
1CC1
  8
0
 10
72.65263899806223
 20
131.71287286781319
 30
0.0
  0
VERTEX
  5
1CC2
  8
0
 10
73.236917150324302
 20
131.548030661448
 30
0.0
  0
VERTEX
  5
1CC3
  8
0
 10
73.83715000409677
 20
131.38826730236161
 30
0.0
  0
VERTEX
  5
1CC4
  8
0
 10
74.458222480630582
 20
131.23322364733781
 30
0.0
  0
VERTEX
  5
1CC5
  8
0
 10
75.107206183318681
 20
131.08241176252179
 30
0.0
  0
VERTEX
  5
1CC6
  8
0
 10
75.782890292327352
 20
130.93759829413909
 30
0.0
  0
VERTEX
  5
1CC7
  8
0
 10
76.130363799574184
 20
130.8679867429083
 30
0.0
  0
VERTEX
  5
1CC8
  8
0
 10
76.484054023136878
 20
130.80052571693551
 30
0.0
  0
VERTEX
  5
1CC9
  8
0
 10
77.20947001068572
 20
130.67290119124871
 30
0.0
  0
VERTEX
  5
1CCA
  8
0
 10
77.957907536833602
 20
130.55638610439939
 30
0.0
  0
VERTEX
  5
1CCB
  8
0
 10
78.728135482984612
 20
130.452586365006
 30
0.0
  0
VERTEX
  5
1CCC
  8
0
 10
79.51892474928809
 20
130.36304349912029
 30
0.0
  0
VERTEX
  5
1CCD
  8
0
 10
80.329012964342269
 20
130.2892294863623
 30
0.0
  0
VERTEX
  5
1CCE
  8
0
 10
80.73888743512839
 20
130.25879623997611
 30
0.0
  0
VERTEX
  5
1CCF
  8
0
 10
81.149939777108671
 20
130.23294429577919
 30
0.0
  0
VERTEX
  5
1CD0
  8
0
 10
81.974699353122318
 20
130.19518230649339
 30
0.0
  0
VERTEX
  5
1CD1
  8
0
 10
82.801534584025134
 20
130.17623667151921
 30
0.0
  0
VERTEX
  5
1CD2
  8
0
 10
83.215181416645734
 20
130.17386637504251
 30
0.0
  0
SEQEND
  5
1CD3
  8
0
  0
POLYLINE
  5
173B
  8
0
 66
     1
 10
0.0
 20
0.0
 30
0.0
  0
VERTEX
  5
1CD4
  8
0
 10
68.54180949956293
 20
133.03571770742849
 30
0.0
  0
VERTEX
  5
1CD5
  8
0
 10
68.542070710759731
 20
133.0356972239066
 30
0.0
  0
VERTEX
  5
1CD6
  8
0
 10
68.542970947526101
 20
133.03553370126929
 30
0.0
  0
VERTEX
  5
1CD7
  8
0
 10
68.544372522791036
 20
133.03520754128161
 30
0.0
  0
VERTEX
  5
1CD8
  8
0
 10
68.545260399438746
 20
133.03498376214051
 30
0.0
  0
VERTEX
  5
1CD9
  8
0
 10
68.546272511026189
 20
133.03471967210169
 30
0.0
  0
VERTEX
  5
1CDA
  8
0
 10
68.548667953009044
 20
133.03407102688459
 30
0.0
  0
VERTEX
  5
1CDB
  8
0
 10
68.551555855011316
 20
133.03326254417249
 30
0.0
  0
VERTEX
  5
1CDC
  8
0
 10
68.56549758256125
 20
133.02918782223591
 30
0.0
  0
VERTEX
  5
1CDD
  8
0
 10
68.602958693947414
 20
133.01779315566739
 30
0.0
  0
VERTEX
  5
1CDE
  8
0
 10
68.627928683964626
 20
133.01006277024251
 30
0.0
  0
VERTEX
  5
1CDF
  8
0
 10
68.656935688330577
 20
133.0010135297598
 30
0.0
  0
VERTEX
  5
1CE0
  8
0
 10
68.726678380076521
 20
132.97907087745349
 30
0.0
  0
VERTEX
  5
1CE1
  8
0
 10
68.811402598183122
 20
132.95219373757959
 30
0.0
  0
VERTEX
  5
1CE2
  8
0
 10
68.910299730807765
 20
132.92061521590071
 30
0.0
  0
VERTEX
  5
1CE3
  8
0
 10
69.02253899327286
 20
132.8845732380023
 30
0.0
  0
VERTEX
  5
1CE4
  8
0
 10
69.147268023692618
 20
132.84431134357999
 30
0.0
  0
VERTEX
  5
1CE5
  8
0
 10
69.214045132293677
 20
132.82267542210329
 30
0.0
  0
VERTEX
  5
1CE6
  8
0
 10
69.283617745150309
 20
132.8000780802615
 30
0.0
  0
VERTEX
  5
1CE7
  8
0
 10
69.430707231518284
 20
132.75212632798011
 30
0.0
  0
VERTEX
  5
1CE8
  8
0
 10
69.587648306923825
 20
132.7007126329012
 30
0.0
  0
VERTEX
  5
1CE9
  8
0
 10
69.753570719352524
 20
132.6460896661298
 30
0.0
  0
VERTEX
  5
1CEA
  8
0
 10
69.927602144460707
 20
132.5885133659645
 30
0.0
  0
VERTEX
  5
1CEB
  8
0
 10
70.108857758925126
 20
132.52824702719309
 30
0.0
  0
VERTEX
  5
1CEC
  8
0
 10
70.201917828614683
 20
132.49718850252779
 30
0.0
  0
VERTEX
  5
1CED
  8
0
 10
70.29645174403862
 20
132.46555809044651
 30
0.0
  0
VERTEX
  5
1CEE
  8
0
 10
70.48949828628588
 20
132.4007182936956
 30
0.0
  0
VERTEX
  5
1CEF
  8
0
 10
70.687112342994283
 20
132.33400383150521
 30
0.0
  0
VERTEX
  5
1CF0
  8
0
 10
70.787355970045724
 20
132.3000311680525
 30
0.0
  0
SEQEND
  5
1CF1
  8
0
  0
POLYLINE
  5
173C
  8
0
 66
     1
 10
0.0
 20
0.0
 30
0.0
  0
VERTEX
  5
1CF2
  8
0
 10
68.542083782977045
 20
133.03536147129361
 30
0.0
  0
VERTEX
  5
1CF3
  8
0
 10
68.541885489399931
 20
133.03547021463061
 30
0.0
  0
VERTEX
  5
1CF4
  8
0
 10
68.541671730234725
 20
133.03562857239351
 30
0.0
  0
VERTEX
  5
1CF5
  8
0
 10
68.54170246036216
 20
133.0357078139514
 30
0.0
  0
VERTEX
  5
1CF6
  8
0
 10
68.54180949956293
 20
133.03571770742849
 30
0.0
  0
SEQEND
  5
1CF7
  8
0
  0
POLYLINE
  5
173D
  8
0
 66
     1
 10
0.0
 20
0.0
 30
0.0
  0
VERTEX
  5
1CF8
  8
0
 10
70.787355970045724
 20
132.275899194884
 30
0.0
  0
VERTEX
  5
1CF9
  8
0
 10
70.687592878786916
 20
132.31024903007841
 30
0.0
  0
VERTEX
  5
1CFA
  8
0
 10
70.490910186188785
 20
132.37775374167609
 30
0.0
  0
VERTEX
  5
1CFB
  8
0
 10
70.298744803171644
 20
132.44343450963251
 30
0.0
  0
VERTEX
  5
1CFC
  8
0
 10
70.204628662212883
 20
132.47550547443529
 30
0.0
  0
VERTEX
  5
1CFD
  8
0
 10
70.111969040263602
 20
132.50701847681239
 30
0.0
  0
VERTEX
  5
1CFE
  8
0
 10
69.931455972222579
 20
132.5682371536962
 30
0.0
  0
VERTEX
  5
1CFF
  8
0
 10
69.758078693695325
 20
132.62682626098669
 30
0.0
  0
VERTEX
  5
1D00
  8
0
 10
69.592709347457969
 20
132.6825255798577
 30
0.0
  0
VERTEX
  5
1D01
  8
0
 10
69.436208436145932
 20
132.73508199107789
 30
0.0
  0
VERTEX
  5
1D02
  8
0
 10
69.28943276478094
 20
132.78424616631989
 30
0.0
  0
VERTEX
  5
1D03
  8
0
 10
69.219965687534909
 20
132.8074767668347
 30
0.0
  0
VERTEX
  5
1D04
  8
0
 10
69.15325780147532
 20
132.82976443490031
 30
0.0
  0
VERTEX
  5
1D05
  8
0
 10
69.028552219018479
 20
132.87138659970009
 30
0.0
  0
VERTEX
  5
1D06
  8
0
 10
68.916173276541826
 20
132.90886663925511
 30
0.0
  0
VERTEX
  5
1D07
  8
0
 10
68.816962085852992
 20
132.94196337681359
 30
0.0
  0
VERTEX
  5
1D08
  8
0
 10
68.731738807930924
 20
132.97044111724779
 30
0.0
  0
VERTEX
  5
1D09
  8
0
 10
68.661301748150535
 20
132.99406894274151
 30
0.0
  0
VERTEX
  5
1D0A
  8
0
 10
68.631871344865317
 20
133.00399308942241
 30
0.0
  0
VERTEX
  5
1D0B
  8
0
 10
68.606425720767106
 20
133.01262020218749
 30
0.0
  0
VERTEX
  5
1D0C
  8
0
 10
68.567852865109899
 20
133.02587448335331
 30
0.0
  0
VERTEX
  5
1D0D
  8
0
 10
68.546284451155657
 20
133.03361927132659
 30
0.0
  0
VERTEX
  5
1D0E
  8
0
 10
68.542083782977045
 20
133.03536147129361
 30
0.0
  0
SEQEND
  5
1D0F
  8
0
  0
POLYLINE
  5
173E
  8
0
 66
     1
 10
0.0
 20
0.0
 30
0.0
  0
VERTEX
  5
1D10
  8
0
 10
83.215181416645734
 20
130.1286046467948
 30
0.0
  0
VERTEX
  5
1D11
  8
0
 10
82.791377292850768
 20
130.13110981823311
 30
0.0
  0
VERTEX
  5
1D12
  8
0
 10
81.944175051192076
 20
130.15113609901641
 30
0.0
  0
VERTEX
  5
1D13
  8
0
 10
81.099090786882982
 20
130.19105509913749
 30
0.0
  0
VERTEX
  5
1D14
  8
0
 10
80.677934010296454
 20
130.21838357282761
 30
0.0
  0
VERTEX
  5
1D15
  8
0
 10
80.258016128803092
 20
130.2505536943676
 30
0.0
  0
VERTEX
  5
1D16
  8
0
 10
79.426553634706409
 20
130.32874679960469
 30
0.0
  0
VERTEX
  5
1D17
  8
0
 10
78.615379798637434
 20
130.42358219323489
 30
0.0
  0
VERTEX
  5
1D18
  8
0
 10
77.826232843250395
 20
130.5334083853634
 30
0.0
  0
VERTEX
  5
1D19
  8
0
 10
77.060435427348523
 20
130.6565306824312
 30
0.0
  0
VERTEX
  5
1D1A
  8
0
 10
76.319312391977675
 20
130.79118579575729
 30
0.0
  0
VERTEX
  5
1D1B
  8
0
 10
75.958417717706254
 20
130.86227084947521
 30
0.0
  0
VERTEX
  5
1D1C
  8
0
 10
75.604188031808576
 20
130.9355519776912
 30
0.0
  0
VERTEX
  5
1D1D
  8
0
 10
74.916382818781344
 20
131.08776008719661
 30
0.0
  0
VERTEX
  5
1D1E
  8
0
 10
74.257209928317081
 20
131.24590550401101
 30
0.0
  0
VERTEX
  5
1D1F
  8
0
 10
73.628007712418253
 20
131.40805120484671
 30
0.0
  0
VERTEX
  5
1D20
  8
0
 10
73.031582358230821
 20
131.57182907608549
 30
0.0
  0
VERTEX
  5
1D21
  8
0
 10
72.469699632406787
 20
131.7350863792476
 30
0.0
  0
VERTEX
  5
1D22
  8
0
 10
72.201974740619278
 20
131.81593273790691
 30
0.0
  0
VERTEX
  5
1D23
  8
0
 10
71.943201596382764
 20
131.89595140223159
 30
0.0
  0
VERTEX
  5
1D24
  8
0
 10
71.452935602490015
 20
132.0526099723306
 30
0.0
  0
VERTEX
  5
1D25
  8
0
 10
70.99976032559789
 20
132.20331133362939
 30
0.0
  0
VERTEX
  5
1D26
  8
0
 10
70.787355970045667
 20
132.275899194884
 30
0.0
  0
SEQEND
  5
1D27
  8
0
  0
POLYLINE
  5
173F
  8
0
 66
     1
 10
0.0
 20
0.0
 30
0.0
  0
VERTEX
  5
1D28
  8
0
 10
96.249538438358627
 20
132.4900817540474
 30
0.0
  0
VERTEX
  5
1D29
  8
0
 10
96.211242523021554
 20
132.4762541710765
 30
0.0
  0
VERTEX
  5
1D2A
  8
0
 10
96.133590717835204
 20
132.44834279735929
 30
0.0
  0
VERTEX
  5
1D2B
  8
0
 10
96.054561429830997
 20
132.42010988619271
 30
0.0
  0
VERTEX
  5
1D2C
  8
0
 10
96.014543602034848
 20
132.40588031439239
 30
0.0
  0
VERTEX
  5
1D2D
  8
0
 10
95.974197424693955
 20
132.39157927577071
 30
0.0
  0
VERTEX
  5
1D2E
  8
0
 10
95.892541282207958
 20
132.36277452790901
 30
0.0
  0
VERTEX
  5
1D2F
  8
0
 10
95.809635455191085
 20
132.33371893502479
 30
0.0
  0
VERTEX
  5
1D30
  8
0
 10
95.725522321708766
 20
132.30443552453539
 30
0.0
  0
VERTEX
  5
1D31
  8
0
 10
95.640244230930435
 20
132.27494706086759
 30
0.0
  0
VERTEX
  5
1D32
  8
0
 10
95.553843543022651
 20
132.24527604527941
 30
0.0
  0
VERTEX
  5
1D33
  8
0
 10
95.510235474260412
 20
132.23037903970359
 30
0.0
  0
VERTEX
  5
1D34
  8
0
 10
95.466362663479785
 20
132.2154447136989
 30
0.0
  0
VERTEX
  5
1D35
  8
0
 10
95.377844072295034
 20
132.18547503278771
 30
0.0
  0
VERTEX
  5
1D36
  8
0
 10
95.288330348367026
 20
132.15538869443179
 30
0.0
  0
VERTEX
  5
1D37
  8
0
 10
95.197864189523784
 20
132.1252071088548
 30
0.0
  0
VERTEX
  5
1D38
  8
0
 10
95.106488428526859
 20
132.0949513965424
 30
0.0
  0
VERTEX
  5
1D39
  8
0
 10
95.014246045394486
 20
132.064642379156
 30
0.0
  0
VERTEX
  5
1D3A
  8
0
 10
94.967806810352656
 20
132.0494721734361
 30
0.0
  0
VERTEX
  5
1D3B
  8
0
 10
94.921137109450285
 20
132.0342865839807
 30
0.0
  0
VERTEX
  5
1D3C
  8
0
 10
94.827114876942446
 20
132.00387553172291
 30
0.0
  0
VERTEX
  5
1D3D
  8
0
 10
94.73220580934418
 20
131.97342469772479
 30
0.0
  0
VERTEX
  5
1D3E
  8
0
 10
94.684427536475823
 20
131.95818932089941
 30
0.0
  0
VERTEX
  5
1D3F
  8
0
 10
94.393447002243988
 20
131.86675983672731
 30
0.0
  0
VERTEX
  5
1D40
  8
0
 10
93.791712980973841
 20
131.6850831604319
 30
0.0
  0
VERTEX
  5
1D41
  8
0
 10
93.168571462453826
 20
131.50745218147171
 30
0.0
  0
VERTEX
  5
1D42
  8
0
 10
92.517447140735499
 20
131.33327707288569
 30
0.0
  0
VERTEX
  5
1D43
  8
0
 10
91.832307282742804
 20
131.1626327569154
 30
0.0
  0
VERTEX
  5
1D44
  8
0
 10
91.114356328661515
 20
130.9977321327475
 30
0.0
  0
VERTEX
  5
1D45
  8
0
 10
90.743443622104735
 20
130.9181259955954
 30
0.0
  0
VERTEX
  5
1D46
  8
0
 10
90.364765659662396
 20
130.8407830443663
 30
0.0
  0
VERTEX
  5
1D47
  8
0
 10
89.584687658084235
 20
130.69398258308749
 30
0.0
  0
VERTEX
  5
1D48
  8
0
 10
88.77526585724911
 20
130.55950962176101
 30
0.0
  0
VERTEX
  5
1D49
  8
0
 10
87.939093476289315
 20
130.43970712476491
 30
0.0
  0
VERTEX
  5
1D4A
  8
0
 10
87.090707984990104
 20
130.33803029919761
 30
0.0
  0
VERTEX
  5
1D4B
  8
0
 10
86.235351809440886
 20
130.2558044921837
 30
0.0
  0
VERTEX
  5
1D4C
  8
0
 10
85.805745149341135
 20
130.22219579617791
 30
0.0
  0
VERTEX
  5
1D4D
  8
0
 10
85.375218312650475
 20
130.1936756715894
 30
0.0
  0
VERTEX
  5
1D4E
  8
0
 10
84.512501908961156
 20
130.15207867706309
 30
0.0
  0
VERTEX
  5
1D4F
  8
0
 10
83.648134104966914
 20
130.1312191423236
 30
0.0
  0
VERTEX
  5
1D50
  8
0
 10
83.215181416645734
 20
130.1286046467948
 30
0.0
  0
SEQEND
  5
1D51
  8
0
  0
POLYLINE
  5
1740
  8
0
 66
     1
 10
0.0
 20
0.0
 30
0.0
  0
VERTEX
  5
1D52
  8
0
 10
97.576503778254406
 20
133.0353614712935
 30
0.0
  0
VERTEX
  5
1D53
  8
0
 10
97.574310593901828
 20
133.03406538243269
 30
0.0
  0
VERTEX
  5
1D54
  8
0
 10
97.563603782371786
 20
133.02863264956571
 30
0.0
  0
VERTEX
  5
1D55
  8
0
 10
97.544461682703911
 20
133.01942787674801
 30
0.0
  0
VERTEX
  5
1D56
  8
0
 10
97.531730155503965
 20
133.01342317668841
 30
0.0
  0
VERTEX
  5
1D57
  8
0
 10
97.516920214488735
 20
133.00650460628799
 30
0.0
  0
VERTEX
  5
1D58
  8
0
 10
97.481113037828194
 20
132.98997562887499
 30
0.0
  0
VERTEX
  5
1D59
  8
0
 10
97.437123489292048
 20
132.969943244343
 30
0.0
  0
VERTEX
  5
1D5A
  8
0
 10
97.385026185762413
 20
132.9465190338816
 30
0.0
  0
VERTEX
  5
1D5B
  8
0
 10
97.324890208096122
 20
132.91982463225111
 30
0.0
  0
VERTEX
  5
1D5C
  8
0
 10
97.256780760243601
 20
132.8899917654287
 30
0.0
  0
VERTEX
  5
1D5D
  8
0
 10
97.219755679381819
 20
132.8739423225239
 30
0.0
  0
VERTEX
  5
1D5E
  8
0
 10
97.180770896957142
 20
132.8571665819091
 30
0.0
  0
VERTEX
  5
1D5F
  8
0
 10
97.097236765293715
 20
132.82163320841491
 30
0.0
  0
VERTEX
  5
1D60
  8
0
 10
97.006456142184106
 20
132.78363568978159
 30
0.0
  0
VERTEX
  5
1D61
  8
0
 10
96.908576112705759
 20
132.74336655474261
 30
0.0
  0
VERTEX
  5
1D62
  8
0
 10
96.803738006496133
 20
132.70102033398001
 30
0.0
  0
VERTEX
  5
1D63
  8
0
 10
96.692079690204551
 20
132.65679372877949
 30
0.0
  0
VERTEX
  5
1D64
  8
0
 10
96.633735574753032
 20
132.63403735242591
 30
0.0
  0
VERTEX
  5
1D65
  8
0
 10
96.573737507615135
 20
132.6108856293715
 30
0.0
  0
VERTEX
  5
1D66
  8
0
 10
96.448847847164473
 20
132.56349697678621
 30
0.0
  0
VERTEX
  5
1D67
  8
0
 10
96.317548333608102
 20
132.51483047424361
 30
0.0
  0
VERTEX
  5
1D68
  8
0
 10
96.249538438358627
 20
132.49008175404751
 30
0.0
  0
SEQEND
  5
1D69
  8
0
  0
POLYLINE
  5
1741
  8
0
 66
     1
 10
0.0
 20
0.0
 30
0.0
  0
VERTEX
  5
1D6A
  8
0
 10
97.576701020170503
 20
133.03571770742849
 30
0.0
  0
VERTEX
  5
1D6B
  8
0
 10
97.576777996895885
 20
133.03570781211681
 30
0.0
  0
VERTEX
  5
1D6C
  8
0
 10
97.576800131602909
 20
133.03562864832551
 30
0.0
  0
VERTEX
  5
1D6D
  8
0
 10
97.576646504453663
 20
133.0354703204126
 30
0.0
  0
VERTEX
  5
1D6E
  8
0
 10
97.576503778254406
 20
133.0353614712935
 30
0.0
  0
SEQEND
  5
1D6F
  8
0
  0
POLYLINE
  5
1742
  8
0
 66
     1
 10
0.0
 20
0.0
 30
0.0
  0
VERTEX
  5
1D70
  8
0
 10
96.249538438358627
 20
132.51059021683059
 30
0.0
  0
VERTEX
  5
1D71
  8
0
 10
96.317942982935165
 20
132.53501563628939
 30
0.0
  0
VERTEX
  5
1D72
  8
0
 10
96.449982578738343
 20
132.58300742581969
 30
0.0
  0
VERTEX
  5
1D73
  8
0
 10
96.575543717223809
 20
132.62968108670191
 30
0.0
  0
VERTEX
  5
1D74
  8
0
 10
96.635850674475648
 20
132.65245915329129
 30
0.0
  0
VERTEX
  5
1D75
  8
0
 10
96.694485175609714
 20
132.67483053193999
 30
0.0
  0
VERTEX
  5
1D76
  8
0
 10
96.806666895871388
 20
132.71825140033229
 30
0.0
  0
VERTEX
  5
1D77
  8
0
 10
96.911948723827663
 20
132.75974133437359
 30
0.0
  0
VERTEX
  5
1D78
  8
0
 10
97.010188757285917
 20
132.7991001020273
 30
0.0
  0
VERTEX
  5
1D79
  8
0
 10
97.10124130774318
 20
132.8361295574999
 30
0.0
  0
VERTEX
  5
1D7A
  8
0
 10
97.184954289371774
 20
132.8706333625712
 30
0.0
  0
VERTEX
  5
1D7B
  8
0
 10
97.223950440526664
 20
132.88685298932751
 30
0.0
  0
VERTEX
  5
1D7C
  8
0
 10
97.260956093528193
 20
132.90232844343089
 30
0.0
  0
VERTEX
  5
1D7D
  8
0
 10
97.328963168860824
 20
132.93097198871311
 30
0.0
  0
VERTEX
  5
1D7E
  8
0
 10
97.388909026608246
 20
132.95642060394931
 30
0.0
  0
VERTEX
  5
1D7F
  8
0
 10
97.440724508489211
 20
132.97854103769299
 30
0.0
  0
VERTEX
  5
1D80
  8
0
 10
97.484336158240012
 20
132.9972102043794
 30
0.0
  0
VERTEX
  5
1D81
  8
0
 10
97.519664456714636
 20
133.01231512862421
 30
0.0
  0
VERTEX
  5
1D82
  8
0
 10
97.534195390428067
 20
133.0184984360111
 30
0.0
  0
VERTEX
  5
1D83
  8
0
 10
97.546612776973305
 20
133.02374897231101
 30
0.0
  0
VERTEX
  5
1D84
  8
0
 10
97.565044495805409
 20
133.03140310000839
 30
0.0
  0
VERTEX
  5
1D85
  8
0
 10
97.574946601728698
 20
133.03523793642771
 30
0.0
  0
VERTEX
  5
1D86
  8
0
 10
97.576701020170503
 20
133.03571770742849
 30
0.0
  0
SEQEND
  5
1D87
  8
0
  0
POLYLINE
  5
1751
  8
0
 66
     1
 10
0.0
 20
0.0
 30
0.0
  0
VERTEX
  5
1D88
  8
0
 10
83.215181416645734
 20
177.72213008657911
 30
0.0
  0
VERTEX
  5
1D89
  8
0
 10
83.642801990796102
 20
177.71827721554061
 30
0.0
  0
VERTEX
  5
1D8A
  8
0
 10
84.497169996765933
 20
177.68746102348109
 30
0.0
  0
VERTEX
  5
1D8B
  8
0
 10
85.348744086928605
 20
177.62588007953781
 30
0.0
  0
VERTEX
  5
1D8C
  8
0
 10
85.772944537138869
 20
177.58357841459889
 30
0.0
  0
VERTEX
  5
1D8D
  8
0
 10
86.196462932586314
 20
177.53353519281481
 30
0.0
  0
VERTEX
  5
1D8E
  8
0
 10
87.040785110247498
 20
177.41010185720779
 30
0.0
  0
VERTEX
  5
1D8F
  8
0
 10
87.879487187028076
 20
177.25547752920519
 30
0.0
  0
VERTEX
  5
1D90
  8
0
 10
88.710174309620825
 20
177.06966186428389
 30
0.0
  0
VERTEX
  5
1D91
  8
0
 10
89.530450709310855
 20
176.85272112511839
 30
0.0
  0
VERTEX
  5
1D92
  8
0
 10
90.334332875066252
 20
176.6059396677505
 30
0.0
  0
VERTEX
  5
1D93
  8
0
 10
90.724379142911744
 20
176.47330029929091
 30
0.0
  0
VERTEX
  5
1D94
  8
0
 10
91.105827441961935
 20
176.3350026297542
 30
0.0
  0
VERTEX
  5
1D95
  8
0
 10
91.842426678874745
 20
176.04250310837369
 30
0.0
  0
VERTEX
  5
1D96
  8
0
 10
92.543116053969754
 20
175.73054485185131
 30
0.0
  0
VERTEX
  5
1D97
  8
0
 10
93.20685669383937
 20
175.40117090544501
 30
0.0
  0
VERTEX
  5
1D98
  8
0
 10
93.832562785361233
 20
175.05636200881699
 30
0.0
  0
VERTEX
  5
1D99
  8
0
 10
94.423433195882467
 20
174.69522649101231
 30
0.0
  0
VERTEX
  5
1D9A
  8
0
 10
94.709792239300214
 20
174.50585846604591
 30
0.0
  0
VERTEX
  5
1D9B
  8
0
 10
94.756870262682597
 20
174.4737326646935
 30
0.0
  0
VERTEX
  5
1D9C
  8
0
 10
94.850431047803966
 20
174.4090093107161
 30
0.0
  0
VERTEX
  5
1D9D
  8
0
 10
94.943169086132414
 20
174.34366615192889
 30
0.0
  0
VERTEX
  5
1D9E
  8
0
 10
94.989218700899244
 20
174.3107656415188
 30
0.0
  0
VERTEX
  5
1D9F
  8
0
 10
95.035049591971472
 20
174.27771439843141
 30
0.0
  0
VERTEX
  5
1DA0
  8
0
 10
95.126037873200858
 20
174.21116544398819
 30
0.0
  0
VERTEX
  5
1DA1
  8
0
 10
95.216099315978397
 20
174.14403084955831
 30
0.0
  0
VERTEX
  5
1DA2
  8
0
 10
95.305199366294175
 20
174.07632232721741
 30
0.0
  0
VERTEX
  5
1DA3
  8
0
 10
95.393303508110819
 20
174.0080517246883
 30
0.0
  0
VERTEX
  5
1DA4
  8
0
 10
95.480377237806366
 20
173.93923101072181
 30
0.0
  0
VERTEX
  5
1DA5
  8
0
 10
95.523516911937179
 20
173.9046181319288
 30
0.0
  0
VERTEX
  5
1DA6
  8
0
 10
95.566386034628238
 20
173.86987226160201
 30
0.0
  0
VERTEX
  5
1DA7
  8
0
 10
95.651295326859767
 20
173.79998764908439
 30
0.0
  0
VERTEX
  5
1DA8
  8
0
 10
95.73507045339619
 20
173.7295894301057
 30
0.0
  0
VERTEX
  5
1DA9
  8
0
 10
95.817676620433588
 20
173.65868993864299
 30
0.0
  0
VERTEX
  5
1DAA
  8
0
 10
95.899078852981972
 20
173.58730158013
 30
0.0
  0
VERTEX
  5
1DAB
  8
0
 10
95.979241940933989
 20
173.515436828877
 30
0.0
  0
VERTEX
  5
1DAC
  8
0
 10
96.018847723686747
 20
173.47932972317011
 30
0.0
  0
VERTEX
  5
1DAD
  8
0
 10
96.058130379448926
 20
173.44310822896949
 30
0.0
  0
VERTEX
  5
1DAE
  8
0
 10
96.135708303451565
 20
173.37032839915119
 30
0.0
  0
VERTEX
  5
1DAF
  8
0
 10
96.211939416099426
 20
173.29711004222011
 30
0.0
  0
VERTEX
  5
1DB0
  8
0
 10
96.249538438358684
 20
173.26034041214101
 30
0.0
  0
SEQEND
  5
1DB1
  8
0
  0
POLYLINE
  5
1752
  8
0
 66
     1
 10
0.0
 20
0.0
 30
0.0
  0
VERTEX
  5
1DB2
  8
0
 10
70.787355970045724
 20
173.80687328175981
 30
0.0
  0
VERTEX
  5
1DB3
  8
0
 10
70.829095483019387
 20
173.8413370659058
 30
0.0
  0
VERTEX
  5
1DB4
  8
0
 10
70.913382934821811
 20
173.90988557332849
 30
0.0
  0
VERTEX
  5
1DB5
  8
0
 10
70.998722762008697
 20
173.9779204543805
 30
0.0
  0
VERTEX
  5
1DB6
  8
0
 10
71.041777798881355
 20
174.0117422236199
 30
0.0
  0
VERTEX
  5
1DB7
  8
0
 10
71.085084533823306
 20
174.04543192225839
 30
0.0
  0
VERTEX
  5
1DB8
  8
0
 10
71.172438008621612
 20
174.11241026817109
 30
0.0
  0
VERTEX
  5
1DB9
  8
0
 10
71.260753093644894
 20
174.17884586442341
 30
0.0
  0
VERTEX
  5
1DBA
  8
0
 10
71.576996378774425
 20
174.40695940141791
 30
0.0
  0
VERTEX
  5
1DBB
  8
0
 10
72.141991856026365
 20
174.78113347919219
 30
0.0
  0
VERTEX
  5
1DBC
  8
0
 10
72.433635780317445
 20
174.95973753260921
 30
0.0
  0
VERTEX
  5
1DBD
  8
0
 10
72.730292675496798
 20
175.1324007026642
 30
0.0
  0
VERTEX
  5
1DBE
  8
0
 10
73.338969544977545
 20
175.4610196936988
 30
0.0
  0
VERTEX
  5
1DBF
  8
0
 10
73.966836723267761
 20
175.76774895993941
 30
0.0
  0
VERTEX
  5
1DC0
  8
0
 10
74.610534916479196
 20
176.05199865845441
 30
0.0
  0
VERTEX
  5
1DC1
  8
0
 10
75.266706767342555
 20
176.31327295227891
 30
0.0
  0
VERTEX
  5
1DC2
  8
0
 10
75.933462597584139
 20
176.5517126887224
 30
0.0
  0
VERTEX
  5
1DC3
  8
0
 10
76.274299927032473
 20
176.66370174396661
 30
0.0
  0
VERTEX
  5
1DC4
  8
0
 10
76.620841130301642
 20
176.7709962501863
 30
0.0
  0
VERTEX
  5
1DC5
  8
0
 10
77.330479718949903
 20
176.9708501716382
 30
0.0
  0
VERTEX
  5
1DC6
  8
0
 10
78.061271585648342
 20
177.1499849440327
 30
0.0
  0
VERTEX
  5
1DC7
  8
0
 10
78.812115730380071
 20
177.3071294882306
 30
0.0
  0
VERTEX
  5
1DC8
  8
0
 10
79.581915659509264
 20
177.4410257581562
 30
0.0
  0
VERTEX
  5
1DC9
  8
0
 10
80.369577667403135
 20
177.55042175519179
 30
0.0
  0
VERTEX
  5
1DCA
  8
0
 10
80.769765338989146
 20
177.59554046004189
 30
0.0
  0
VERTEX
  5
1DCB
  8
0
 10
81.174008346756054
 20
177.6340628671968
 30
0.0
  0
VERTEX
  5
1DCC
  8
0
 10
81.988666018015635
 20
177.6903999866843
 30
0.0
  0
VERTEX
  5
1DCD
  8
0
 10
82.806025436883999
 20
177.7186028080958
 30
0.0
  0
VERTEX
  5
1DCE
  8
0
 10
83.215181416645734
 20
177.72213008657911
 30
0.0
  0
SEQEND
  5
1DCF
  8
0
  0
POLYLINE
  5
1753
  8
0
 66
     1
 10
0.0
 20
0.0
 30
0.0
  0
VERTEX
  5
1DD0
  8
0
 10
70.787355970045724
 20
168.82042234850201
 30
0.0
  0
VERTEX
  5
1DD1
  8
0
 10
70.586359262568521
 20
168.8785586074936
 30
0.0
  0
VERTEX
  5
1DD2
  8
0
 10
70.197845310198545
 20
169.0090919895793
 30
0.0
  0
VERTEX
  5
1DD3
  8
0
 10
69.833334041016087
 20
169.15973779406801
 30
0.0
  0
VERTEX
  5
1DD4
  8
0
 10
69.662341999846944
 20
169.2429982106309
 30
0.0
  0
VERTEX
  5
1DD5
  8
0
 10
69.634666145742528
 20
169.2574050568231
 30
0.0
  0
VERTEX
  5
1DD6
  8
0
 10
69.580057299759574
 20
169.2866793184144
 30
0.0
  0
VERTEX
  5
1DD7
  8
0
 10
69.526465807791396
 20
169.31657272175551
 30
0.0
  0
VERTEX
  5
1DD8
  8
0
 10
69.500061177638031
 20
169.331753772496
 30
0.0
  0
VERTEX
  5
1DD9
  8
0
 10
69.473922883419505
 20
169.34709195787889
 30
0.0
  0
VERTEX
  5
1DDA
  8
0
 10
69.422462188885049
 20
169.37824233739991
 30
0.0
  0
VERTEX
  5
1DDB
  8
0
 10
69.372117469771865
 20
169.41002901151711
 30
0.0
  0
VERTEX
  5
1DDC
  8
0
 10
69.322922419944632
 20
169.4424570356872
 30
0.0
  0
VERTEX
  5
1DDD
  8
0
 10
69.274910667574659
 20
169.47553136665221
 30
0.0
  0
VERTEX
  5
1DDE
  8
0
 10
69.228115759927732
 20
169.50925685980999
 30
0.0
  0
VERTEX
  5
1DDF
  8
0
 10
69.205185080251283
 20
169.52636528126951
 30
0.0
  0
VERTEX
  5
1DE0
  8
0
 10
69.182571146919713
 20
169.54363826706069
 30
0.0
  0
VERTEX
  5
1DE1
  8
0
 10
69.138310163474713
 20
169.5786802352842
 30
0.0
  0
VERTEX
  5
1DE2
  8
0
 10
69.095366010754447
 20
169.6143873056233
 30
0.0
  0
VERTEX
  5
1DE3
  8
0
 10
69.053771736368503
 20
169.65076391376579
 30
0.0
  0
VERTEX
  5
1DE4
  8
0
 10
69.013560213723395
 20
169.68781439143979
 30
0.0
  0
VERTEX
  5
1DE5
  8
0
 10
68.974764120720806
 20
169.72554296935041
 30
0.0
  0
VERTEX
  5
1DE6
  8
0
 10
68.955907013388071
 20
169.74466284146479
 30
0.0
  0
VERTEX
  5
1DE7
  8
0
 10
68.937415918075089
 20
169.76395378179981
 30
0.0
  0
VERTEX
  5
1DE8
  8
0
 10
68.901547827584182
 20
169.8030508732391
 30
0.0
  0
VERTEX
  5
1DE9
  8
0
 10
68.867191810756538
 20
169.8428382070035
 30
0.0
  0
VERTEX
  5
1DEA
  8
0
 10
68.834379548263314
 20
169.88331967647269
 30
0.0
  0
VERTEX
  5
1DEB
  8
0
 10
68.803142416798892
 20
169.92449912427901
 30
0.0
  0
VERTEX
  5
1DEC
  8
0
 10
68.773511448646673
 20
169.96638039499251
 30
0.0
  0
VERTEX
  5
1DED
  8
0
 10
68.759307901626073
 20
169.98758538488821
 30
0.0
  0
VERTEX
  5
1DEE
  8
0
 10
68.745517420029557
 20
170.00896720825119
 30
0.0
  0
VERTEX
  5
1DEF
  8
0
 10
68.719190883405702
 20
170.05226306221169
 30
0.0
  0
VERTEX
  5
1DF0
  8
0
 10
68.694562123230185
 20
170.09627122891149
 30
0.0
  0
VERTEX
  5
1DF1
  8
0
 10
68.671661109597153
 20
170.14099475475501
 30
0.0
  0
VERTEX
  5
1DF2
  8
0
 10
68.650517451957057
 20
170.18643646490989
 30
0.0
  0
VERTEX
  5
1DF3
  8
0
 10
68.631160353894813
 20
170.23259897206799
 30
0.0
  0
VERTEX
  5
1DF4
  8
0
 10
68.622160769185413
 20
170.2559512861134
 30
0.0
  0
VERTEX
  5
1DF5
  8
0
 10
68.613618570063409
 20
170.27948468995851
 30
0.0
  0
VERTEX
  5
1DF6
  8
0
 10
68.597920366452797
 20
170.327095851915
 30
0.0
  0
VERTEX
  5
1DF7
  8
0
 10
68.584093485222922
 20
170.375434534682
 30
0.0
  0
VERTEX
  5
1DF8
  8
0
 10
68.572165115342045
 20
170.42450268751239
 30
0.0
  0
VERTEX
  5
1DF9
  8
0
 10
68.562161870229545
 20
170.4743021664498
 30
0.0
  0
VERTEX
  5
1DFA
  8
0
 10
68.554109773513574
 20
170.52483477351521
 30
0.0
  0
VERTEX
  5
1DFB
  8
0
 10
68.550823375446896
 20
170.5503765591121
 30
0.0
  0
VERTEX
  5
1DFC
  8
0
 10
68.548034253866149
 20
170.57610230034021
 30
0.0
  0
VERTEX
  5
1DFD
  8
0
 10
68.543960149676309
 20
170.62810657560669
 30
0.0
  0
VERTEX
  5
1DFE
  8
0
 10
68.541911724073429
 20
170.6808495154813
 30
0.0
  0
VERTEX
  5
1DFF
  8
0
 10
68.541654571753952
 20
170.70749862025681
 30
0.0
  0
VERTEX
  5
1E00
  8
0
 10
68.541911724073429
 20
170.73428276548429
 30
0.0
  0
VERTEX
  5
1E01
  8
0
 10
68.543960149676309
 20
170.78810144236479
 30
0.0
  0
VERTEX
  5
1E02
  8
0
 10
68.548034253866149
 20
170.84224540919311
 30
0.0
  0
VERTEX
  5
1E03
  8
0
 10
68.550823375446896
 20
170.8694361031894
 30
0.0
  0
VERTEX
  5
1E04
  8
0
 10
68.554109773513574
 20
170.8967041607315
 30
0.0
  0
VERTEX
  5
1E05
  8
0
 10
68.562161870229545
 20
170.95146695283771
 30
0.0
  0
VERTEX
  5
1E06
  8
0
 10
68.572165115342045
 20
171.0065228383109
 30
0.0
  0
VERTEX
  5
1E07
  8
0
 10
68.584093485222922
 20
171.06186070502901
 30
0.0
  0
VERTEX
  5
1E08
  8
0
 10
68.597920366452797
 20
171.11746931530959
 30
0.0
  0
VERTEX
  5
1E09
  8
0
 10
68.613618570063409
 20
171.1733373454714
 30
0.0
  0
VERTEX
  5
1E0A
  8
0
 10
68.622160769185371
 20
171.20136509042479
 30
0.0
  0
VERTEX
  5
1E0B
  8
0
 10
68.631160353894813
 20
171.22945342465621
 30
0.0
  0
VERTEX
  5
1E0C
  8
0
 10
68.650517451957057
 20
171.28580617207709
 30
0.0
  0
VERTEX
  5
1E0D
  8
0
 10
68.671661109597153
 20
171.3423842319844
 30
0.0
  0
VERTEX
  5
1E0E
  8
0
 10
68.694562123230185
 20
171.39917630578171
 30
0.0
  0
VERTEX
  5
1E0F
  8
0
 10
68.719190883405702
 20
171.45617118086241
 30
0.0
  0
VERTEX
  5
1E10
  8
0
 10
68.745517420029557
 20
171.5133577558791
 30
0.0
  0
VERTEX
  5
1E11
  8
0
 10
68.759307901626116
 20
171.5420194974941
 30
0.0
  0
VERTEX
  5
1E12
  8
0
 10
68.773511448646673
 20
171.57072506228769
 30
0.0
  0
VERTEX
  5
1E13
  8
0
 10
68.803142416798892
 20
171.6282622821262
 30
0.0
  0
VERTEX
  5
1E14
  8
0
 10
68.834379548263314
 20
171.6859587596814
 30
0.0
  0
VERTEX
  5
1E15
  8
0
 10
68.867191810756538
 20
171.743803880878
 30
0.0
  0
VERTEX
  5
1E16
  8
0
 10
68.901547827584182
 20
171.8017868926143
 30
0.0
  0
VERTEX
  5
1E17
  8
0
 10
68.937415918075089
 20
171.85989696974721
 30
0.0
  0
VERTEX
  5
1E18
  8
0
 10
68.955907013388071
 20
171.8889962615464
 30
0.0
  0
VERTEX
  5
1E19
  8
0
 10
68.974764120720806
 20
171.918123239567
 30
0.0
  0
VERTEX
  5
1E1A
  8
0
 10
69.013560213723395
 20
171.97645479695771
 30
0.0
  0
VERTEX
  5
1E1B
  8
0
 10
69.053771736368503
 20
172.03488071769041
 30
0.0
  0
VERTEX
  5
1E1C
  8
0
 10
69.095366010754447
 20
172.09339006985661
 30
0.0
  0
VERTEX
  5
1E1D
  8
0
 10
69.138310163474713
 20
172.15197192348879
 30
0.0
  0
VERTEX
  5
1E1E
  8
0
 10
69.182571146919713
 20
172.21061535845291
 30
0.0
  0
VERTEX
  5
1E1F
  8
0
 10
69.205185080251283
 20
172.23995676065559
 30
0.0
  0
VERTEX
  5
1E20
  8
0
 10
69.228115759927732
 20
172.2693094707179
 30
0.0
  0
VERTEX
  5
1E21
  8
0
 10
69.274910667574659
 20
172.32804337712651
 30
0.0
  0
VERTEX
  5
1E22
  8
0
 10
69.322922419944632
 20
172.38680621880209
 30
0.0
  0
VERTEX
  5
1E23
  8
0
 10
69.372117469771865
 20
172.44558716333009
 30
0.0
  0
VERTEX
  5
1E24
  8
0
 10
69.422462188885049
 20
172.50437540585619
 30
0.0
  0
VERTEX
  5
1E25
  8
0
 10
69.473922883419505
 20
172.56316016923611
 30
0.0
  0
VERTEX
  5
1E26
  8
0
 10
69.500061177638031
 20
172.59254788581671
 30
0.0
  0
VERTEX
  5
1E27
  8
0
 10
69.526465807791396
 20
172.62193070337091
 30
0.0
  0
VERTEX
  5
1E28
  8
0
 10
69.580057299759574
 20
172.68067641661469
 30
0.0
  0
VERTEX
  5
1E29
  8
0
 10
69.634666145742528
 20
172.73938936831519
 30
0.0
  0
VERTEX
  5
1E2A
  8
0
 10
69.662341999846944
 20
172.768730692763
 30
0.0
  0
VERTEX
  5
1E2B
  8
0
 10
69.833334041016087
 20
172.94448432412571
 30
0.0
  0
VERTEX
  5
1E2C
  8
0
 10
70.197845310198545
 20
173.2935792246758
 30
0.0
  0
VERTEX
  5
1E2D
  8
0
 10
70.586359262568521
 20
173.63754368253379
 30
0.0
  0
VERTEX
  5
1E2E
  8
0
 10
70.787355970045724
 20
173.80687328175981
 30
0.0
  0
SEQEND
  5
1E2F
  8
0
  0
POLYLINE
  5
1754
  8
0
 66
     1
 10
0.0
 20
0.0
 30
0.0
  0
VERTEX
  5
1E30
  8
0
 10
77.107876201619774
 20
168.3409889752553
 30
0.0
  0
VERTEX
  5
1E31
  8
0
 10
76.88733212050181
 20
168.34115903437379
 30
0.0
  0
VERTEX
  5
1E32
  8
0
 10
76.452753966500893
 20
168.3426205086254
 30
0.0
  0
VERTEX
  5
1E33
  8
0
 10
76.027072496464939
 20
168.3458050673147
 30
0.0
  0
VERTEX
  5
1E34
  8
0
 10
75.81764921907677
 20
168.34813036156919
 30
0.0
  0
VERTEX
  5
1E35
  8
0
 10
75.610547508476543
 20
168.35099127598389
 30
0.0
  0
VERTEX
  5
1E36
  8
0
 10
75.203438373106565
 20
168.35846227116721
 30
0.0
  0
VERTEX
  5
1E37
  8
0
 10
74.806003826930919
 20
168.36850452174181
 30
0.0
  0
VERTEX
  5
1E38
  8
0
 10
74.418501780776808
 20
168.38140668116191
 30
0.0
  0
VERTEX
  5
1E39
  8
0
 10
74.041189158707823
 20
168.39745854335041
 30
0.0
  0
VERTEX
  5
1E3A
  8
0
 10
73.674321889603277
 20
168.41695011187699
 30
0.0
  0
VERTEX
  5
1E3B
  8
0
 10
73.495002504629724
 20
168.42806861189391
 30
0.0
  0
VERTEX
  5
1E3C
  8
0
 10
73.318604611940316
 20
168.4401385205343
 30
0.0
  0
VERTEX
  5
1E3D
  8
0
 10
72.974657561251149
 20
168.46726069082811
 30
0.0
  0
VERTEX
  5
1E3E
  8
0
 10
72.642649421553983
 20
168.4985689578225
 30
0.0
  0
VERTEX
  5
1E3F
  8
0
 10
72.322749209763117
 20
168.5343090751573
 30
0.0
  0
VERTEX
  5
1E40
  8
0
 10
72.015126419257115
 20
168.57471989058669
 30
0.0
  0
VERTEX
  5
1E41
  8
0
 10
71.71995126931381
 20
168.62003319505359
 30
0.0
  0
VERTEX
  5
1E42
  8
0
 10
71.577085048027016
 20
168.64459879169561
 30
0.0
  0
VERTEX
  5
1E43
  8
0
 10
71.437395114614446
 20
168.67047376405381
 30
0.0
  0
VERTEX
  5
1E44
  8
0
 10
71.167631081315562
 20
168.72625960853281
 30
0.0
  0
VERTEX
  5
1E45
  8
0
 10
70.910835009074276
 20
168.78760244747409
 30
0.0
  0
VERTEX
  5
1E46
  8
0
 10
70.787355970045724
 20
168.82042234850201
 30
0.0
  0
SEQEND
  5
1E47
  8
0
  0
POLYLINE
  5
1755
  8
0
 66
     1
 10
0.0
 20
0.0
 30
0.0
  0
VERTEX
  5
1E48
  8
0
 10
83.215181416645734
 20
168.36958417224781
 30
0.0
  0
VERTEX
  5
1E49
  8
0
 10
83.041426955458107
 20
168.3695397872219
 30
0.0
  0
VERTEX
  5
1E4A
  8
0
 10
82.693821866642338
 20
168.36918570229309
 30
0.0
  0
VERTEX
  5
1E4B
  8
0
 10
82.346198846615835
 20
168.3684835431373
 30
0.0
  0
VERTEX
  5
1E4C
  8
0
 10
82.17242197373622
 20
168.3680056307476
 30
0.0
  0
VERTEX
  5
1E4D
  8
0
 10
81.998690249560582
 20
168.36744597186791
 30
0.0
  0
VERTEX
  5
1E4E
  8
0
 10
81.651428405067065
 20
168.3660923655105
 30
0.0
  0
VERTEX
  5
1E4F
  8
0
 10
81.304545599209519
 20
168.36444885130351
 30
0.0
  0
VERTEX
  5
1E50
  8
0
 10
80.958174073213854
 20
168.36254834249539
 30
0.0
  0
VERTEX
  5
1E51
  8
0
 10
80.612446040990733
 20
168.3604305759535
 30
0.0
  0
VERTEX
  5
1E52
  8
0
 10
80.267493726995781
 20
168.35814215312851
 30
0.0
  0
VERTEX
  5
1E53
  8
0
 10
80.095349801615214
 20
168.3569503968088
 30
0.0
  0
VERTEX
  5
1E54
  8
0
 10
79.923449426118907
 20
168.35573658617
 30
0.0
  0
VERTEX
  5
1E55
  8
0
 10
79.580445587588713
 20
168.35327435122949
 30
0.0
  0
VERTEX
  5
1E56
  8
0
 10
79.238735466271805
 20
168.35082380680981
 30
0.0
  0
VERTEX
  5
1E57
  8
0
 10
78.900149548406148
 20
168.3484709085312
 30
0.0
  0
VERTEX
  5
1E58
  8
0
 10
78.565337933274805
 20
168.34629734939679
 30
0.0
  0
VERTEX
  5
1E59
  8
0
 10
78.234393142947283
 20
168.34438441026879
 30
0.0
  0
VERTEX
  5
1E5A
  8
0
 10
78.070399755463882
 20
168.34355198430629
 30
0.0
  0
VERTEX
  5
1E5B
  8
0
 10
77.907407826937401
 20
168.34281667302659
 30
0.0
  0
VERTEX
  5
1E5C
  8
0
 10
77.584474746702142
 20
168.34168172268221
 30
0.0
  0
VERTEX
  5
1E5D
  8
0
 10
77.265686754622024
 20
168.3410698584905
 30
0.0
  0
VERTEX
  5
1E5E
  8
0
 10
77.107876201619774
 20
168.3409889752553
 30
0.0
  0
SEQEND
  5
1E5F
  8
0
  0
POLYLINE
  5
1756
  8
0
 66
     1
 10
0.0
 20
0.0
 30
0.0
  0
VERTEX
  5
1E60
  8
0
 10
89.322486629112177
 20
168.34098897525519
 30
0.0
  0
VERTEX
  5
1E61
  8
0
 10
89.163926032232993
 20
168.34107061715449
 30
0.0
  0
VERTEX
  5
1E62
  8
0
 10
88.843558863255907
 20
168.3416881869548
 30
0.0
  0
VERTEX
  5
1E63
  8
0
 10
88.518926255974975
 20
168.34283364158591
 30
0.0
  0
VERTEX
  5
1E64
  8
0
 10
88.355033864040422
 20
168.3435757141537
 30
0.0
  0
VERTEX
  5
1E65
  8
0
 10
88.190103260611409
 20
168.34441575165209
 30
0.0
  0
VERTEX
  5
1E66
  8
0
 10
87.857165000405473
 20
168.34634598452621
 30
0.0
  0
VERTEX
  5
1E67
  8
0
 10
87.520186735125435
 20
168.34853876455779
 30
0.0
  0
VERTEX
  5
1E68
  8
0
 10
87.180208068596457
 20
168.3509048995046
 30
0.0
  0
VERTEX
  5
1E69
  8
0
 10
86.838972610752435
 20
168.35335325199881
 30
0.0
  0
VERTEX
  5
1E6A
  8
0
 10
86.496641672418207
 20
168.35580964734081
 30
0.0
  0
VERTEX
  5
1E6B
  8
0
 10
86.325107410145847
 20
168.3570196889265
 30
0.0
  0
VERTEX
  5
1E6C
  8
0
 10
86.153349666371113
 20
168.35820721783921
 30
0.0
  0
VERTEX
  5
1E6D
  8
0
 10
85.809230832220919
 20
168.36048613835439
 30
0.0
  0
VERTEX
  5
1E6E
  8
0
 10
85.464419336294213
 20
168.36259355386119
 30
0.0
  0
VERTEX
  5
1E6F
  8
0
 10
85.119049341941604
 20
168.3644835161557
 30
0.0
  0
VERTEX
  5
1E70
  8
0
 10
84.773255052635477
 20
168.3661169272527
 30
0.0
  0
VERTEX
  5
1E71
  8
0
 10
84.427170729870795
 20
168.36746148728781
 30
0.0
  0
VERTEX
  5
1E72
  8
0
 10
84.25406177760658
 20
168.3680172010973
 30
0.0
  0
VERTEX
  5
1E73
  8
0
 10
84.080930687577222
 20
168.3684916449904
 30
0.0
  0
VERTEX
  5
1E74
  8
0
 10
83.734669264501065
 20
168.36918854905281
 30
0.0
  0
VERTEX
  5
1E75
  8
0
 10
83.388409064567554
 20
168.36954005586409
 30
0.0
  0
VERTEX
  5
1E76
  8
0
 10
83.215181416645734
 20
168.36958417224781
 30
0.0
  0
SEQEND
  5
1E77
  8
0
  0
POLYLINE
  5
1757
  8
0
 66
     1
 10
0.0
 20
0.0
 30
0.0
  0
VERTEX
  5
1E78
  8
0
 10
96.249538438358627
 20
169.02262463686839
 30
0.0
  0
VERTEX
  5
1E79
  8
0
 10
96.108582230700392
 20
168.96844101289929
 30
0.0
  0
VERTEX
  5
1E7A
  8
0
 10
95.81335282650366
 20
168.8697644632492
 30
0.0
  0
VERTEX
  5
1E7B
  8
0
 10
95.502033848036504
 20
168.7831374209141
 30
0.0
  0
VERTEX
  5
1E7C
  8
0
 10
95.340962674405205
 20
168.74402827307841
 30
0.0
  0
VERTEX
  5
1E7D
  8
0
 10
95.176616014192859
 20
168.70756029671389
 30
0.0
  0
VERTEX
  5
1E7E
  8
0
 10
94.839099957779354
 20
168.64207777533841
 30
0.0
  0
VERTEX
  5
1E7F
  8
0
 10
94.490469013541031
 20
168.58561887532929
 30
0.0
  0
VERTEX
  5
1E80
  8
0
 10
94.131213091793725
 20
168.53718719022899
 30
0.0
  0
VERTEX
  5
1E81
  8
0
 10
93.762581425988984
 20
168.49600428676331
 30
0.0
  0
VERTEX
  5
1E82
  8
0
 10
93.385821115151984
 20
168.46133921964531
 30
0.0
  0
VERTEX
  5
1E83
  8
0
 10
93.194783952118016
 20
168.44623430627959
 30
0.0
  0
VERTEX
  5
1E84
  8
0
 10
93.002185306620618
 20
168.43250406182511
 30
0.0
  0
VERTEX
  5
1E85
  8
0
 10
92.611714165533613
 20
168.408784583049
 30
0.0
  0
VERTEX
  5
1E86
  8
0
 10
92.209811856436204
 20
168.38936188897239
 30
0.0
  0
VERTEX
  5
1E87
  8
0
 10
91.796133269519217
 20
168.3738131377155
 30
0.0
  0
VERTEX
  5
1E88
  8
0
 10
91.370952968026984
 20
168.3617619759238
 30
0.0
  0
VERTEX
  5
1E89
  8
0
 10
90.934541199366933
 20
168.35283676921
 30
0.0
  0
VERTEX
  5
1E8A
  8
0
 10
90.712207049504755
 20
168.34943172563229
 30
0.0
  0
VERTEX
  5
1E8B
  8
0
 10
90.487164943071548
 20
168.34667131895841
 30
0.0
  0
VERTEX
  5
1E8C
  8
0
 10
90.029088749201549
 20
168.34290579032501
 30
0.0
  0
VERTEX
  5
1E8D
  8
0
 10
89.560575423147213
 20
168.34118784220891
 30
0.0
  0
VERTEX
  5
1E8E
  8
0
 10
89.322486629112177
 20
168.34098897525519
 30
0.0
  0
SEQEND
  5
1E8F
  8
0
  0
POLYLINE
  5
1758
  8
0
 66
     1
 10
0.0
 20
0.0
 30
0.0
  0
VERTEX
  5
1E90
  8
0
 10
96.249538438358627
 20
173.26034041214089
 30
0.0
  0
VERTEX
  5
1E91
  8
0
 10
96.272709104709861
 20
173.2374271242667
 30
0.0
  0
VERTEX
  5
1E92
  8
0
 10
96.318524326327008
 20
173.1914261369856
 30
0.0
  0
VERTEX
  5
1E93
  8
0
 10
96.363633166389945
 20
173.1451991668533
 30
0.0
  0
VERTEX
  5
1E94
  8
0
 10
96.3859208623726
 20
173.12200340387321
 30
0.0
  0
VERTEX
  5
1E95
  8
0
 10
96.408029769088785
 20
173.09875410543569
 30
0.0
  0
VERTEX
  5
1E96
  8
0
 10
96.451708303973419
 20
173.05209885478919
 30
0.0
  0
VERTEX
  5
1E97
  8
0
 10
96.494662962768643
 20
173.00524132330179
 30
0.0
  0
VERTEX
  5
1E98
  8
0
 10
96.536887955651707
 20
172.95818942167139
 30
0.0
  0
VERTEX
  5
1E99
  8
0
 10
96.578377506978029
 20
172.91095105905521
 30
0.0
  0
VERTEX
  5
1E9A
  8
0
 10
96.61912585044513
 20
172.86353413941919
 30
0.0
  0
VERTEX
  5
1E9B
  8
0
 10
96.639220268497183
 20
172.83976118844279
 30
0.0
  0
VERTEX
  5
1E9C
  8
0
 10
96.659127223683868
 20
172.8159465581225
 30
0.0
  0
VERTEX
  5
1E9D
  8
0
 10
96.698375862270836
 20
172.7681961987665
 30
0.0
  0
VERTEX
  5
1E9E
  8
0
 10
96.736865993155902
 20
172.72029093034379
 30
0.0
  0
VERTEX
  5
1E9F
  8
0
 10
96.774591827502434
 20
172.67223860471759
 30
0.0
  0
VERTEX
  5
1EA0
  8
0
 10
96.811547552940866
 20
172.62404705446411
 30
0.0
  0
VERTEX
  5
1EA1
  8
0
 10
96.847727325236804
 20
172.57572409110961
 30
0.0
  0
VERTEX
  5
1EA2
  8
0
 10
96.865524391739257
 20
172.55151576452701
 30
0.0
  0
VERTEX
  5
1EA3
  8
0
 10
96.883125259381586
 20
172.52727750379191
 30
0.0
  0
VERTEX
  5
1EA4
  8
0
 10
96.917735420112308
 20
172.4787150583752
 30
0.0
  0
VERTEX
  5
1EA5
  8
0
 10
96.951551811874197
 20
172.4300444970462
 30
0.0
  0
VERTEX
  5
1EA6
  8
0
 10
96.968160451702545
 20
172.405671085888
 30
0.0
  0
VERTEX
  5
1EA7
  8
0
 10
96.984568368242194
 20
172.3812735384162
 30
0.0
  0
VERTEX
  5
1EA8
  8
0
 10
97.01677894081871
 20
172.3324098781525
 30
0.0
  0
VERTEX
  5
1EA9
  8
0
 10
97.048158452716848
 20
172.28349096380919
 30
0.0
  0
VERTEX
  5
1EAA
  8
0
 10
97.063524653542345
 20
172.2590298871304
 30
0.0
  0
VERTEX
  5
1EAB
  8
0
 10
97.078674493398012
 20
172.23456940126559
 30
0.0
  0
VERTEX
  5
1EAC
  8
0
 10
97.108323378890532
 20
172.18565479095159
 30
0.0
  0
VERTEX
  5
1EAD
  8
0
 10
97.137101688189091
 20
172.13675626793909
 30
0.0
  0
VERTEX
  5
1EAE
  8
0
 10
97.165005998899574
 20
172.08788289605599
 30
0.0
  0
VERTEX
  5
1EAF
  8
0
 10
97.192032881216846
 20
172.03904366434779
 30
0.0
  0
VERTEX
  5
1EB0
  8
0
 10
97.218178891444964
 20
171.99024748387279
 30
0.0
  0
VERTEX
  5
1EB1
  8
0
 10
97.230920487878052
 20
171.96586830051999
 30
0.0
  0
VERTEX
  5
1EB2
  8
0
 10
97.243440565076753
 20
171.94150318485231
 30
0.0
  0
VERTEX
  5
1EB3
  8
0
 10
97.267814409452399
 20
171.89281951419301
 30
0.0
  0
VERTEX
  5
1EB4
  8
0
 10
97.291296896018139
 20
171.84420513339899
 30
0.0
  0
VERTEX
  5
1EB5
  8
0
 10
97.313884452210118
 20
171.7956686168869
 30
0.0
  0
VERTEX
  5
1EB6
  8
0
 10
97.335573452989365
 20
171.747218450715
 30
0.0
  0
VERTEX
  5
1EB7
  8
0
 10
97.356360212057609
 20
171.69886303173681
 30
0.0
  0
VERTEX
  5
1EB8
  8
0
 10
97.366414080003935
 20
171.67472345195819
 30
0.0
  0
VERTEX
  5
1EB9
  8
0
 10
97.376240972784686
 20
171.65061066718241
 30
0.0
  0
VERTEX
  5
1EBA
  8
0
 10
97.395211898881371
 20
171.60246957467351
 30
0.0
  0
VERTEX
  5
1EBB
  8
0
 10
97.41326906485358
 20
171.5544478826703
 30
0.0
  0
VERTEX
  5
1EBC
  8
0
 10
97.430408446274384
 20
171.50655363134729
 30
0.0
  0
VERTEX
  5
1EBD
  8
0
 10
97.446625909914474
 20
171.45879477389249
 30
0.0
  0
VERTEX
  5
1EBE
  8
0
 10
97.461917144730023
 20
171.4111793675311
 30
0.0
  0
VERTEX
  5
1EBF
  8
0
 10
97.469210305408069
 20
171.387440323395
 30
0.0
  0
VERTEX
  5
1EC0
  8
0
 10
97.476264721098232
 20
171.36375973577529
 30
0.0
  0
VERTEX
  5
1EC1
  8
0
 10
97.489657260959916
 20
171.31657777819689
 30
0.0
  0
VERTEX
  5
1EC2
  8
0
 10
97.502094618381605
 20
171.269641107946
 30
0.0
  0
VERTEX
  5
1EC3
  8
0
 10
97.513576592931429
 20
171.222957204539
 30
0.0
  0
VERTEX
  5
1EC4
  8
0
 10
97.524102926830224
 20
171.176533412959
 30
0.0
  0
VERTEX
  5
1EC5
  8
0
 10
97.533673302093234
 20
171.1303769429168
 30
0.0
  0
VERTEX
  5
1EC6
  8
0
 10
97.538099888702391
 20
171.10740116937089
 30
0.0
  0
VERTEX
  5
1EC7
  8
0
 10
97.542287337682652
 20
171.0844948682637
 30
0.0
  0
VERTEX
  5
1EC8
  8
0
 10
97.549944586688298
 20
171.0388941265488
 30
0.0
  0
VERTEX
  5
1EC9
  8
0
 10
97.556644533556195
 20
170.9935815187109
 30
0.0
  0
VERTEX
  5
1ECA
  8
0
 10
97.562386591381369
 20
170.94856370889389
 30
0.0
  0
VERTEX
  5
1ECB
  8
0
 10
97.567170099280816
 20
170.9038472243756
 30
0.0
  0
VERTEX
  5
1ECC
  8
0
 10
97.570994319863317
 20
170.8594384555976
 30
0.0
  0
VERTEX
  5
1ECD
  8
0
 10
97.572546445457419
 20
170.83735142423589
 30
0.0
  0
VERTEX
  5
1ECE
  8
0
 10
97.573858436808337
 20
170.81534365628471
 30
0.0
  0
VERTEX
  5
1ECF
  8
0
 10
97.575761552568451
 20
170.7715689436406
 30
0.0
  0
VERTEX
  5
1ED0
  8
0
 10
97.57670268620501
 20
170.72812029860711
 30
0.0
  0
VERTEX
  5
1ED1
  8
0
 10
97.576812179881529
 20
170.70652008330541
 30
0.0
  0
VERTEX
  5
1ED2
  8
0
 10
97.576680771369581
 20
170.68500356617579
 30
0.0
  0
VERTEX
  5
1ED3
  8
0
 10
97.575694654437314
 20
170.64222445573691
 30
0.0
  0
VERTEX
  5
1ED4
  8
0
 10
97.573743092801223
 20
170.59978854145459
 30
0.0
  0
VERTEX
  5
1ED5
  8
0
 10
97.572404857191032
 20
170.57870098791801
 30
0.0
  0
VERTEX
  5
1ED6
  8
0
 10
97.570824753332204
 20
170.55770126265531
 30
0.0
  0
VERTEX
  5
1ED7
  8
0
 10
97.566938211009187
 20
170.5159679242185
 30
0.0
  0
VERTEX
  5
1ED8
  8
0
 10
97.562081949867434
 20
170.47459371350121
 30
0.0
  0
VERTEX
  5
1ED9
  8
0
 10
97.556260230969542
 20
170.43362164023591
 30
0.0
  0
VERTEX
  5
1EDA
  8
0
 10
97.549480225053244
 20
170.39308979211191
 30
0.0
  0
VERTEX
  5
1EDB
  8
0
 10
97.541745208128077
 20
170.3530003827895
 30
0.0
  0
VERTEX
  5
1EDC
  8
0
 10
97.53752055932631
 20
170.33312225338341
 30
0.0
  0
VERTEX
  5
1EDD
  8
0
 10
97.533058328992695
 20
170.3133555124864
 30
0.0
  0
VERTEX
  5
1EDE
  8
0
 10
97.523422615842165
 20
170.27415716953561
 30
0.0
  0
VERTEX
  5
1EDF
  8
0
 10
97.512840983024276
 20
170.23540723160801
 30
0.0
  0
VERTEX
  5
1EE0
  8
0
 10
97.501316237914693
 20
170.19710746661019
 30
0.0
  0
VERTEX
  5
1EE1
  8
0
 10
97.488851087878629
 20
170.1592595332732
 30
0.0
  0
VERTEX
  5
1EE2
  8
0
 10
97.475448147286343
 20
170.12186498144749
 30
0.0
  0
VERTEX
  5
1EE3
  8
0
 10
97.468395798826066
 20
170.10333817816749
 30
0.0
  0
VERTEX
  5
1EE4
  8
0
 10
97.461109944551026
 20
170.08492525212131
 30
0.0
  0
VERTEX
  5
1EE5
  8
0
 10
97.445838929156125
 20
170.0484416771819
 30
0.0
  0
VERTEX
  5
1EE6
  8
0
 10
97.429637478639904
 20
170.01241547893909
 30
0.0
  0
VERTEX
  5
1EE7
  8
0
 10
97.412507905505606
 20
169.9768477694324
 30
0.0
  0
VERTEX
  5
1EE8
  8
0
 10
97.394452464026358
 20
169.941739549544
 30
0.0
  0
VERTEX
  5
1EE9
  8
0
 10
97.375473356913631
 20
169.9070917079398
 30
0.0
  0
VERTEX
  5
1EEA
  8
0
 10
97.365638104597224
 20
169.88994067572389
 30
0.0
  0
VERTEX
  5
1EEB
  8
0
 10
97.355572741819458
 20
169.8729050198624
 30
0.0
  0
VERTEX
  5
1EEC
  8
0
 10
97.33475273764401
 20
169.83918014579891
 30
0.0
  0
VERTEX
  5
1EED
  8
0
 10
97.31301543062068
 20
169.80591763004861
 30
0.0
  0
VERTEX
  5
1EEE
  8
0
 10
97.290362880152074
 20
169.7731178992135
 30
0.0
  0
VERTEX
  5
1EEF
  8
0
 10
97.266797124371806
 20
169.7407812606362
 30
0.0
  0
VERTEX
  5
1EF0
  8
0
 10
97.242320185408744
 20
169.70890790080901
 30
0.0
  0
VERTEX
  5
1EF1
  8
0
 10
97.229740650996177
 20
169.69314497526699
 30
0.0
  0
VERTEX
  5
1EF2
  8
0
 10
97.216935045044934
 20
169.6774990550322
 30
0.0
  0
VERTEX
  5
1EF3
  8
0
 10
97.190678279901192
 20
169.64659419756791
 30
0.0
  0
VERTEX
  5
1EF4
  8
0
 10
97.163572183715587
 20
169.61620957704019
 30
0.0
  0
VERTEX
  5
1EF5
  8
0
 10
97.135622818889146
 20
169.58634102146209
 30
0.0
  0
VERTEX
  5
1EF6
  8
0
 10
97.106836114199268
 20
169.55698435267129
 30
0.0
  0
VERTEX
  5
1EF7
  8
0
 10
97.077217877484955
 20
169.52813538644921
 30
0.0
  0
VERTEX
  5
1EF8
  8
0
 10
97.062098719544224
 20
169.5138999825194
 30
0.0
  0
VERTEX
  5
1EF9
  8
0
 10
97.046773807989098
 20
169.4997899322577
 30
0.0
  0
VERTEX
  5
1EFA
  8
0
 10
97.015509508320235
 20
169.4719437926409
 30
0.0
  0
VERTEX
  5
1EFB
  8
0
 10
96.983430495998562
 20
169.4445927623338
 30
0.0
  0
VERTEX
  5
1EFC
  8
0
 10
96.967087176293475
 20
169.43110159661489
 30
0.0
  0
VERTEX
  5
1EFD
  8
0
 10
96.950542214558482
 20
169.4177326271234
 30
0.0
  0
VERTEX
  5
1EFE
  8
0
 10
96.916850044178318
 20
169.39135916250339
 30
0.0
  0
VERTEX
  5
1EFF
  8
0
 10
96.88235931181589
 20
169.36546813216211
 30
0.0
  0
VERTEX
  5
1F00
  8
0
 10
96.864816137391358
 20
169.35270220236919
 30
0.0
  0
VERTEX
  5
1F01
  8
0
 10
96.847075300828351
 20
169.3400552863435
 30
0.0
  0
VERTEX
  5
1F02
  8
0
 10
96.811003260061284
 20
169.31511636011771
 30
0.0
  0
VERTEX
  5
1F03
  8
0
 10
96.774148412392336
 20
169.29064707159469
 30
0.0
  0
VERTEX
  5
1F04
  8
0
 10
96.736515962720773
 20
169.26664312011451
 30
0.0
  0
VERTEX
  5
1F05
  8
0
 10
96.698111105395114
 20
169.2431001844441
 30
0.0
  0
VERTEX
  5
1F06
  8
0
 10
96.658939031074681
 20
169.22001392100759
 30
0.0
  0
VERTEX
  5
1F07
  8
0
 10
96.63906691017452
 20
169.20864067747809
 30
0.0
  0
VERTEX
  5
1F08
  8
0
 10
96.619004933024769
 20
169.19737996217719
 30
0.0
  0
VERTEX
  5
1F09
  8
0
 10
96.578314012845567
 20
169.17519391464589
 30
0.0
  0
VERTEX
  5
1F0A
  8
0
 10
96.53687148564012
 20
169.15345135790361
 30
0.0
  0
VERTEX
  5
1F0B
  8
0
 10
96.494682584625934
 20
169.13214784283579
 30
0.0
  0
VERTEX
  5
1F0C
  8
0
 10
96.451752565200024
 20
169.11127889045849
 30
0.0
  0
VERTEX
  5
1F0D
  8
0
 10
96.408086708466328
 20
169.09083999080619
 30
0.0
  0
VERTEX
  5
1F0E
  8
0
 10
96.385979499232803
 20
169.0807803926788
 30
0.0
  0
VERTEX
  5
1F0F
  8
0
 10
96.363690324238405
 20
169.07082660198159
 30
0.0
  0
VERTEX
  5
1F10
  8
0
 10
96.318568753530258
 20
169.0512341493783
 30
0.0
  0
VERTEX
  5
1F11
  8
0
 10
96.272727370550854
 20
169.03205802508421
 30
0.0
  0
VERTEX
  5
1F12
  8
0
 10
96.249538438358627
 20
169.02262463686839
 30
0.0
  0
SEQEND
  5
1F13
  8
0
  0
LINE
  5
1759
  8
0
 10
64.095181416645687
 20
135.3409889752553
 30
0.0
 11
64.095181416645687
 21
172.3409889752553
 31
0.0
  0
LINE
  5
1766
  8
0
 10
102.6668152547672
 20
140.77224474733131
 30
0.0
 11
102.6668152547672
 21
166.90973320317929
 31
0.0
  0
LINE
  5
1768
  8
0
 10
102.6346993654582
 20
140.63082339109391
 30
0.0
 11
102.6346993654582
 21
167.0511545594166
 31
0.0
  0
LINE
  5
1769
  8
0
 10
44.395181416645698
 20
135.3409889752553
 30
0.0
 11
44.395181416645698
 21
172.3409889752553
 31
0.0
  0
LINE
  5
176B
  8
0
 10
44.095181416645687
 20
146.0909889752553
 30
0.0
 11
44.095181416645687
 21
161.5909889752553
 31
0.0
  0
LINE
  5
176C
  8
2
 10
63.418681416645661
 20
150.51748897525519
 30
0.0
 11
64.095181416645687
 21
149.8409889752553
 31
0.0
  0
LINE
  5
176D
  8
2
 10
64.095181416645687
 20
157.8409889752553
 30
0.0
 11
63.418681416645711
 21
157.1644889752553
 31
0.0
  0
LINE
  5
176E
  8
2
 10
44.77168141664572
 20
150.5174889752553
 30
0.0
 11
63.418681416645711
 21
150.51748897525519
 31
0.0
  0
LINE
  5
176F
  8
2
 10
63.418681416645711
 20
157.1644889752553
 30
0.0
 11
44.77168141664572
 21
157.1644889752553
 31
0.0
  0
LINE
  5
1770
  8
2
 10
44.095181416645687
 20
149.8409889752553
 30
0.0
 11
44.77168141664572
 21
150.5174889752553
 31
0.0
  0
LINE
  5
1771
  8
2
 10
44.77168141664572
 20
157.1644889752553
 30
0.0
 11
44.095181416645687
 21
157.8409889752553
 31
0.0
  0
LINE
  5
1775
  8
0
 10
64.095181416645687
 20
135.3409889752553
 30
0.0
 11
68.542083782977159
 21
133.0353614712935
 31
0.0
  0
LINE
  5
1776
  8
0
 10
70.787355970045724
 20
175.8107439733532
 30
0.0
 11
64.095181416645687
 21
172.3409889752553
 31
0.0
  0
ARC
  5
1777
  8
0
 10
83.215181416645734
 20
151.84098897525519
 30
0.0
 40
27.000000000000028
 50
61.134577261625807
 51
117.4058113705196
  0
ARC
  5
1778
  8
0
 10
43.595181416645801
 20
153.8409889752553
 30
0.0
 40
60.499999999999901
 50
347.5250764361034
 51
12.47492356389658
  0
LINE
  5
1779
  8
0
 10
102.6333516631684
 20
140.73878115573251
 30
0.0
 11
102.6668152547672
 21
140.77224474733131
 31
0.0
  0
LINE
  5
177C
  8
0
 10
102.6668152547672
 20
166.90973320317929
 30
0.0
 11
102.6333516631684
 21
166.943196794778
 31
0.0
  0
ARC
  5
177F
  8
0
 10
89.973736909385536
 20
164.1015732864351
 30
0.0
 40
13.00000000000019
 50
13.1140929079099
 51
61.134577261625651
  0
ARC
  5
1780
  8
0
 10
89.973736909385536
 20
143.58040466407539
 30
0.0
 40
13.000000000000201
 50
305.79085551801171
 51
346.88590709209018
  0
LINE
  5
1781
  8
0
 10
44.395181416645698
 20
135.3409889752553
 30
0.0
 11
64.095181416645687
 21
135.3409889752553
 31
0.0
  0
LINE
  5
1782
  8
0
 10
64.095181416645687
 20
172.3409889752553
 30
0.0
 11
44.395181416645698
 21
172.3409889752553
 31
0.0
  0
LINE
  5
1783
  8
0
 10
44.095181416645687
 20
146.0909889752553
 30
0.0
 11
44.395181416645698
 21
146.0909889752553
 31
0.0
  0
LINE
  5
1784
  8
0
 10
44.395181416645698
 20
161.5909889752553
 30
0.0
 11
44.095181416645687
 21
161.5909889752553
 31
0.0
  0
LINE
  5
17F0
  8
1
 10
168.589751797698
 20
123.8409889752553
 30
0.0
 11
168.589751797698
 21
183.8409889752553
 31
0.0
  0
LINE
  5
17F1
  8
1
 10
138.58975179769789
 20
153.8409889752553
 30
0.0
 11
198.589751797698
 21
153.8409889752553
 31
0.0
  0
POLYLINE
  5
17F4
  8
0
 66
     1
 10
0.0
 20
0.0
 30
0.0
  0
VERTEX
  5
1F14
  8
0
 10
143.592150237298
 20
154.18727820045481
 30
0.0
  0
VERTEX
  5
1F15
  8
0
 10
143.59551832742869
 20
154.18513599358411
 30
0.0
  0
VERTEX
  5
1F16
  8
0
 10
143.62243961885821
 20
154.1679588534796
 30
0.0
  0
VERTEX
  5
1F17
  8
0
 10
143.67615136635681
 20
154.1333977107812
 30
0.0
  0
VERTEX
  5
1F18
  8
0
 10
143.7129938998219
 20
154.1094658896283
 30
0.0
  0
VERTEX
  5
1F19
  8
0
 10
143.75652454261359
 20
154.08095145752719
 30
0.0
  0
VERTEX
  5
1F1A
  8
0
 10
143.8635887598071
 20
154.00970899923331
 30
0.0
  0
VERTEX
  5
1F1B
  8
0
 10
143.99709038839711
 20
153.91862109983779
 30
0.0
  0
VERTEX
  5
1F1C
  8
0
 10
144.15660933801891
 20
153.8064135230662
 30
0.0
  0
VERTEX
  5
1F1D
  8
0
 10
144.3415764943297
 20
153.6715597245128
 30
0.0
  0
VERTEX
  5
1F1E
  8
0
 10
144.54988811618119
 20
153.51333496307399
 30
0.0
  0
VERTEX
  5
1F1F
  8
0
 10
144.6609877298097
 20
153.4260899754147
 30
0.0
  0
VERTEX
  5
1F20
  8
0
 10
144.7762543824125
 20
153.33339730801211
 30
0.0
  0
VERTEX
  5
1F21
  8
0
 10
145.01809258298829
 20
153.1314334618807
 30
0.0
  0
VERTEX
  5
1F22
  8
0
 10
145.2730362569641
 20
152.90693429697049
 30
0.0
  0
VERTEX
  5
1F23
  8
0
 10
145.5387626787828
 20
152.6593345782166
 30
0.0
  0
VERTEX
  5
1F24
  8
0
 10
145.8129950968426
 20
152.38801411618689
 30
0.0
  0
VERTEX
  5
1F25
  8
0
 10
146.0955237535853
 20
152.09008936423339
 30
0.0
  0
VERTEX
  5
1F26
  8
0
 10
146.241695444253
 20
151.9279730939422
 30
0.0
  0
VERTEX
  5
1F27
  8
0
 10
146.2663569626211
 20
151.90005285044791
 30
0.0
  0
VERTEX
  5
1F28
  8
0
 10
146.31592036437161
 20
151.84342870095799
 30
0.0
  0
VERTEX
  5
1F29
  8
0
 10
146.36579180606051
 20
151.78575107613909
 30
0.0
  0
VERTEX
  5
1F2A
  8
0
 10
146.39083831809461
 20
151.75651396771619
 30
0.0
  0
VERTEX
  5
1F2B
  8
0
 10
146.41595614259609
 20
151.72700958653169
 30
0.0
  0
VERTEX
  5
1F2C
  8
0
 10
146.46639800053251
 20
151.6671937362751
 30
0.0
  0
VERTEX
  5
1F2D
  8
0
 10
146.51710178921911
 20
151.6062929043122
 30
0.0
  0
VERTEX
  5
1F2E
  8
0
 10
146.5680517112317
 20
151.54429632461751
 30
0.0
  0
VERTEX
  5
1F2F
  8
0
 10
146.61923177190391
 20
151.4811930655674
 30
0.0
  0
VERTEX
  5
1F30
  8
0
 10
146.67062578775739
 20
151.4169720086123
 30
0.0
  0
VERTEX
  5
1F31
  8
0
 10
146.69639792169241
 20
151.3844387748959
 30
0.0
  0
VERTEX
  5
1F32
  8
0
 10
146.72221739361129
 20
151.3516218264493
 30
0.0
  0
VERTEX
  5
1F33
  8
0
 10
146.773990048131
 20
151.28513096094301
 30
0.0
  0
VERTEX
  5
1F34
  8
0
 10
146.8259270375618
 20
151.21748760109261
 30
0.0
  0
VERTEX
  5
1F35
  8
0
 10
146.87801147737011
 20
151.14867966140329
 30
0.0
  0
VERTEX
  5
1F36
  8
0
 10
146.9302263115047
 20
151.0786947610809
 30
0.0
  0
VERTEX
  5
1F37
  8
0
 10
146.9825543089724
 20
151.007520204538
 30
0.0
  0
VERTEX
  5
1F38
  8
0
 10
147.00875530992141
 20
150.9714827473513
 30
0.0
  0
VERTEX
  5
1F39
  8
0
 10
147.03497805741611
 20
150.9351429637714
 30
0.0
  0
VERTEX
  5
1F3A
  8
0
 10
147.08747995337481
 20
150.8615496632481
 30
0.0
  0
VERTEX
  5
1F3B
  8
0
 10
147.1400421889069
 20
150.7867265680145
 30
0.0
  0
VERTEX
  5
1F3C
  8
0
 10
147.16634030894051
 20
150.74884945489569
 30
0.0
  0
SEQEND
  5
1F3D
  8
0
  0
POLYLINE
  5
17F8
  8
0
 66
     1
 10
0.0
 20
0.0
 30
0.0
  0
VERTEX
  5
1F3E
  8
0
 10
149.38345739937259
 20
143.85889790600291
 30
0.0
  0
VERTEX
  5
1F3F
  8
0
 10
149.38419810048569
 20
143.8117843053968
 30
0.0
  0
VERTEX
  5
1F40
  8
0
 10
149.38514144005691
 20
143.7183795219706
 30
0.0
  0
VERTEX
  5
1F41
  8
0
 10
149.38538794164489
 20
143.62607296150901
 30
0.0
  0
VERTEX
  5
1F42
  8
0
 10
149.38525751308239
 20
143.58033217071969
 30
0.0
  0
VERTEX
  5
1F43
  8
0
 10
149.3849619944919
 20
143.53486673800731
 30
0.0
  0
VERTEX
  5
1F44
  8
0
 10
149.38388765324419
 20
143.4447630829259
 30
0.0
  0
VERTEX
  5
1F45
  8
0
 10
149.38218865249991
 20
143.35576432619339
 30
0.0
  0
VERTEX
  5
1F46
  8
0
 10
149.379888419601
 20
143.26787287407339
 30
0.0
  0
VERTEX
  5
1F47
  8
0
 10
149.37701008561399
 20
143.1810911846724
 30
0.0
  0
VERTEX
  5
1F48
  8
0
 10
149.37357649448489
 20
143.09542174177599
 30
0.0
  0
VERTEX
  5
1F49
  8
0
 10
149.37165853956179
 20
143.05300488928219
 30
0.0
  0
VERTEX
  5
1F4A
  8
0
 10
149.3696102103932
 20
143.01086702761151
 30
0.0
  0
VERTEX
  5
1F4B
  8
0
 10
149.36513352335089
 20
142.92742949505001
 30
0.0
  0
VERTEX
  5
1F4C
  8
0
 10
149.36016845312349
 20
142.845111539686
 30
0.0
  0
VERTEX
  5
1F4D
  8
0
 10
149.3547367515589
 20
142.76391547216039
 30
0.0
  0
VERTEX
  5
1F4E
  8
0
 10
149.3488599034275
 20
142.6838434910288
 30
0.0
  0
VERTEX
  5
1F4F
  8
0
 10
149.34255912588421
 20
142.60489765642041
 30
0.0
  0
VERTEX
  5
1F50
  8
0
 10
149.3392563203484
 20
142.56584764373849
 30
0.0
  0
VERTEX
  5
1F51
  8
0
 10
149.3358553423034
 20
142.52707959184099
 30
0.0
  0
VERTEX
  5
1F52
  8
0
 10
149.32876333738909
 20
142.45032938391481
 30
0.0
  0
VERTEX
  5
1F53
  8
0
 10
149.32129724529909
 20
142.37459811410929
 30
0.0
  0
VERTEX
  5
1F54
  8
0
 10
149.317429425234
 20
142.3371135221646
 30
0.0
  0
VERTEX
  5
1F55
  8
0
 10
149.29247120092239
 20
142.11751511144431
 30
0.0
  0
VERTEX
  5
1F56
  8
0
 10
149.23495511434109
 20
141.70536396673751
 30
0.0
  0
VERTEX
  5
1F57
  8
0
 10
149.17007857676199
 20
141.3287513130488
 30
0.0
  0
VERTEX
  5
1F58
  8
0
 10
149.10005531800601
 20
140.9832741965995
 30
0.0
  0
VERTEX
  5
1F59
  8
0
 10
149.02585433864951
 20
140.66239919722489
 30
0.0
  0
VERTEX
  5
1F5A
  8
0
 10
148.94951595772781
 20
140.36669467918611
 30
0.0
  0
VERTEX
  5
1F5B
  8
0
 10
148.91118400698011
 20
140.22851058878939
 30
0.0
  0
VERTEX
  5
1F5C
  8
0
 10
148.8730805261234
 20
140.09689954514721
 30
0.0
  0
VERTEX
  5
1F5D
  8
0
 10
148.7985557881112
 20
139.85379788972719
 30
0.0
  0
VERTEX
  5
1F5E
  8
0
 10
148.72790555459781
 20
139.63822940935751
 30
0.0
  0
VERTEX
  5
1F5F
  8
0
 10
148.6630355564605
 20
139.4511052696711
 30
0.0
  0
VERTEX
  5
1F60
  8
0
 10
148.60610209754469
 20
139.2943075006331
 30
0.0
  0
VERTEX
  5
1F61
  8
0
 10
148.5592089854446
 20
139.16983528364
 30
0.0
  0
VERTEX
  5
1F62
  8
0
 10
148.53983410440401
 20
139.1195497100168
 30
0.0
  0
VERTEX
  5
1F63
  8
0
 10
148.5232995228842
 20
139.07713928545911
 30
0.0
  0
VERTEX
  5
1F64
  8
0
 10
148.4990329323158
 20
139.01570811905751
 30
0.0
  0
VERTEX
  5
1F65
  8
0
 10
148.4868125148443
 20
138.98512688907849
 30
0.0
  0
VERTEX
  5
1F66
  8
0
 10
148.48527910325649
 20
138.98130601502831
 30
0.0
  0
SEQEND
  5
1F67
  8
0
  0
POLYLINE
  5
17F9
  8
0
 66
     1
 10
0.0
 20
0.0
 30
0.0
  0
VERTEX
  5
1F68
  8
0
 10
147.16634030894059
 20
150.74884945489569
 30
0.0
  0
VERTEX
  5
1F69
  8
0
 10
147.1827207980744
 20
150.72510502550321
 30
0.0
  0
VERTEX
  5
1F6A
  8
0
 10
147.2155274632222
 20
150.6771944461178
 30
0.0
  0
VERTEX
  5
1F6B
  8
0
 10
147.24838809736019
 20
150.6287215074351
 30
0.0
  0
VERTEX
  5
1F6C
  8
0
 10
147.26483604619241
 20
150.6042741353281
 30
0.0
  0
VERTEX
  5
1F6D
  8
0
 10
147.28129435882079
 20
150.57968615487749
 30
0.0
  0
VERTEX
  5
1F6E
  8
0
 10
147.31423790275781
 20
150.53008835773491
 30
0.0
  0
VERTEX
  5
1F6F
  8
0
 10
147.34721038439949
 20
150.4799281056012
 30
0.0
  0
VERTEX
  5
1F70
  8
0
 10
147.3802034621385
 20
150.42920540473759
 30
0.0
  0
VERTEX
  5
1F71
  8
0
 10
147.41320880043409
 20
150.37792027439281
 30
0.0
  0
VERTEX
  5
1F72
  8
0
 10
147.4462180725051
 20
150.3260727431138
 30
0.0
  0
VERTEX
  5
1F73
  8
0
 10
147.46272158459351
 20
150.29993808768501
 30
0.0
  0
VERTEX
  5
1F74
  8
0
 10
147.47922296279199
 20
150.27366284508321
 30
0.0
  0
VERTEX
  5
1F75
  8
0
 10
147.5122151691647
 20
150.22069061652019
 30
0.0
  0
VERTEX
  5
1F76
  8
0
 10
147.54518640485711
 20
150.16715609218781
 30
0.0
  0
VERTEX
  5
1F77
  8
0
 10
147.578128400107
 20
150.1130593020479
 30
0.0
  0
VERTEX
  5
1F78
  8
0
 10
147.61103290348279
 20
150.0584002681106
 30
0.0
  0
VERTEX
  5
1F79
  8
0
 10
147.6438916828798
 20
150.00317900152481
 30
0.0
  0
VERTEX
  5
1F7A
  8
0
 10
147.6603013590055
 20
149.9753575308516
 30
0.0
  0
VERTEX
  5
1F7B
  8
0
 10
147.67669652616999
 20
149.9473954999593
 30
0.0
  0
VERTEX
  5
1F7C
  8
0
 10
147.70943924149071
 20
149.8910497453262
 30
0.0
  0
VERTEX
  5
1F7D
  8
0
 10
147.74211165716119
 20
149.83414170189741
 30
0.0
  0
VERTEX
  5
1F7E
  8
0
 10
147.7584189543893
 20
149.80547680553289
 30
0.0
  0
VERTEX
  5
1F7F
  8
0
 10
147.77470562121709
 20
149.77667131486919
 30
0.0
  0
VERTEX
  5
1F80
  8
0
 10
147.80721300055529
 20
149.71863850942719
 30
0.0
  0
VERTEX
  5
1F81
  8
0
 10
147.83962177416041
 20
149.66005029559761
 30
0.0
  0
VERTEX
  5
1F82
  8
0
 10
147.85577319768879
 20
149.63057259472481
 30
0.0
  0
VERTEX
  5
1F83
  8
0
 10
147.87188454050249
 20
149.6009792558061
 30
0.0
  0
VERTEX
  5
1F84
  8
0
 10
147.9039828094671
 20
149.54144780458839
 30
0.0
  0
VERTEX
  5
1F85
  8
0
 10
147.9359082902605
 20
149.48146026037651
 30
0.0
  0
VERTEX
  5
1F86
  8
0
 10
147.96765278731721
 20
149.42102099778009
 30
0.0
  0
VERTEX
  5
1F87
  8
0
 10
147.9992082030133
 20
149.36013444353969
 30
0.0
  0
VERTEX
  5
1F88
  8
0
 10
148.0305665401095
 20
149.2988050726222
 30
0.0
  0
VERTEX
  5
1F89
  8
0
 10
148.04616933303259
 20
149.26797574160261
 30
0.0
  0
VERTEX
  5
1F8A
  8
0
 10
148.06171990391451
 20
149.23703740449591
 30
0.0
  0
VERTEX
  5
1F8B
  8
0
 10
148.09266050415999
 20
149.17483599962441
 30
0.0
  0
VERTEX
  5
1F8C
  8
0
 10
148.12338065658449
 20
149.11220545621759
 30
0.0
  0
VERTEX
  5
1F8D
  8
0
 10
148.15387278422119
 20
149.04915040727849
 30
0.0
  0
VERTEX
  5
1F8E
  8
0
 10
148.1841294183906
 20
148.98567551798311
 30
0.0
  0
VERTEX
  5
1F8F
  8
0
 10
148.21414319939791
 20
148.92178548343099
 30
0.0
  0
VERTEX
  5
1F90
  8
0
 10
148.22905674996809
 20
148.8896862616219
 30
0.0
  0
VERTEX
  5
1F91
  8
0
 10
148.24390687694171
 20
148.8574850268015
 30
0.0
  0
VERTEX
  5
1F92
  8
0
 10
148.2734133102372
 20
148.79277889795071
 30
0.0
  0
VERTEX
  5
1F93
  8
0
 10
148.30265546786629
 20
148.72767187248249
 30
0.0
  0
VERTEX
  5
1F94
  8
0
 10
148.33162642736241
 20
148.6621687513238
 30
0.0
  0
VERTEX
  5
1F95
  8
0
 10
148.36031937454621
 20
148.59627436083341
 30
0.0
  0
VERTEX
  5
1F96
  8
0
 10
148.38872760262669
 20
148.5299935534714
 30
0.0
  0
VERTEX
  5
1F97
  8
0
 10
148.4028228802251
 20
148.4967097672903
 30
0.0
  0
VERTEX
  5
1F98
  8
0
 10
148.4168445110875
 20
148.4633312090516
 30
0.0
  0
VERTEX
  5
1F99
  8
0
 10
148.44466360437619
 20
148.39629223659941
 30
0.0
  0
VERTEX
  5
1F9A
  8
0
 10
148.47217849042309
 20
148.32888157683189
 30
0.0
  0
VERTEX
  5
1F9B
  8
0
 10
148.49936612580939
 20
148.2611462995157
 30
0.0
  0
VERTEX
  5
1F9C
  8
0
 10
148.52619189869421
 20
148.1931662498331
 30
0.0
  0
VERTEX
  5
1F9D
  8
0
 10
148.55265042576431
 20
148.12495079255891
 30
0.0
  0
VERTEX
  5
1F9E
  8
0
 10
148.56574049867859
 20
148.09075732145669
 30
0.0
  0
VERTEX
  5
1F9F
  8
0
 10
148.57873701234681
 20
148.05650804771199
 30
0.0
  0
VERTEX
  5
1FA0
  8
0
 10
148.60444712650531
 20
147.98784618946141
 30
0.0
  0
VERTEX
  5
1FA1
  8
0
 10
148.6297763991775
 20
147.91897344541781
 30
0.0
  0
VERTEX
  5
1FA2
  8
0
 10
148.65472062425769
 20
147.84989809606199
 30
0.0
  0
VERTEX
  5
1FA3
  8
0
 10
148.67927575863041
 20
147.7806284743055
 30
0.0
  0
VERTEX
  5
1FA4
  8
0
 10
148.7034379221667
 20
147.711172965175
 30
0.0
  0
VERTEX
  5
1FA5
  8
0
 10
148.7153704718894
 20
147.6763781373653
 30
0.0
  0
VERTEX
  5
1FA6
  8
0
 10
148.72720339768929
 20
147.641540005617
 30
0.0
  0
VERTEX
  5
1FA7
  8
0
 10
148.7505686309166
 20
147.5717380844101
 30
0.0
  0
VERTEX
  5
1FA8
  8
0
 10
148.77353023039441
 20
147.50177574217849
 30
0.0
  0
VERTEX
  5
1FA9
  8
0
 10
148.78485865215251
 20
147.46673709632341
 30
0.0
  0
VERTEX
  5
1FAA
  8
0
 10
148.79608496742119
 20
147.431661571494
 30
0.0
  0
VERTEX
  5
1FAB
  8
0
 10
148.81822977597699
 20
147.3614042170573
 30
0.0
  0
VERTEX
  5
1FAC
  8
0
 10
148.83996175266091
 20
147.29101237594389
 30
0.0
  0
VERTEX
  5
1FAD
  8
0
 10
148.85067206619269
 20
147.2557687551141
 30
0.0
  0
VERTEX
  5
1FAE
  8
0
 10
148.86127815664551
 20
147.2204947979055
 30
0.0
  0
VERTEX
  5
1FAF
  8
0
 10
148.88217640965161
 20
147.14986028571059
 30
0.0
  0
VERTEX
  5
1FB0
  8
0
 10
148.9026540959517
 20
147.07911769551399
 30
0.0
  0
VERTEX
  5
1FB1
  8
0
 10
148.92270896240379
 20
147.00827593724
 30
0.0
  0
VERTEX
  5
1FB2
  8
0
 10
148.9423346433482
 20
146.9373596018917
 30
0.0
  0
VERTEX
  5
1FB3
  8
0
 10
148.96150599774009
 20
146.86646566930679
 30
0.0
  0
VERTEX
  5
1FB4
  8
0
 10
148.9709200465856
 20
146.8310348908831
 30
0.0
  0
VERTEX
  5
1FB5
  8
0
 10
148.9802197986117
 20
146.79561629018849
 30
0.0
  0
VERTEX
  5
1FB6
  8
0
 10
148.99847682641601
 20
146.72481979377019
 30
0.0
  0
VERTEX
  5
1FB7
  8
0
 10
149.0162779892371
 20
146.6540845488274
 30
0.0
  0
VERTEX
  5
1FB8
  8
0
 10
149.0336243223561
 20
146.58341896605211
 30
0.0
  0
VERTEX
  5
1FB9
  8
0
 10
149.05051698801989
 20
146.51283149997369
 30
0.0
  0
VERTEX
  5
1FBA
  8
0
 10
149.0669572753927
 20
146.44233065041971
 30
0.0
  0
VERTEX
  5
1FBB
  8
0
 10
149.07500821481301
 20
146.40711537567549
 30
0.0
  0
VERTEX
  5
1FBC
  8
0
 10
149.0829466006706
 20
146.37192496350781
 30
0.0
  0
VERTEX
  5
1FBD
  8
0
 10
149.09848650733559
 20
146.30162303216861
 30
0.0
  0
VERTEX
  5
1FBE
  8
0
 10
149.1135786665298
 20
146.2314334961977
 30
0.0
  0
VERTEX
  5
1FBF
  8
0
 10
149.12822487752501
 20
146.1613650418418
 30
0.0
  0
VERTEX
  5
1FC0
  8
0
 10
149.1424270682673
 20
146.0914264009235
 30
0.0
  0
VERTEX
  5
1FC1
  8
0
 10
149.15618729597469
 20
146.02162634951461
 30
0.0
  0
VERTEX
  5
1FC2
  8
0
 10
149.1629023520729
 20
145.98678104907171
 30
0.0
  0
VERTEX
  5
1FC3
  8
0
 10
149.1695077477647
 20
145.95197370616859
 30
0.0
  0
VERTEX
  5
1FC4
  8
0
 10
149.18239074129161
 20
145.882477329729
 30
0.0
  0
VERTEX
  5
1FC5
  8
0
 10
149.19483872537251
 20
145.81314611672701
 30
0.0
  0
VERTEX
  5
1FC6
  8
0
 10
149.20685428058201
 20
145.74398899839039
 30
0.0
  0
VERTEX
  5
1FC7
  8
0
 10
149.2184401197959
 20
145.67501493728469
 30
0.0
  0
VERTEX
  5
1FC8
  8
0
 10
149.22959908866559
 20
145.6062329236087
 30
0.0
  0
VERTEX
  5
1FC9
  8
0
 10
149.2350194223911
 20
145.57191675056629
 30
0.0
  0
VERTEX
  5
1FCA
  8
0
 10
149.2403341660073
 20
145.53765197117241
 30
0.0
  0
VERTEX
  5
1FCB
  8
0
 10
149.25063934884651
 20
145.4693426887788
 30
0.0
  0
VERTEX
  5
1FCC
  8
0
 10
149.26050956045501
 20
145.40137985006609
 30
0.0
  0
VERTEX
  5
1FCD
  8
0
 10
149.26995084700519
 20
145.3337685505638
 30
0.0
  0
VERTEX
  5
1FCE
  8
0
 10
149.2789692757249
 20
145.26651386395679
 30
0.0
  0
VERTEX
  5
1FCF
  8
0
 10
149.2875709286491
 20
145.1996208914037
 30
0.0
  0
VERTEX
  5
1FD0
  8
0
 10
149.2917173691153
 20
145.1663116501048
 30
0.0
  0
VERTEX
  5
1FD1
  8
0
 10
149.2957619036153
 20
145.1330947638406
 30
0.0
  0
VERTEX
  5
1FD2
  8
0
 10
149.30354831536121
 20
145.06694064350671
 30
0.0
  0
VERTEX
  5
1FD3
  8
0
 10
149.31093629669201
 20
145.00116372472789
 30
0.0
  0
VERTEX
  5
1FD4
  8
0
 10
149.31448279768989
 20
144.968418347956
 30
0.0
  0
VERTEX
  5
1FD5
  8
0
 10
149.31793199968479
 20
144.93576923399851
 30
0.0
  0
VERTEX
  5
1FD6
  8
0
 10
149.3245415968978
 20
144.8707624294037
 30
0.0
  0
VERTEX
  5
1FD7
  8
0
 10
149.33077128255829
 20
144.8061485994275
 30
0.0
  0
VERTEX
  5
1FD8
  8
0
 10
149.3337456004592
 20
144.77399071046179
 30
0.0
  0
VERTEX
  5
1FD9
  8
0
 10
149.33662727370199
 20
144.74193306119
 30
0.0
  0
VERTEX
  5
1FDA
  8
0
 10
149.34211581124109
 20
144.6781211581644
 30
0.0
  0
VERTEX
  5
1FDB
  8
0
 10
149.3472431609396
 20
144.61471825741759
 30
0.0
  0
VERTEX
  5
1FDC
  8
0
 10
149.35201561427741
 20
144.551729746425
 30
0.0
  0
VERTEX
  5
1FDD
  8
0
 10
149.35643948918681
 20
144.48916102950599
 30
0.0
  0
VERTEX
  5
1FDE
  8
0
 10
149.3605211306479
 20
144.4270175239287
 30
0.0
  0
VERTEX
  5
1FDF
  8
0
 10
149.36243560414951
 20
144.39610692080649
 30
0.0
  0
VERTEX
  5
1FE0
  8
0
 10
149.36426691113019
 20
144.36530465573
 30
0.0
  0
VERTEX
  5
1FE1
  8
0
 10
149.3676832308723
 20
144.30402785529759
 30
0.0
  0
VERTEX
  5
1FE2
  8
0
 10
149.37077651799129
 20
144.24319255275771
 30
0.0
  0
VERTEX
  5
1FE3
  8
0
 10
149.37355322841699
 20
144.1828041732133
 30
0.0
  0
VERTEX
  5
1FE4
  8
0
 10
149.37601984564759
 20
144.12286813187339
 30
0.0
  0
VERTEX
  5
1FE5
  8
0
 10
149.3781828803244
 20
144.06338982911379
 30
0.0
  0
VERTEX
  5
1FE6
  8
0
 10
149.37915259605739
 20
144.03382401204021
 30
0.0
  0
VERTEX
  5
1FE7
  8
0
 10
149.3800488696271
 20
144.0043746455076
 30
0.0
  0
VERTEX
  5
1FE8
  8
0
 10
149.38162437649001
 20
143.94582793686129
 30
0.0
  0
VERTEX
  5
1FE9
  8
0
 10
149.3829159886424
 20
143.88775502928971
 30
0.0
  0
VERTEX
  5
1FEA
  8
0
 10
149.38345739937259
 20
143.85889790600299
 30
0.0
  0
SEQEND
  5
1FEB
  8
0
  0
POLYLINE
  5
17FA
  8
0
 66
     1
 10
0.0
 20
0.0
 30
0.0
  0
VERTEX
  5
1FEC
  8
0
 10
160.53572747277181
 20
130.17386637504259
 30
0.0
  0
VERTEX
  5
1FED
  8
0
 10
160.53901118857479
 20
130.17657728730299
 30
0.0
  0
VERTEX
  5
1FEE
  8
0
 10
160.56529196029089
 20
130.19820609588581
 30
0.0
  0
VERTEX
  5
1FEF
  8
0
 10
160.61810779822059
 20
130.2413120209697
 30
0.0
  0
VERTEX
  5
1FF0
  8
0
 10
160.65466081584259
 20
130.27086542565851
 30
0.0
  0
VERTEX
  5
1FF1
  8
0
 10
160.69809605240869
 20
130.3056891291242
 30
0.0
  0
VERTEX
  5
1FF2
  8
0
 10
160.8060372370131
 20
130.3908679706409
 30
0.0
  0
VERTEX
  5
1FF3
  8
0
 10
160.94290240225661
 20
130.4961424649106
 30
0.0
  0
VERTEX
  5
1FF4
  8
0
 10
161.10987444151459
 20
130.62057206031841
 30
0.0
  0
VERTEX
  5
1FF5
  8
0
 10
161.30598022213911
 20
130.76129891571409
 30
0.0
  0
VERTEX
  5
1FF6
  8
0
 10
161.529347995705
 20
130.91475325718201
 30
0.0
  0
VERTEX
  5
1FF7
  8
0
 10
161.65115303969719
 20
130.99547575812011
 30
0.0
  0
VERTEX
  5
1FF8
  8
0
 10
161.77965510565861
 20
131.07844129577759
 30
0.0
  0
VERTEX
  5
1FF9
  8
0
 10
162.0566040469713
 20
131.24982740005979
 30
0.0
  0
VERTEX
  5
1FFA
  8
0
 10
162.35990246708201
 20
131.42635123155549
 30
0.0
  0
VERTEX
  5
1FFB
  8
0
 10
162.6892524294631
 20
131.60544519526121
 30
0.0
  0
VERTEX
  5
1FFC
  8
0
 10
163.044130495378
 20
131.7844449169971
 30
0.0
  0
VERTEX
  5
1FFD
  8
0
 10
163.42208818773301
 20
131.9598892846038
 30
0.0
  0
VERTEX
  5
1FFE
  8
0
 10
163.61928147219061
 20
132.04543750101911
 30
0.0
  0
VERTEX
  5
1FFF
  8
0
 10
163.8218001220522
 20
132.1291485310326
 30
0.0
  0
VERTEX
  5
2000
  8
0
 10
164.0646516242787
 20
132.22411511110249
 30
0.0
  0
VERTEX
  5
2001
  8
0
 10
164.13531581365609
 20
132.25065809528709
 30
0.0
  0
VERTEX
  5
2002
  8
0
 10
164.2065404405987
 20
132.2769205176119
 30
0.0
  0
VERTEX
  5
2003
  8
0
 10
164.2423616348926
 20
132.2899434616325
 30
0.0
  0
VERTEX
  5
2004
  8
0
 10
164.27832140158071
 20
132.30289260929851
 30
0.0
  0
VERTEX
  5
2005
  8
0
 10
164.3506546172467
 20
132.3285646959356
 30
0.0
  0
VERTEX
  5
2006
  8
0
 10
164.42353603506871
 20
132.35392719612091
 30
0.0
  0
VERTEX
  5
2007
  8
0
 10
164.4969616318798
 20
132.37897061990691
 30
0.0
  0
VERTEX
  5
2008
  8
0
 10
164.57092741624041
 20
132.403685567043
 30
0.0
  0
VERTEX
  5
2009
  8
0
 10
164.64542943058541
 20
132.42806272500729
 30
0.0
  0
VERTEX
  5
200A
  8
0
 10
164.6828802969938
 20
132.4401217463427
 30
0.0
  0
VERTEX
  5
200B
  8
0
 10
164.7204637531006
 20
132.45209286682459
 30
0.0
  0
VERTEX
  5
200C
  8
0
 10
164.79602649927011
 20
132.47576684866661
 30
0.0
  0
VERTEX
  5
200D
  8
0
 10
164.8721138230332
 20
132.49907560723241
 30
0.0
  0
VERTEX
  5
200E
  8
0
 10
164.9103530103161
 20
132.51059021683059
 30
0.0
  0
SEQEND
  5
200F
  8
0
  0
POLYLINE
  5
17FE
  8
0
 66
     1
 10
0.0
 20
0.0
 30
0.0
  0
VERTEX
  5
2010
  8
0
 10
172.1482131873112
 20
132.49008175404751
 30
0.0
  0
VERTEX
  5
2011
  8
0
 10
172.19316300301981
 20
132.4762541710765
 30
0.0
  0
VERTEX
  5
2012
  8
0
 10
172.28211657503419
 20
132.44834279735929
 30
0.0
  0
VERTEX
  5
2013
  8
0
 10
172.36981327528551
 20
132.42010988619271
 30
0.0
  0
VERTEX
  5
2014
  8
0
 10
172.413191948899
 20
132.40588031439239
 30
0.0
  0
VERTEX
  5
2015
  8
0
 10
172.45625835884081
 20
132.39157927577071
 30
0.0
  0
VERTEX
  5
2016
  8
0
 10
172.54145687777151
 20
132.36277452790901
 30
0.0
  0
VERTEX
  5
2017
  8
0
 10
172.62541370451339
 20
132.33371893502479
 30
0.0
  0
VERTEX
  5
2018
  8
0
 10
172.70813355744389
 20
132.30443552453539
 30
0.0
  0
VERTEX
  5
2019
  8
0
 10
172.7896210279431
 20
132.27494706086759
 30
0.0
  0
VERTEX
  5
201A
  8
0
 10
172.86988060830649
 20
132.2452760452795
 30
0.0
  0
VERTEX
  5
201B
  8
0
 10
172.9095513233836
 20
132.23037903970359
 30
0.0
  0
VERTEX
  5
201C
  8
0
 10
172.94891671997121
 20
132.2154447136989
 30
0.0
  0
VERTEX
  5
201D
  8
0
 10
173.02673374160341
 20
132.18547503278771
 30
0.0
  0
VERTEX
  5
201E
  8
0
 10
173.10333603667439
 20
132.15538869443191
 30
0.0
  0
VERTEX
  5
201F
  8
0
 10
173.1787279802225
 20
132.1252071088548
 30
0.0
  0
VERTEX
  5
2020
  8
0
 10
173.2529139845615
 20
132.0949513965424
 30
0.0
  0
VERTEX
  5
2021
  8
0
 10
173.3258985237515
 20
132.064642379156
 30
0.0
  0
VERTEX
  5
2022
  8
0
 10
173.3619467046056
 20
132.0494721734361
 30
0.0
  0
VERTEX
  5
2023
  8
0
 10
173.3977189604887
 20
132.0342865839807
 30
0.0
  0
VERTEX
  5
2024
  8
0
 10
173.46844442790211
 20
132.003875531723
 30
0.0
  0
VERTEX
  5
2025
  8
0
 10
173.53808489745191
 20
131.97342469772479
 30
0.0
  0
VERTEX
  5
2026
  8
0
 10
173.57250085859991
 20
131.95818932089941
 30
0.0
  0
VERTEX
  5
2027
  8
0
 10
173.77340034766399
 20
131.86675983672731
 30
0.0
  0
VERTEX
  5
2028
  8
0
 10
174.14707581188799
 20
131.6850831604319
 30
0.0
  0
VERTEX
  5
2029
  8
0
 10
174.4846252875835
 20
131.50745218147171
 30
0.0
  0
VERTEX
  5
202A
  8
0
 10
174.79321526955781
 20
131.33327707288569
 30
0.0
  0
VERTEX
  5
202B
  8
0
 10
175.07707390394989
 20
131.1626327569154
 30
0.0
  0
VERTEX
  5
202C
  8
0
 10
175.33616014496769
 20
130.9977321327475
 30
0.0
  0
VERTEX
  5
202D
  8
0
 10
175.45638691682319
 20
130.9181259955954
 30
0.0
  0
VERTEX
  5
202E
  8
0
 10
175.5703816164972
 20
130.84078304436639
 30
0.0
  0
VERTEX
  5
202F
  8
0
 10
175.77958721586981
 20
130.69398258308749
 30
0.0
  0
VERTEX
  5
2030
  8
0
 10
175.96355355263361
 20
130.55950962176101
 30
0.0
  0
VERTEX
  5
2031
  8
0
 10
176.1217169064503
 20
130.43970712476491
 30
0.0
  0
VERTEX
  5
2032
  8
0
 10
176.25197004983031
 20
130.33803029919761
 30
0.0
  0
VERTEX
  5
2033
  8
0
 10
176.35476512401729
 20
130.2558044921837
 30
0.0
  0
VERTEX
  5
2034
  8
0
 10
176.39614983469789
 20
130.222195796178
 30
0.0
  0
VERTEX
  5
2035
  8
0
 10
176.43098771479279
 20
130.1936756715894
 30
0.0
  0
VERTEX
  5
2036
  8
0
 10
176.4813441672662
 20
130.15207867706309
 30
0.0
  0
VERTEX
  5
2037
  8
0
 10
176.50639580706491
 20
130.1312191423236
 30
0.0
  0
VERTEX
  5
2038
  8
0
 10
176.50952638157241
 20
130.1286046467948
 30
0.0
  0
SEQEND
  5
2039
  8
0
  0
POLYLINE
  5
17FF
  8
0
 66
     1
 10
0.0
 20
0.0
 30
0.0
  0
VERTEX
  5
203A
  8
0
 10
164.91035301031619
 20
132.51059021683059
 30
0.0
  0
VERTEX
  5
203B
  8
0
 10
164.93800827389759
 20
132.5188348566362
 30
0.0
  0
VERTEX
  5
203C
  8
0
 10
164.9937259795835
 20
132.53523475954179
 30
0.0
  0
VERTEX
  5
203D
  8
0
 10
165.04998414757631
 20
132.55150889809059
 30
0.0
  0
VERTEX
  5
203E
  8
0
 10
165.07831498020971
 20
132.5595963348095
 30
0.0
  0
VERTEX
  5
203F
  8
0
 10
165.10677981441091
 20
132.5676493668102
 30
0.0
  0
VERTEX
  5
2040
  8
0
 10
165.16410998325321
 20
132.58364827276279
 30
0.0
  0
VERTEX
  5
2041
  8
0
 10
165.2219716283129
 20
132.5994977378754
 30
0.0
  0
VERTEX
  5
2042
  8
0
 10
165.28036169933279
 20
132.61518990110969
 30
0.0
  0
VERTEX
  5
2043
  8
0
 10
165.33927712612311
 20
132.6307169204585
 30
0.0
  0
VERTEX
  5
2044
  8
0
 10
165.39871482310511
 20
132.64607097475661
 30
0.0
  0
VERTEX
  5
2045
  8
0
 10
165.42862855557979
 20
132.6536807019979
 30
0.0
  0
VERTEX
  5
2046
  8
0
 10
165.4586716938289
 20
132.6612442652949
 30
0.0
  0
VERTEX
  5
2047
  8
0
 10
165.51914463542241
 20
132.6762290172278
 30
0.0
  0
VERTEX
  5
2048
  8
0
 10
165.58013054293329
 20
132.69101748076389
 30
0.0
  0
VERTEX
  5
2049
  8
0
 10
165.64162631351809
 20
132.70560193213311
 30
0.0
  0
VERTEX
  5
204A
  8
0
 10
165.7036288504321
 20
132.71997467432459
 30
0.0
  0
VERTEX
  5
204B
  8
0
 10
165.76613506677509
 20
132.73412803758899
 30
0.0
  0
VERTEX
  5
204C
  8
0
 10
165.7975760936238
 20
132.74112006285191
 30
0.0
  0
VERTEX
  5
204D
  8
0
 10
165.82914188894111
 20
132.74805437970571
 30
0.0
  0
VERTEX
  5
204E
  8
0
 10
165.89264625972351
 20
132.76174608601141
 30
0.0
  0
VERTEX
  5
204F
  8
0
 10
165.9566451410235
 20
132.7751955691939
 30
0.0
  0
VERTEX
  5
2050
  8
0
 10
165.98882907950309
 20
132.7818271134546
 30
0.0
  0
VERTEX
  5
2051
  8
0
 10
166.02113551611109
 20
132.7883952688542
 30
0.0
  0
VERTEX
  5
2052
  8
0
 10
166.0861143913842
 20
132.80133765084341
 30
0.0
  0
VERTEX
  5
2053
  8
0
 10
166.15157879757621
 20
132.81401520638349
 30
0.0
  0
VERTEX
  5
2054
  8
0
 10
166.18449215368639
 20
132.82025233441681
 30
0.0
  0
VERTEX
  5
2055
  8
0
 10
166.21752579035791
 20
132.8264204509841
 30
0.0
  0
VERTEX
  5
2056
  8
0
 10
166.28395245028531
 20
132.83854592316871
 30
0.0
  0
VERTEX
  5
2057
  8
0
 10
166.3508558820412
 20
132.85038418302889
 30
0.0
  0
VERTEX
  5
2058
  8
0
 10
166.41823321292449
 20
132.86192781062579
 30
0.0
  0
VERTEX
  5
2059
  8
0
 10
166.48607522916311
 20
132.87316836823479
 30
0.0
  0
VERTEX
  5
205A
  8
0
 10
166.55428881230901
 20
132.88408438722649
 30
0.0
  0
VERTEX
  5
205B
  8
0
 10
166.5885220263992
 20
132.8894170489379
 30
0.0
  0
VERTEX
  5
205C
  8
0
 10
166.62283828539361
 20
132.8946651696277
 30
0.0
  0
VERTEX
  5
205D
  8
0
 10
166.69171622053
 20
132.90490490815179
 30
0.0
  0
VERTEX
  5
205E
  8
0
 10
166.7609151726131
 20
132.91479792321661
 30
0.0
  0
VERTEX
  5
205F
  8
0
 10
166.8304276833519
 20
132.9243386638127
 30
0.0
  0
VERTEX
  5
2060
  8
0
 10
166.90024628501141
 20
132.93352170818349
 30
0.0
  0
VERTEX
  5
2061
  8
0
 10
166.9703635038328
 20
132.94234176432749
 30
0.0
  0
VERTEX
  5
2062
  8
0
 10
167.00553175824521
 20
132.9466140536293
 30
0.0
  0
VERTEX
  5
2063
  8
0
 10
167.04077186310141
 20
132.95079367033171
 30
0.0
  0
VERTEX
  5
2064
  8
0
 10
167.11146388583131
 20
132.9588723945478
 30
0.0
  0
VERTEX
  5
2065
  8
0
 10
167.1824320970419
 20
132.9665730356264
 30
0.0
  0
VERTEX
  5
2066
  8
0
 10
167.25366902559861
 20
132.9738908224233
 30
0.0
  0
VERTEX
  5
2067
  8
0
 10
167.32516720559539
 20
132.98082111379361
 30
0.0
  0
VERTEX
  5
2068
  8
0
 10
167.39691917726
 20
132.98735939829359
 30
0.0
  0
VERTEX
  5
2069
  8
0
 10
167.43288800557659
 20
132.990480163516
 30
0.0
  0
VERTEX
  5
206A
  8
0
 10
167.4689174873607
 20
132.99350129380881
 30
0.0
  0
VERTEX
  5
206B
  8
0
 10
167.54115468910169
 20
132.99924254712761
 30
0.0
  0
VERTEX
  5
206C
  8
0
 10
167.6136233414941
 20
133.00457903348331
 30
0.0
  0
VERTEX
  5
206D
  8
0
 10
167.68631600819251
 20
133.00950675608701
 30
0.0
  0
VERTEX
  5
206E
  8
0
 10
167.75922525579119
 20
133.01402184567229
 30
0.0
  0
VERTEX
  5
206F
  8
0
 10
167.83234365157841
 20
133.0181205600785
 30
0.0
  0
VERTEX
  5
2070
  8
0
 10
167.8689775650335
 20
133.02001257199589
 30
0.0
  0
VERTEX
  5
2071
  8
0
 10
167.9056390699113
 20
133.02179811772041
 30
0.0
  0
VERTEX
  5
2072
  8
0
 10
167.9790199587641
 20
133.02504798917991
 30
0.0
  0
VERTEX
  5
2073
  8
0
 10
168.0524703159567
 20
133.02786843469681
 30
0.0
  0
VERTEX
  5
2074
  8
0
 10
168.12598089663931
 20
133.03025824663061
 30
0.0
  0
VERTEX
  5
2075
  8
0
 10
168.1995424559035
 20
133.0322163903912
 30
0.0
  0
VERTEX
  5
2076
  8
0
 10
168.2731457490242
 20
133.0337420043345
 30
0.0
  0
VERTEX
  5
2077
  8
0
 10
168.30996015689749
 20
133.03434239062719
 30
0.0
  0
VERTEX
  5
2078
  8
0
 10
168.34678153162949
 20
133.03483439966789
 30
0.0
  0
VERTEX
  5
2079
  8
0
 10
168.42044055980699
 20
133.03549306037189
 30
0.0
  0
VERTEX
  5
207A
  8
0
 10
168.49411359016119
 20
133.03571764313719
 30
0.0
  0
VERTEX
  5
207B
  8
0
 10
168.53095246773989
 20
133.0356670952236
 30
0.0
  0
VERTEX
  5
207C
  8
0
 10
168.5677913798321
 20
133.0355079773235
 30
0.0
  0
VERTEX
  5
207D
  8
0
 10
168.64146468649091
 20
133.03486406493741
 30
0.0
  0
VERTEX
  5
207E
  8
0
 10
168.71512426832231
 20
133.03378608063409
 30
0.0
  0
VERTEX
  5
207F
  8
0
 10
168.75194602449699
 20
133.03308441330691
 30
0.0
  0
VERTEX
  5
2080
  8
0
 10
168.78876088401009
 20
133.0322743717399
 30
0.0
  0
VERTEX
  5
2081
  8
0
 10
168.86236529273759
 20
133.0303294582969
 30
0.0
  0
VERTEX
  5
2082
  8
0
 10
168.9359282542159
 20
133.02795203312829
 30
0.0
  0
VERTEX
  5
2083
  8
0
 10
169.00944052875269
 20
133.02514296192231
 30
0.0
  0
VERTEX
  5
2084
  8
0
 10
169.08289287737509
 20
133.02190328333131
 30
0.0
  0
VERTEX
  5
2085
  8
0
 10
169.15627606201591
 20
133.0182342090857
 30
0.0
  0
VERTEX
  5
2086
  8
0
 10
169.19293271563669
 20
133.01623941642481
 30
0.0
  0
VERTEX
  5
2087
  8
0
 10
169.2295419319347
 20
133.01413941364899
 30
0.0
  0
VERTEX
  5
2088
  8
0
 10
169.30260921691931
 20
133.00962580445349
 30
0.0
  0
VERTEX
  5
2089
  8
0
 10
169.37546871993709
 20
133.0046970669126
 30
0.0
  0
VERTEX
  5
208A
  8
0
 10
169.44811294004521
 20
132.9993569258545
 30
0.0
  0
VERTEX
  5
208B
  8
0
 10
169.52053437551081
 20
132.9936092356055
 30
0.0
  0
VERTEX
  5
208C
  8
0
 10
169.59272552184561
 20
132.98745798041139
 30
0.0
  0
VERTEX
  5
208D
  8
0
 10
169.62873239031819
 20
132.98423229667159
 30
0.0
  0
VERTEX
  5
208E
  8
0
 10
169.66467887036791
 20
132.980907274885
 30
0.0
  0
VERTEX
  5
208F
  8
0
 10
169.73638690729069
 20
132.97396136445599
 30
0.0
  0
VERTEX
  5
2090
  8
0
 10
169.80784211332769
 20
132.9666246258021
 30
0.0
  0
VERTEX
  5
2091
  8
0
 10
169.87903696380849
 20
132.95890156723831
 30
0.0
  0
VERTEX
  5
2092
  8
0
 10
169.94996392928999
 20
132.95079682904469
 30
0.0
  0
VERTEX
  5
2093
  8
0
 10
170.02061547664869
 20
132.9423151837135
 30
0.0
  0
VERTEX
  5
2094
  8
0
 10
170.05583561379771
 20
132.93793454846499
 30
0.0
  0
VERTEX
  5
2095
  8
0
 10
170.09098407063459
 20
132.9334615360948
 30
0.0
  0
VERTEX
  5
2096
  8
0
 10
170.1610621758683
 20
132.92424092342659
 30
0.0
  0
VERTEX
  5
2097
  8
0
 10
170.23084225925589
 20
132.914658515231
 30
0.0
  0
VERTEX
  5
2098
  8
0
 10
170.30031679279779
 20
132.90471961306321
 30
0.0
  0
VERTEX
  5
2099
  8
0
 10
170.36947825676339
 20
132.89442965010011
 30
0.0
  0
VERTEX
  5
209A
  8
0
 10
170.4383191432035
 20
132.88379419055781
 30
0.0
  0
VERTEX
  5
209B
  8
0
 10
170.472617027773
 20
132.87834867403379
 30
0.0
  0
VERTEX
  5
209C
  8
0
 10
170.5068319597695
 20
132.8728189289273
 30
0.0
  0
VERTEX
  5
209D
  8
0
 10
170.57500485676229
 20
132.8615104275228
 30
0.0
  0
VERTEX
  5
209E
  8
0
 10
170.6427447447364
 20
132.84988964723399
 30
0.0
  0
VERTEX
  5
209F
  8
0
 10
170.7100145342481
 20
132.8379695328012
 30
0.0
  0
VERTEX
  5
20A0
  8
0
 10
170.77681135165781
 20
132.82575746597621
 30
0.0
  0
VERTEX
  5
20A1
  8
0
 10
170.84313230248969
 20
132.8132608487779
 30
0.0
  0
VERTEX
  5
20A2
  8
0
 10
170.8761134171823
 20
132.80690815288341
 30
0.0
  0
VERTEX
  5
20A3
  8
0
 10
170.90897446932141
 20
132.800487105196
 30
0.0
  0
VERTEX
  5
20A4
  8
0
 10
170.97433491045979
 20
132.7874436827573
 30
0.0
  0
VERTEX
  5
20A5
  8
0
 10
171.03921065935791
 20
132.77413805393169
 30
0.0
  0
VERTEX
  5
20A6
  8
0
 10
171.07146584038841
 20
132.7673892543969
 30
0.0
  0
VERTEX
  5
20A7
  8
0
 10
171.10359872472401
 20
132.76057771735921
 30
0.0
  0
VERTEX
  5
20A8
  8
0
 10
171.1674960912741
 20
132.74677019888139
 30
0.0
  0
VERTEX
  5
20A9
  8
0
 10
171.23089972107539
 20
132.73272305236341
 30
0.0
  0
VERTEX
  5
20AA
  8
0
 10
171.2624154296019
 20
132.7256119869877
 30
0.0
  0
VERTEX
  5
20AB
  8
0
 10
171.2938065554313
 20
132.71844386029571
 30
0.0
  0
VERTEX
  5
20AC
  8
0
 10
171.35621351725351
 20
132.70394023416651
 30
0.0
  0
VERTEX
  5
20AD
  8
0
 10
171.4181175138705
 20
132.6892198146009
 30
0.0
  0
VERTEX
  5
20AE
  8
0
 10
171.47951544022069
 20
132.6742902712611
 30
0.0
  0
VERTEX
  5
20AF
  8
0
 10
171.54040418237841
 20
132.6591593025087
 30
0.0
  0
VERTEX
  5
20B0
  8
0
 10
171.60078062136381
 20
132.64383463482861
 30
0.0
  0
VERTEX
  5
20B1
  8
0
 10
171.63077575209479
 20
132.63610208591251
 30
0.0
  0
VERTEX
  5
20B2
  8
0
 10
171.66064163718681
 20
132.6283240220186
 30
0.0
  0
VERTEX
  5
20B3
  8
0
 10
171.7199841130797
 20
132.61263524414889
 30
0.0
  0
VERTEX
  5
20B4
  8
0
 10
171.77880493987121
 20
132.59677610629859
 30
0.0
  0
VERTEX
  5
20B5
  8
0
 10
171.8371010204597
 20
132.58075443707719
 30
0.0
  0
VERTEX
  5
20B6
  8
0
 10
171.8948692743441
 20
132.5645780869398
 30
0.0
  0
VERTEX
  5
20B7
  8
0
 10
171.95210664217379
 20
132.5482549263084
 30
0.0
  0
VERTEX
  5
20B8
  8
0
 10
171.9805252946702
 20
132.54004075651969
 30
0.0
  0
VERTEX
  5
20B9
  8
0
 10
172.00881009027901
 20
132.53179284350821
 30
0.0
  0
VERTEX
  5
20BA
  8
0
 10
172.0649766151505
 20
132.51519974253489
 30
0.0
  0
VERTEX
  5
20BB
  8
0
 10
172.12060324783371
 20
132.4984835406627
 30
0.0
  0
VERTEX
  5
20BC
  8
0
 10
172.14821318731109
 20
132.49008175404751
 30
0.0
  0
SEQEND
  5
20BD
  8
0
  0
POLYLINE
  5
1801
  8
0
 66
     1
 10
0.0
 20
0.0
 30
0.0
  0
VERTEX
  5
20BE
  8
0
 10
189.9952962824585
 20
150.62749369115559
 30
0.0
  0
VERTEX
  5
20BF
  8
0
 10
190.02239561507321
 20
150.66605311919599
 30
0.0
  0
VERTEX
  5
20C0
  8
0
 10
190.0765462087387
 20
150.74219001084501
 30
0.0
  0
VERTEX
  5
20C1
  8
0
 10
190.13061507909481
 20
150.81702838353169
 30
0.0
  0
VERTEX
  5
20C2
  8
0
 10
190.15761230584971
 20
150.85396458915559
 30
0.0
  0
VERTEX
  5
20C3
  8
0
 10
190.18458125246821
 20
150.89058088425139
 30
0.0
  0
VERTEX
  5
20C4
  8
0
 10
190.2384239570184
 20
150.96285986727531
 30
0.0
  0
VERTEX
  5
20C5
  8
0
 10
190.29212262204899
 20
151.03387741804559
 30
0.0
  0
VERTEX
  5
20C6
  8
0
 10
190.34565688059499
 20
151.10364537859201
 30
0.0
  0
VERTEX
  5
20C7
  8
0
 10
190.3990065748705
 20
151.1721753738027
 30
0.0
  0
VERTEX
  5
20C8
  8
0
 10
190.452151764185
 20
151.23947883798641
 30
0.0
  0
VERTEX
  5
20C9
  8
0
 10
190.47864149980529
 20
151.27267414855501
 30
0.0
  0
VERTEX
  5
20CA
  8
0
 10
190.50507273495811
 20
151.30556704125181
 30
0.0
  0
VERTEX
  5
20CB
  8
0
 10
190.55775001248881
 20
151.37045111531779
 30
0.0
  0
VERTEX
  5
20CC
  8
0
 10
190.6101643741639
 20
151.43414207843969
 30
0.0
  0
VERTEX
  5
20CD
  8
0
 10
190.66229686381641
 20
151.4966508592083
 30
0.0
  0
VERTEX
  5
20CE
  8
0
 10
190.71412880697409
 20
151.55798831903641
 30
0.0
  0
VERTEX
  5
20CF
  8
0
 10
190.76564182676421
 20
151.6181652731963
 30
0.0
  0
VERTEX
  5
20D0
  8
0
 10
190.79127308301659
 20
151.64782193263849
 30
0.0
  0
VERTEX
  5
20D1
  8
0
 10
190.81681787335989
 20
151.67719252532919
 30
0.0
  0
VERTEX
  5
20D2
  8
0
 10
190.86767683115309
 20
151.73512343678971
 30
0.0
  0
VERTEX
  5
20D3
  8
0
 10
190.91823953448821
 20
151.79200997688801
 30
0.0
  0
VERTEX
  5
20D4
  8
0
 10
190.94340596157741
 20
151.8200657098171
 30
0.0
  0
VERTEX
  5
20D5
  8
0
 10
191.09270102268371
 20
151.98307502653279
 30
0.0
  0
VERTEX
  5
20D6
  8
0
 10
191.38154512650661
 20
152.2827453067853
 30
0.0
  0
VERTEX
  5
20D7
  8
0
 10
191.65546086458551
 20
152.54933912179749
 30
0.0
  0
VERTEX
  5
20D8
  8
0
 10
191.9151111723678
 20
152.78759999695481
 30
0.0
  0
VERTEX
  5
20D9
  8
0
 10
192.1636549690285
 20
153.0034882270204
 30
0.0
  0
VERTEX
  5
20DA
  8
0
 10
192.39913559528841
 20
153.19776778447479
 30
0.0
  0
VERTEX
  5
20DB
  8
0
 10
192.5113264637472
 20
153.28699436826
 30
0.0
  0
VERTEX
  5
20DC
  8
0
 10
192.61947053936771
 20
153.37104038515659
 30
0.0
  0
VERTEX
  5
20DD
  8
0
 10
192.8225775384758
 20
153.52385222857259
 30
0.0
  0
VERTEX
  5
20DE
  8
0
 10
193.0063776256824
 20
153.65667891558911
 30
0.0
  0
VERTEX
  5
20DF
  8
0
 10
193.1687972518836
 20
153.76990432441511
 30
0.0
  0
VERTEX
  5
20E0
  8
0
 10
193.30705601744211
 20
153.8633184545138
 30
0.0
  0
VERTEX
  5
20E1
  8
0
 10
193.4182061392624
 20
153.93648998680641
 30
0.0
  0
VERTEX
  5
20E2
  8
0
 10
193.46345924202609
 20
153.96579788767909
 30
0.0
  0
VERTEX
  5
20E3
  8
0
 10
193.50178289943031
 20
153.99040211891909
 30
0.0
  0
VERTEX
  5
20E4
  8
0
 10
193.55755149163701
 20
154.02585555771179
 30
0.0
  0
VERTEX
  5
20E5
  8
0
 10
193.58542662433541
 20
154.04342179240351
 30
0.0
  0
VERTEX
  5
20E6
  8
0
 10
193.58891436821139
 20
154.04561246619329
 30
0.0
  0
SEQEND
  5
20E7
  8
0
  0
POLYLINE
  5
1802
  8
0
 66
     1
 10
0.0
 20
0.0
 30
0.0
  0
VERTEX
  5
20E8
  8
0
 10
187.73916977768829
 20
143.75021706931989
 30
0.0
  0
VERTEX
  5
20E9
  8
0
 10
187.73987430522129
 20
143.77905477753359
 30
0.0
  0
VERTEX
  5
20EA
  8
0
 10
187.7414942873088
 20
143.8370985383178
 30
0.0
  0
VERTEX
  5
20EB
  8
0
 10
187.7434011691056
 20
143.89562940654051
 30
0.0
  0
VERTEX
  5
20EC
  8
0
 10
187.74446431884519
 20
143.925075993023
 30
0.0
  0
VERTEX
  5
20ED
  8
0
 10
187.7456017378926
 20
143.95464253806699
 30
0.0
  0
VERTEX
  5
20EE
  8
0
 10
187.74810276989211
 20
144.01413306783209
 30
0.0
  0
VERTEX
  5
20EF
  8
0
 10
187.75091102974201
 20
144.0740961146283
 30
0.0
  0
VERTEX
  5
20F0
  8
0
 10
187.75403327014581
 20
144.13452678585591
 30
0.0
  0
VERTEX
  5
20F1
  8
0
 10
187.75747623169869
 20
144.195420182194
 30
0.0
  0
VERTEX
  5
20F2
  8
0
 10
187.76124664288861
 20
144.25677140215441
 30
0.0
  0
VERTEX
  5
20F3
  8
0
 10
187.7632567414783
 20
144.28761716477061
 30
0.0
  0
VERTEX
  5
20F4
  8
0
 10
187.7653512202686
 20
144.31857554647561
 30
0.0
  0
VERTEX
  5
20F5
  8
0
 10
187.76979666879609
 20
144.3808277223124
 30
0.0
  0
VERTEX
  5
20F6
  8
0
 10
187.77458968233151
 20
144.443523047177
 30
0.0
  0
VERTEX
  5
20F7
  8
0
 10
187.77973694428681
 20
144.5066566525833
 30
0.0
  0
VERTEX
  5
20F8
  8
0
 10
187.78524512841261
 20
144.57022368734809
 30
0.0
  0
VERTEX
  5
20F9
  8
0
 10
187.79112089971031
 20
144.6342193204984
 30
0.0
  0
VERTEX
  5
20FA
  8
0
 10
187.7941987112182
 20
144.66637635793191
 30
0.0
  0
VERTEX
  5
20FB
  8
0
 10
187.79737091545221
 20
144.6986387437374
 30
0.0
  0
VERTEX
  5
20FC
  8
0
 10
187.80400182629251
 20
144.76347717341909
 30
0.0
  0
VERTEX
  5
20FD
  8
0
 10
187.81102027744549
 20
144.82872985198119
 30
0.0
  0
VERTEX
  5
20FE
  8
0
 10
187.81467690608201
 20
144.86151005520699
 30
0.0
  0
VERTEX
  5
20FF
  8
0
 10
187.81843290990969
 20
144.89439204878889
 30
0.0
  0
VERTEX
  5
2100
  8
0
 10
187.82624636171019
 20
144.96045906034061
 30
0.0
  0
VERTEX
  5
2101
  8
0
 10
187.83446502359641
 20
145.02690844502831
 30
0.0
  0
VERTEX
  5
2102
  8
0
 10
187.83872446284721
 20
145.06024542974001
 30
0.0
  0
VERTEX
  5
2103
  8
0
 10
187.84308429324719
 20
145.09365255267059
 30
0.0
  0
VERTEX
  5
2104
  8
0
 10
187.85210725220969
 20
145.16067303830511
 30
0.0
  0
VERTEX
  5
2105
  8
0
 10
187.86153808150681
 20
145.2279615568203
 30
0.0
  0
VERTEX
  5
2106
  8
0
 10
187.87138085277451
 20
145.29550977407541
 30
0.0
  0
VERTEX
  5
2107
  8
0
 10
187.88163952846051
 20
145.36330937174489
 30
0.0
  0
VERTEX
  5
2108
  8
0
 10
187.89231796215739
 20
145.43135205188531
 30
0.0
  0
VERTEX
  5
2109
  8
0
 10
187.89781576285191
 20
145.4654619614015
 30
0.0
  0
VERTEX
  5
210A
  8
0
 10
187.90341989905571
 20
145.4996295411876
 30
0.0
  0
VERTEX
  5
210B
  8
0
 10
187.9149489764992
 20
145.56813359488001
 30
0.0
  0
VERTEX
  5
210C
  8
0
 10
187.92690872462359
 20
145.63685600024581
 30
0.0
  0
VERTEX
  5
210D
  8
0
 10
187.9393025670594
 20
145.70578857972549
 30
0.0
  0
VERTEX
  5
210E
  8
0
 10
187.95213382167481
 20
145.77492319356989
 30
0.0
  0
VERTEX
  5
210F
  8
0
 10
187.96540570133789
 20
145.84425174201729
 30
0.0
  0
VERTEX
  5
2110
  8
0
 10
187.97220785105901
 20
145.878986221898
 30
0.0
  0
VERTEX
  5
2111
  8
0
 10
187.97912131467189
 20
145.91376616696641
 30
0.0
  0
VERTEX
  5
2112
  8
0
 10
187.99328366677889
 20
145.98345845312269
 30
0.0
  0
VERTEX
  5
2113
  8
0
 10
188.00789565990371
 20
146.05332062859489
 30
0.0
  0
VERTEX
  5
2114
  8
0
 10
188.02296009401269
 20
146.1233447649247
 30
0.0
  0
VERTEX
  5
2115
  8
0
 10
188.0384796672578
 20
146.1935229765333
 30
0.0
  0
VERTEX
  5
2116
  8
0
 10
188.05445697629631
 20
146.26384741957369
 30
0.0
  0
VERTEX
  5
2117
  8
0
 10
188.06261806548179
 20
146.29906203767121
 30
0.0
  0
VERTEX
  5
2118
  8
0
 10
188.07089451644001
 20
146.33431029017979
 30
0.0
  0
VERTEX
  5
2119
  8
0
 10
188.08779468160211
 20
146.4049038221082
 30
0.0
  0
VERTEX
  5
211A
  8
0
 10
188.10515976401419
 20
146.47562028377141
 30
0.0
  0
VERTEX
  5
211B
  8
0
 10
188.1229774649326
 20
146.54639512505361
 30
0.0
  0
VERTEX
  5
211C
  8
0
 10
188.14123151765131
 20
146.61715445777509
 30
0.0
  0
VERTEX
  5
211D
  8
0
 10
188.1599211013438
 20
146.68788883013289
 30
0.0
  0
VERTEX
  5
211E
  8
0
 10
188.16942892168791
 20
146.7232437392187
 30
0.0
  0
VERTEX
  5
211F
  8
0
 10
188.17904524959889
 20
146.75858891431949
 30
0.0
  0
VERTEX
  5
2120
  8
0
 10
188.19860283261539
 20
146.82924543437559
 30
0.0
  0
VERTEX
  5
2121
  8
0
 10
188.21859255750721
 20
146.8998491668471
 30
0.0
  0
VERTEX
  5
2122
  8
0
 10
188.23901296857409
 20
146.97039094129579
 30
0.0
  0
VERTEX
  5
2123
  8
0
 10
188.25986244753221
 20
147.0408616406749
 30
0.0
  0
VERTEX
  5
2124
  8
0
 10
188.28113921370269
 20
147.1112522015782
 30
0.0
  0
VERTEX
  5
2125
  8
0
 10
188.29193722866151
 20
147.14641461248959
 30
0.0
  0
VERTEX
  5
2126
  8
0
 10
188.3028413241536
 20
147.18155361437479
 30
0.0
  0
VERTEX
  5
2127
  8
0
 10
188.32496667379479
 20
147.25175692324049
 30
0.0
  0
VERTEX
  5
2128
  8
0
 10
188.34751299542381
 20
147.3218532261005
 30
0.0
  0
VERTEX
  5
2129
  8
0
 10
188.3589432679056
 20
147.3568584830447
 30
0.0
  0
VERTEX
  5
212A
  8
0
 10
188.3704778597226
 20
147.39183367449289
 30
0.0
  0
VERTEX
  5
212B
  8
0
 10
188.39385867520531
 20
147.46168947337131
 30
0.0
  0
VERTEX
  5
212C
  8
0
 10
188.41765268811849
 20
147.53141188085661
 30
0.0
  0
VERTEX
  5
212D
  8
0
 10
188.4297037386589
 20
147.56622034545831
 30
0.0
  0
VERTEX
  5
212E
  8
0
 10
188.4418569822966
 20
147.60099220795351
 30
0.0
  0
VERTEX
  5
212F
  8
0
 10
188.46646847897381
 20
147.6704218182459
 30
0.0
  0
VERTEX
  5
2130
  8
0
 10
188.49148393655719
 20
147.73969212758411
 30
0.0
  0
VERTEX
  5
2131
  8
0
 10
188.51689995036509
 20
147.8087946037773
 30
0.0
  0
VERTEX
  5
2132
  8
0
 10
188.54270599060979
 20
147.8777023423192
 30
0.0
  0
VERTEX
  5
2133
  8
0
 10
188.56886545719789
 20
147.94632242019861
 30
0.0
  0
VERTEX
  5
2134
  8
0
 10
188.5820745430388
 20
147.9805185650296
 30
0.0
  0
VERTEX
  5
2135
  8
0
 10
188.59536895099069
 20
148.01463773026171
 30
0.0
  0
VERTEX
  5
2136
  8
0
 10
188.6222109471895
 20
148.08264198793381
 30
0.0
  0
VERTEX
  5
2137
  8
0
 10
188.64938579437509
 20
148.1503289516402
 30
0.0
  0
VERTEX
  5
2138
  8
0
 10
188.67688771346801
 20
148.2176924206432
 30
0.0
  0
VERTEX
  5
2139
  8
0
 10
188.7047107967899
 20
148.28472623336441
 30
0.0
  0
VERTEX
  5
213A
  8
0
 10
188.73284900724869
 20
148.35142426618739
 30
0.0
  0
VERTEX
  5
213B
  8
0
 10
188.74703436300791
 20
148.38464546169899
 30
0.0
  0
VERTEX
  5
213C
  8
0
 10
188.76129617766671
 20
148.41778043273209
 30
0.0
  0
VERTEX
  5
213D
  8
0
 10
188.79004601027231
 20
148.483788683592
 30
0.0
  0
VERTEX
  5
213E
  8
0
 10
188.81909207637051
 20
148.54944300652019
 30
0.0
  0
VERTEX
  5
213F
  8
0
 10
188.84842781621089
 20
148.61473742704939
 30
0.0
  0
VERTEX
  5
2140
  8
0
 10
188.8780465390652
 20
148.67966600952681
 30
0.0
  0
VERTEX
  5
2141
  8
0
 10
188.90794142352809
 20
148.7442228585457
 30
0.0
  0
VERTEX
  5
2142
  8
0
 10
188.92299025906809
 20
148.77636005213489
 30
0.0
  0
VERTEX
  5
2143
  8
0
 10
188.93810551805171
 20
148.80840212074909
 30
0.0
  0
VERTEX
  5
2144
  8
0
 10
188.9685317417225
 20
148.87219798698359
 30
0.0
  0
VERTEX
  5
2145
  8
0
 10
188.99921288528759
 20
148.9356046947762
 30
0.0
  0
VERTEX
  5
2146
  8
0
 10
189.03014161243539
 20
148.99861653110671
 30
0.0
  0
VERTEX
  5
2147
  8
0
 10
189.06131046133319
 20
149.06122783544831
 30
0.0
  0
VERTEX
  5
2148
  8
0
 10
189.0927118464233
 20
149.12343300304491
 30
0.0
  0
VERTEX
  5
2149
  8
0
 10
189.1084973362226
 20
149.154381550181
 30
0.0
  0
VERTEX
  5
214A
  8
0
 10
189.12433806047571
 20
149.18522648839519
 30
0.0
  0
VERTEX
  5
214B
  8
0
 10
189.15615208968049
 20
149.24654693018309
 30
0.0
  0
VERTEX
  5
214C
  8
0
 10
189.1881143846158
 20
149.30733142986551
 30
0.0
  0
VERTEX
  5
214D
  8
0
 10
189.22021706699201
 20
149.36757943404169
 30
0.0
  0
VERTEX
  5
214E
  8
0
 10
189.25245224615051
 20
149.42729040353379
 30
0.0
  0
VERTEX
  5
214F
  8
0
 10
189.28481200328511
 20
149.48646378564169
 30
0.0
  0
VERTEX
  5
2150
  8
0
 10
189.30103611573119
 20
149.5158487046813
 30
0.0
  0
VERTEX
  5
2151
  8
0
 10
189.31728838928359
 20
149.54509901286471
 30
0.0
  0
VERTEX
  5
2152
  8
0
 10
189.3498734229438
 20
149.60319550231441
 30
0.0
  0
VERTEX
  5
2153
  8
0
 10
189.3825590895691
 20
149.6607526557687
 30
0.0
  0
VERTEX
  5
2154
  8
0
 10
189.39893714623341
 20
149.6893287905072
 30
0.0
  0
VERTEX
  5
2155
  8
0
 10
189.41533733994791
 20
149.71776986031401
 30
0.0
  0
VERTEX
  5
2156
  8
0
 10
189.4482000897145
 20
149.77424648952501
 30
0.0
  0
VERTEX
  5
2157
  8
0
 10
189.4811392190903
 20
149.83018190512809
 30
0.0
  0
VERTEX
  5
2158
  8
0
 10
189.49763487903829
 20
149.8579464556345
 30
0.0
  0
VERTEX
  5
2159
  8
0
 10
189.5141465729985
 20
149.88557545909811
 30
0.0
  0
VERTEX
  5
215A
  8
0
 10
189.54721396154301
 20
149.94042649613411
 30
0.0
  0
VERTEX
  5
215B
  8
0
 10
189.5803331608422
 20
149.99473435646561
 30
0.0
  0
VERTEX
  5
215C
  8
0
 10
189.61349591420259
 20
150.04849837893821
 30
0.0
  0
VERTEX
  5
215D
  8
0
 10
189.64669393361851
 20
150.1017179043306
 30
0.0
  0
VERTEX
  5
215E
  8
0
 10
189.67991890158169
 20
150.15439227885659
 30
0.0
  0
VERTEX
  5
215F
  8
0
 10
189.69653888449099
 20
150.1805248326167
 30
0.0
  0
VERTEX
  5
2160
  8
0
 10
189.7131624731806
 20
150.20652085780659
 30
0.0
  0
VERTEX
  5
2161
  8
0
 10
189.74641627847211
 20
150.25810300928691
 30
0.0
  0
VERTEX
  5
2162
  8
0
 10
189.77967192510431
 20
150.30913811801491
 30
0.0
  0
VERTEX
  5
2163
  8
0
 10
189.81292100116951
 20
150.35962558913391
 30
0.0
  0
VERTEX
  5
2164
  8
0
 10
189.8461550782653
 20
150.40956485200931
 30
0.0
  0
VERTEX
  5
2165
  8
0
 10
189.87936571474179
 20
150.45895536397509
 30
0.0
  0
VERTEX
  5
2166
  8
0
 10
189.8959596019464
 20
150.4834446773356
 30
0.0
  0
VERTEX
  5
2167
  8
0
 10
189.91254445911289
 20
150.50779661399889
 30
0.0
  0
VERTEX
  5
2168
  8
0
 10
189.9456828536085
 20
150.55608812623669
 30
0.0
  0
VERTEX
  5
2169
  8
0
 10
189.97877243784549
 20
150.60382946345311
 30
0.0
  0
VERTEX
  5
216A
  8
0
 10
189.9952962824585
 20
150.62749369115551
 30
0.0
  0
SEQEND
  5
216B
  8
0
  0
POLYLINE
  5
1803
  8
0
 66
     1
 10
0.0
 20
0.0
 30
0.0
  0
VERTEX
  5
216C
  8
0
 10
188.60969257907519
 20
138.86761356721351
 30
0.0
  0
VERTEX
  5
216D
  8
0
 10
188.6082273077854
 20
138.87132531534999
 30
0.0
  0
VERTEX
  5
216E
  8
0
 10
188.59654716896429
 20
138.90103773969761
 30
0.0
  0
VERTEX
  5
216F
  8
0
 10
188.57341391775549
 20
138.96055373847591
 30
0.0
  0
VERTEX
  5
2170
  8
0
 10
188.5576787951409
 20
139.0015588519679
 30
0.0
  0
VERTEX
  5
2171
  8
0
 10
188.53922742729389
 20
139.05019966521201
 30
0.0
  0
VERTEX
  5
2172
  8
0
 10
188.4944982370445
 20
139.17073144855971
 30
0.0
  0
VERTEX
  5
2173
  8
0
 10
188.44004724988801
 20
139.3228499585671
 30
0.0
  0
VERTEX
  5
2174
  8
0
 10
188.37696254763321
 20
139.50733925161049
 30
0.0
  0
VERTEX
  5
2175
  8
0
 10
188.3066010562822
 20
139.72509959287731
 30
0.0
  0
VERTEX
  5
2176
  8
0
 10
188.23107598577329
 20
139.97552833163991
 30
0.0
  0
VERTEX
  5
2177
  8
0
 10
188.19247268188329
 20
140.11141357349049
 30
0.0
  0
VERTEX
  5
2178
  8
0
 10
188.15369984367379
 20
140.25415639349691
 30
0.0
  0
VERTEX
  5
2179
  8
0
 10
188.0767520178232
 20
140.55970171724641
 30
0.0
  0
VERTEX
  5
217A
  8
0
 10
188.00244678028071
 20
140.89118445118569
 30
0.0
  0
VERTEX
  5
217B
  8
0
 10
187.93299590881989
 20
141.24769597013079
 30
0.0
  0
VERTEX
  5
217C
  8
0
 10
187.87060620515649
 20
141.62839924518099
 30
0.0
  0
VERTEX
  5
217D
  8
0
 10
187.8171402509463
 20
142.0355228254061
 30
0.0
  0
VERTEX
  5
217E
  8
0
 10
187.7941687034706
 20
142.25261808273009
 30
0.0
  0
VERTEX
  5
217F
  8
0
 10
187.79062732236929
 20
142.28970568812861
 30
0.0
  0
VERTEX
  5
2180
  8
0
 10
187.78381077622871
 20
142.36465632107351
 30
0.0
  0
VERTEX
  5
2181
  8
0
 10
187.7773643089516
 20
142.4406404867633
 30
0.0
  0
VERTEX
  5
2182
  8
0
 10
187.77428558417751
 20
142.47901999186001
 30
0.0
  0
VERTEX
  5
2183
  8
0
 10
187.7713062851353
 20
142.51765769030209
 30
0.0
  0
VERTEX
  5
2184
  8
0
 10
187.76565531678679
 20
142.59570738880609
 30
0.0
  0
VERTEX
  5
2185
  8
0
 10
187.7604302653578
 20
142.67478901317389
 30
0.0
  0
VERTEX
  5
2186
  8
0
 10
187.7556502449365
 20
142.75490199022559
 30
0.0
  0
VERTEX
  5
2187
  8
0
 10
187.75133462667151
 20
142.83604576500571
 30
0.0
  0
VERTEX
  5
2188
  8
0
 10
187.74750304449901
 20
142.9182198230011
 30
0.0
  0
VERTEX
  5
2189
  8
0
 10
187.74577497612441
 20
142.95969306386709
 30
0.0
  0
VERTEX
  5
218A
  8
0
 10
187.7441754022326
 20
143.00142371198751
 30
0.0
  0
VERTEX
  5
218B
  8
0
 10
187.7413718820647
 20
143.08565706315829
 30
0.0
  0
VERTEX
  5
218C
  8
0
 10
187.73911295451069
 20
143.1709196111469
 30
0.0
  0
VERTEX
  5
218D
  8
0
 10
187.73741938980839
 20
143.25721121249049
 30
0.0
  0
VERTEX
  5
218E
  8
0
 10
187.73631227076061
 20
143.34453186202319
 30
0.0
  0
VERTEX
  5
218F
  8
0
 10
187.73581300698021
 20
143.4328817066274
 30
0.0
  0
VERTEX
  5
2190
  8
0
 10
187.7357981044874
 20
143.47744266721261
 30
0.0
  0
VERTEX
  5
2191
  8
0
 10
187.73594335045951
 20
143.5222610557029
 30
0.0
  0
VERTEX
  5
2192
  8
0
 10
187.736725412352
 20
143.61267038765209
 30
0.0
  0
VERTEX
  5
2193
  8
0
 10
187.73818168079961
 20
143.70411035161251
 30
0.0
  0
VERTEX
  5
2194
  8
0
 10
187.73916977768829
 20
143.7502170693198
 30
0.0
  0
SEQEND
  5
2195
  8
0
  0
POLYLINE
  5
1807
  8
0
 66
     1
 10
0.0
 20
0.0
 30
0.0
  0
VERTEX
  5
2196
  8
0
 10
178.2606444473646
 20
173.20584688820199
 30
0.0
  0
VERTEX
  5
2197
  8
0
 10
178.23223162759641
 20
173.24368887497201
 30
0.0
  0
VERTEX
  5
2198
  8
0
 10
178.17633167311089
 20
173.31902193511129
 30
0.0
  0
VERTEX
  5
2199
  8
0
 10
178.12164996921661
 20
173.3938737296557
 30
0.0
  0
VERTEX
  5
219A
  8
0
 10
178.09476005160349
 20
173.43111415754939
 30
0.0
  0
VERTEX
  5
219B
  8
0
 10
178.06816765060381
 20
173.4682282876507
 30
0.0
  0
VERTEX
  5
219C
  8
0
 10
178.01586620940469
 20
173.54206973798509
 30
0.0
  0
VERTEX
  5
219D
  8
0
 10
177.96472747213619
 20
173.61538231478491
 30
0.0
  0
VERTEX
  5
219E
  8
0
 10
177.91473357604249
 20
173.6881503666271
 30
0.0
  0
VERTEX
  5
219F
  8
0
 10
177.8658669453726
 20
173.7603583689548
 30
0.0
  0
VERTEX
  5
21A0
  8
0
 10
177.8181102680372
 20
173.8319909391233
 30
0.0
  0
VERTEX
  5
21A1
  8
0
 10
177.79464281835439
 20
173.86758667306259
 30
0.0
  0
VERTEX
  5
21A2
  8
0
 10
177.77144647300469
 20
173.9030328535591
 30
0.0
  0
VERTEX
  5
21A3
  8
0
 10
177.7258587087216
 20
173.97346906656571
 30
0.0
  0
VERTEX
  5
21A4
  8
0
 10
177.68133032277561
 20
174.04328473035909
 30
0.0
  0
VERTEX
  5
21A5
  8
0
 10
177.63784484296161
 20
174.11246521596749
 30
0.0
  0
VERTEX
  5
21A6
  8
0
 10
177.59538595986049
 20
174.1809961346722
 30
0.0
  0
VERTEX
  5
21A7
  8
0
 10
177.55393751099791
 20
174.24886335971121
 30
0.0
  0
VERTEX
  5
21A8
  8
0
 10
177.5335871852775
 20
174.2825437494719
 30
0.0
  0
VERTEX
  5
21A9
  8
0
 10
177.51348346661251
 20
174.31605304800789
 30
0.0
  0
VERTEX
  5
21AA
  8
0
 10
177.47400621250031
 20
174.3825545534412
 30
0.0
  0
VERTEX
  5
21AB
  8
0
 10
177.4354504872806
 20
174.4484226751718
 30
0.0
  0
VERTEX
  5
21AC
  8
0
 10
177.41650690974021
 20
174.48112716052859
 30
0.0
  0
VERTEX
  5
21AD
  8
0
 10
177.3073983973193
 20
174.67408371467619
 30
0.0
  0
VERTEX
  5
21AE
  8
0
 10
177.11128442916211
 20
175.04258698128109
 30
0.0
  0
VERTEX
  5
21AF
  8
0
 10
176.94205784570039
 20
175.3867157530089
 30
0.0
  0
VERTEX
  5
21B0
  8
0
 10
176.79628729980161
 20
175.70656075925629
 30
0.0
  0
VERTEX
  5
21B1
  8
0
 10
176.66867235998791
 20
176.00799994547191
 30
0.0
  0
VERTEX
  5
21B2
  8
0
 10
176.55743111262959
 20
176.2904081303364
 30
0.0
  0
VERTEX
  5
21B3
  8
0
 10
176.5075717388263
 20
176.4239242633696
 30
0.0
  0
VERTEX
  5
21B4
  8
0
 10
176.46135712406601
 20
176.55201964795901
 30
0.0
  0
VERTEX
  5
21B5
  8
0
 10
176.37929592071779
 20
176.79105738606901
 30
0.0
  0
VERTEX
  5
21B6
  8
0
 10
176.3101603870893
 20
177.0057309248763
 30
0.0
  0
VERTEX
  5
21B7
  8
0
 10
176.25295126397739
 20
177.19423207263071
 30
0.0
  0
VERTEX
  5
21B8
  8
0
 10
176.20684948158939
 20
177.35448948066059
 30
0.0
  0
VERTEX
  5
21B9
  8
0
 10
176.17150297232081
 20
177.4831550611926
 30
0.0
  0
VERTEX
  5
21BA
  8
0
 10
176.15757043971351
 20
177.53540213326011
 30
0.0
  0
VERTEX
  5
21BB
  8
0
 10
176.1459760175585
 20
177.5795887248386
 30
0.0
  0
VERTEX
  5
21BC
  8
0
 10
176.1294360274718
 20
177.6437930984504
 30
0.0
  0
VERTEX
  5
21BD
  8
0
 10
176.1213170017345
 20
177.67583585365739
 30
0.0
  0
VERTEX
  5
21BE
  8
0
 10
176.12030937268511
 20
177.67983757601209
 30
0.0
  0
SEQEND
  5
21BF
  8
0
  0
POLYLINE
  5
1808
  8
0
 66
     1
 10
0.0
 20
0.0
 30
0.0
  0
VERTEX
  5
21C0
  8
0
 10
184.10414176149209
 20
168.93494772308929
 30
0.0
  0
VERTEX
  5
21C1
  8
0
 10
184.07693650777199
 20
168.94452793509299
 30
0.0
  0
VERTEX
  5
21C2
  8
0
 10
184.02224041034151
 20
168.96400289780689
 30
0.0
  0
VERTEX
  5
21C3
  8
0
 10
183.9671690786503
 20
168.98390140426039
 30
0.0
  0
VERTEX
  5
21C4
  8
0
 10
183.93949478703601
 20
168.9940110419509
 30
0.0
  0
VERTEX
  5
21C5
  8
0
 10
183.91172919356461
 20
169.00422843019351
 30
0.0
  0
VERTEX
  5
21C6
  8
0
 10
183.85592745223661
 20
169.0249889351733
 30
0.0
  0
VERTEX
  5
21C7
  8
0
 10
183.79977056340789
 20
169.04618786358861
 30
0.0
  0
VERTEX
  5
21C8
  8
0
 10
183.74326524280821
 20
169.06783014579921
 30
0.0
  0
VERTEX
  5
21C9
  8
0
 10
183.6864182086872
 20
169.0899206994259
 30
0.0
  0
VERTEX
  5
21CA
  8
0
 10
183.62923617751579
 20
169.11246443076931
 30
0.0
  0
VERTEX
  5
21CB
  8
0
 10
183.60052163543571
 20
169.12390776858271
 30
0.0
  0
VERTEX
  5
21CC
  8
0
 10
183.5717258598971
 20
169.13546623633951
 30
0.0
  0
VERTEX
  5
21CD
  8
0
 10
183.51389395672709
 20
169.15893100448031
 30
0.0
  0
VERTEX
  5
21CE
  8
0
 10
183.45574715564581
 20
169.1828636170637
 30
0.0
  0
VERTEX
  5
21CF
  8
0
 10
183.39729212782049
 20
169.2072689512344
 30
0.0
  0
VERTEX
  5
21D0
  8
0
 10
183.33853552510391
 20
169.23215188117609
 30
0.0
  0
VERTEX
  5
21D1
  8
0
 10
183.27948397760849
 20
169.25751727987219
 30
0.0
  0
VERTEX
  5
21D2
  8
0
 10
183.24984966503999
 20
169.27038242790789
 30
0.0
  0
VERTEX
  5
21D3
  8
0
 10
183.2201440917392
 20
169.28337002083001
 30
0.0
  0
VERTEX
  5
21D4
  8
0
 10
183.1605224487264
 20
169.30971497973431
 30
0.0
  0
VERTEX
  5
21D5
  8
0
 10
183.10062560369781
 20
169.3365570359959
 30
0.0
  0
VERTEX
  5
21D6
  8
0
 10
183.0705760216695
 20
169.3501660018195
 30
0.0
  0
VERTEX
  5
21D7
  8
0
 10
183.04046008533041
 20
169.3639010741559
 30
0.0
  0
VERTEX
  5
21D8
  8
0
 10
182.98003239611791
 20
169.39175198510731
 30
0.0
  0
VERTEX
  5
21D9
  8
0
 10
182.9193861482797
 20
169.42009718933161
 30
0.0
  0
VERTEX
  5
21DA
  8
0
 10
182.889003877383
 20
169.43444659955699
 30
0.0
  0
VERTEX
  5
21DB
  8
0
 10
182.85858385356249
 20
169.44891410399271
 30
0.0
  0
VERTEX
  5
21DC
  8
0
 10
182.79763509606681
 20
169.478204245293
 30
0.0
  0
VERTEX
  5
21DD
  8
0
 10
182.7365489476189
 20
169.50796925412359
 30
0.0
  0
VERTEX
  5
21DE
  8
0
 10
182.6753344352685
 20
169.53821067864121
 30
0.0
  0
VERTEX
  5
21DF
  8
0
 10
182.61400053700601
 20
169.56892997600229
 30
0.0
  0
VERTEX
  5
21E0
  8
0
 10
182.5525561778239
 20
169.60012851411349
 30
0.0
  0
VERTEX
  5
21E1
  8
0
 10
182.52179534907231
 20
169.615907901946
 30
0.0
  0
VERTEX
  5
21E2
  8
0
 10
182.4910102261565
 20
169.63180757337221
 30
0.0
  0
VERTEX
  5
21E3
  8
0
 10
182.4293714907229
 20
169.66396834836669
 30
0.0
  0
VERTEX
  5
21E4
  8
0
 10
182.36764871780289
 20
169.6966119495043
 30
0.0
  0
VERTEX
  5
21E5
  8
0
 10
182.30585058897151
 20
169.72973940453741
 30
0.0
  0
VERTEX
  5
21E6
  8
0
 10
182.24398571931161
 20
169.76335165995249
 30
0.0
  0
VERTEX
  5
21E7
  8
0
 10
182.18206265612849
 20
169.79744958219101
 30
0.0
  0
VERTEX
  5
21E8
  8
0
 10
182.15108195426561
 20
169.81468091749929
 30
0.0
  0
VERTEX
  5
21E9
  8
0
 10
182.12008987818101
 20
169.83203395866499
 30
0.0
  0
VERTEX
  5
21EA
  8
0
 10
182.05807579544481
 20
169.8671054985372
 30
0.0
  0
VERTEX
  5
21EB
  8
0
 10
181.99602874941911
 20
169.90266483322731
 30
0.0
  0
VERTEX
  5
21EC
  8
0
 10
181.93395701398299
 20
169.9387125166138
 30
0.0
  0
VERTEX
  5
21ED
  8
0
 10
181.87186879680789
 20
169.97524902489519
 30
0.0
  0
VERTEX
  5
21EE
  8
0
 10
181.80977251921411
 20
170.01227458929381
 30
0.0
  0
VERTEX
  5
21EF
  8
0
 10
181.77874033521169
 20
170.03096093045301
 30
0.0
  0
VERTEX
  5
21F0
  8
0
 10
181.74773499804891
 20
170.0497538049209
 30
0.0
  0
VERTEX
  5
21F1
  8
0
 10
181.68580938595019
 20
170.08765769030219
 30
0.0
  0
VERTEX
  5
21F2
  8
0
 10
181.62400466734479
 20
170.1259832312017
 30
0.0
  0
VERTEX
  5
21F3
  8
0
 10
181.56232973131591
 20
170.16472727437949
 30
0.0
  0
VERTEX
  5
21F4
  8
0
 10
181.5007933703815
 20
170.20388652844349
 30
0.0
  0
VERTEX
  5
21F5
  8
0
 10
181.4394042794658
 20
170.2434575646194
 30
0.0
  0
VERTEX
  5
21F6
  8
0
 10
181.40876765053309
 20
170.26339639211221
 30
0.0
  0
VERTEX
  5
21F7
  8
0
 10
181.3781710550613
 20
170.28343681743439
 30
0.0
  0
VERTEX
  5
21F8
  8
0
 10
181.3171021945717
 20
170.3238205853051
 30
0.0
  0
VERTEX
  5
21F9
  8
0
 10
181.25620609582859
 20
170.36460503102609
 30
0.0
  0
VERTEX
  5
21FA
  8
0
 10
181.1954910567741
 20
170.40578618215511
 30
0.0
  0
VERTEX
  5
21FB
  8
0
 10
181.134965275295
 20
170.44735993128921
 30
0.0
  0
VERTEX
  5
21FC
  8
0
 10
181.0746368492008
 20
170.48932203623261
 30
0.0
  0
VERTEX
  5
21FD
  8
0
 10
181.04454914764739
 20
170.51044735960539
 30
0.0
  0
VERTEX
  5
21FE
  8
0
 10
181.0145137763306
 20
170.53166812005341
 30
0.0
  0
VERTEX
  5
21FF
  8
0
 10
180.9546039547765
 20
170.57439367103089
 30
0.0
  0
VERTEX
  5
2200
  8
0
 10
180.89491518321
 20
170.61749404249201
 30
0.0
  0
VERTEX
  5
2201
  8
0
 10
180.8651561011722
 20
170.63918329685379
 30
0.0
  0
VERTEX
  5
2202
  8
0
 10
180.83545516129681
 20
170.66096445254331
 30
0.0
  0
VERTEX
  5
2203
  8
0
 10
180.7762314901849
 20
170.7047999836974
 30
0.0
  0
VERTEX
  5
2204
  8
0
 10
180.7172516730536
 20
170.7489955824025
 30
0.0
  0
VERTEX
  5
2205
  8
0
 10
180.68785552783069
 20
170.77122679050899
 30
0.0
  0
VERTEX
  5
2206
  8
0
 10
180.65852311570521
 20
170.7935460584761
 30
0.0
  0
VERTEX
  5
2207
  8
0
 10
180.60005312718869
 20
170.8384460844533
 30
0.0
  0
VERTEX
  5
2208
  8
0
 10
180.541848948406
 20
170.8836901729801
 30
0.0
  0
VERTEX
  5
2209
  8
0
 10
180.48397165302219
 20
170.9292300061764
 30
0.0
  0
VERTEX
  5
220A
  8
0
 10
180.4264759164852
 20
170.9750201001107
 30
0.0
  0
VERTEX
  5
220B
  8
0
 10
180.3693663277061
 20
171.0210534958216
 30
0.0
  0
VERTEX
  5
220C
  8
0
 10
180.34095774959559
 20
171.04415922793419
 30
0.0
  0
VERTEX
  5
220D
  8
0
 10
180.31264739111339
 20
171.0673231272452
 30
0.0
  0
VERTEX
  5
220E
  8
0
 10
180.25632352889519
 20
171.11382181935559
 30
0.0
  0
VERTEX
  5
220F
  8
0
 10
180.2003990828228
 20
171.160542286507
 30
0.0
  0
VERTEX
  5
2210
  8
0
 10
180.14487831566069
 20
171.207477130999
 30
0.0
  0
VERTEX
  5
2211
  8
0
 10
180.08976541217271
 20
171.2546188418836
 30
0.0
  0
VERTEX
  5
2212
  8
0
 10
180.03506447973481
 20
171.30195979403359
 30
0.0
  0
VERTEX
  5
2213
  8
0
 10
180.0078697651185
 20
171.3257025713427
 30
0.0
  0
VERTEX
  5
2214
  8
0
 10
179.9807795485672
 20
171.34949224748669
 30
0.0
  0
VERTEX
  5
2215
  8
0
 10
179.9269145716016
 20
171.3972083470801
 30
0.0
  0
VERTEX
  5
2216
  8
0
 10
179.87347342400111
 20
171.44510012238709
 30
0.0
  0
VERTEX
  5
2217
  8
0
 10
179.82045990235039
 20
171.49315948796581
 30
0.0
  0
VERTEX
  5
2218
  8
0
 10
179.7678777235387
 20
171.54137824392569
 30
0.0
  0
VERTEX
  5
2219
  8
0
 10
179.7157305233566
 20
171.5897480768196
 30
0.0
  0
VERTEX
  5
221A
  8
0
 10
179.6898211538562
 20
171.6139870184069
 30
0.0
  0
VERTEX
  5
221B
  8
0
 10
179.66402185483139
 20
171.6382605608616
 30
0.0
  0
VERTEX
  5
221C
  8
0
 10
179.6127551863236
 20
171.6869071594727
 30
0.0
  0
VERTEX
  5
221D
  8
0
 10
179.56193389941291
 20
171.73567922715171
 30
0.0
  0
VERTEX
  5
221E
  8
0
 10
179.51156128659929
 20
171.784568011668
 30
0.0
  0
VERTEX
  5
221F
  8
0
 10
179.4616405488448
 20
171.83356465656911
 30
0.0
  0
VERTEX
  5
2220
  8
0
 10
179.41217479298689
 20
171.88266020399459
 30
0.0
  0
VERTEX
  5
2221
  8
0
 10
179.38761347775841
 20
171.9072422398535
 30
0.0
  0
VERTEX
  5
2222
  8
0
 10
179.36316886833359
 20
171.93184374155291
 30
0.0
  0
VERTEX
  5
2223
  8
0
 10
179.3146879262456
 20
171.9810425431948
 30
0.0
  0
VERTEX
  5
2224
  8
0
 10
179.26676180228739
 20
172.0302173095599
 30
0.0
  0
VERTEX
  5
2225
  8
0
 10
179.21938859465379
 20
172.07936039309971
 30
0.0
  0
VERTEX
  5
2226
  8
0
 10
179.17256640436469
 20
172.1284641175848
 30
0.0
  0
VERTEX
  5
2227
  8
0
 10
179.1262933363553
 20
172.17752077513421
 30
0.0
  0
VERTEX
  5
2228
  8
0
 10
179.10336213220339
 20
172.2020290358389
 30
0.0
  0
VERTEX
  5
2229
  8
0
 10
179.08056749997891
 20
172.22652262381811
 30
0.0
  0
VERTEX
  5
222A
  8
0
 10
179.03538700897121
 20
172.27546188582821
 30
0.0
  0
VERTEX
  5
222B
  8
0
 10
178.99074998092681
 20
172.3243307462065
 30
0.0
  0
VERTEX
  5
222C
  8
0
 10
178.96863467809089
 20
172.34873632326151
 30
0.0
  0
VERTEX
  5
222D
  8
0
 10
178.9466545363378
 20
172.37312135211869
 30
0.0
  0
VERTEX
  5
222E
  8
0
 10
178.9030987972433
 20
172.4218258126559
 30
0.0
  0
VERTEX
  5
222F
  8
0
 10
178.86008088553871
 20
172.4704361991445
 30
0.0
  0
VERTEX
  5
2230
  8
0
 10
178.8387730275283
 20
172.4947036267707
 30
0.0
  0
VERTEX
  5
2231
  8
0
 10
178.8175989209941
 20
172.51894454594441
 30
0.0
  0
VERTEX
  5
2232
  8
0
 10
178.7756510190251
 20
172.5673428517081
 30
0.0
  0
VERTEX
  5
2233
  8
0
 10
178.73423528826419
 20
172.61562308107739
 30
0.0
  0
VERTEX
  5
2234
  8
0
 10
178.69334982797409
 20
172.6637771667879
 30
0.0
  0
VERTEX
  5
2235
  8
0
 10
178.65299272534421
 20
172.711797012153
 30
0.0
  0
VERTEX
  5
2236
  8
0
 10
178.61316205271009
 20
172.7596744938966
 30
0.0
  0
VERTEX
  5
2237
  8
0
 10
178.59344352049061
 20
172.78355730338541
 30
0.0
  0
VERTEX
  5
2238
  8
0
 10
178.5738558647318
 20
172.8074014653038
 30
0.0
  0
VERTEX
  5
2239
  8
0
 10
178.5350721955671
 20
172.85496975965719
 30
0.0
  0
VERTEX
  5
223A
  8
0
 10
178.49680905606931
 20
172.9023711939285
 30
0.0
  0
VERTEX
  5
223B
  8
0
 10
178.45906443104269
 20
172.9495975726916
 30
0.0
  0
VERTEX
  5
223C
  8
0
 10
178.42183627657869
 20
172.99664069222629
 30
0.0
  0
VERTEX
  5
223D
  8
0
 10
178.3851225175014
 20
173.04349234478201
 30
0.0
  0
VERTEX
  5
223E
  8
0
 10
178.36695787859051
 20
173.06684380599691
 30
0.0
  0
VERTEX
  5
223F
  8
0
 10
178.34892104494139
 20
173.09014432296871
 30
0.0
  0
VERTEX
  5
2240
  8
0
 10
178.31322971406021
 20
173.13658842424789
 30
0.0
  0
VERTEX
  5
2241
  8
0
 10
178.27804634194069
 20
173.18281645549129
 30
0.0
  0
VERTEX
  5
2242
  8
0
 10
178.26064444736471
 20
173.2058468882019
 30
0.0
  0
SEQEND
  5
2243
  8
0
  0
POLYLINE
  5
1809
  8
0
 66
     1
 10
0.0
 20
0.0
 30
0.0
  0
VERTEX
  5
2244
  8
0
 10
189.01677997827539
 20
168.2540566469863
 30
0.0
  0
VERTEX
  5
2245
  8
0
 10
189.01280878167401
 20
168.25381080558489
 30
0.0
  0
VERTEX
  5
2246
  8
0
 10
188.9810316204464
 20
168.2518892977466
 30
0.0
  0
VERTEX
  5
2247
  8
0
 10
188.91745261925209
 20
168.24828853574459
 30
0.0
  0
VERTEX
  5
2248
  8
0
 10
188.8737182989268
 20
168.24600023875149
 30
0.0
  0
VERTEX
  5
2249
  8
0
 10
188.82191683187909
 20
168.243488556741
 30
0.0
  0
VERTEX
  5
224A
  8
0
 10
188.6938510594174
 20
168.23820319875421
 30
0.0
  0
VERTEX
  5
224B
  8
0
 10
188.53282545451961
 20
168.23342314732369
 30
0.0
  0
VERTEX
  5
224C
  8
0
 10
188.33842697444231
 20
168.23041838779699
 30
0.0
  0
VERTEX
  5
224D
  8
0
 10
188.11021827989521
 20
168.23074928117319
 30
0.0
  0
VERTEX
  5
224E
  8
0
 10
187.84895287661209
 20
168.2362449107257
 30
0.0
  0
VERTEX
  5
224F
  8
0
 10
187.70778336938301
 20
168.2414897059094
 30
0.0
  0
VERTEX
  5
2250
  8
0
 10
187.5600284147425
 20
168.24869156099859
 30
0.0
  0
VERTEX
  5
2251
  8
0
 10
187.24559716128431
 20
168.269861622082
 30
0.0
  0
VERTEX
  5
2252
  8
0
 10
186.90728450303669
 20
168.30156072915349
 30
0.0
  0
VERTEX
  5
2253
  8
0
 10
186.5466457646919
 20
168.34561367530929
 30
0.0
  0
VERTEX
  5
2254
  8
0
 10
186.16516524638979
 20
168.40386219064999
 30
0.0
  0
VERTEX
  5
2255
  8
0
 10
185.761090536653
 20
168.4788102256681
 30
0.0
  0
VERTEX
  5
2256
  8
0
 10
185.54727100633781
 20
168.52406652717841
 30
0.0
  0
VERTEX
  5
2257
  8
0
 10
185.5108609253447
 20
168.53216314455989
 30
0.0
  0
VERTEX
  5
2258
  8
0
 10
185.43738428922521
 20
168.54885016163161
 30
0.0
  0
VERTEX
  5
2259
  8
0
 10
185.3630373718982
 20
168.56620987442679
 30
0.0
  0
VERTEX
  5
225A
  8
0
 10
185.32553947242141
 20
168.5751474117657
 30
0.0
  0
VERTEX
  5
225B
  8
0
 10
185.28782631607649
 20
168.58425965456411
 30
0.0
  0
VERTEX
  5
225C
  8
0
 10
185.2117573853622
 20
168.60301709594279
 30
0.0
  0
VERTEX
  5
225D
  8
0
 10
185.13483694407429
 20
168.62250002352539
 30
0.0
  0
VERTEX
  5
225E
  8
0
 10
185.05707143709341
 20
168.642726503342
 30
0.0
  0
VERTEX
  5
225F
  8
0
 10
184.9784673699447
 20
168.66371485372471
 30
0.0
  0
VERTEX
  5
2260
  8
0
 10
184.8990312893803
 20
168.68548365776149
 30
0.0
  0
VERTEX
  5
2261
  8
0
 10
184.8590032965962
 20
168.69666661284271
 30
0.0
  0
VERTEX
  5
2262
  8
0
 10
184.8187697647588
 20
168.7080517769364
 30
0.0
  0
VERTEX
  5
2263
  8
0
 10
184.73768937056451
 20
168.73143836589381
 30
0.0
  0
VERTEX
  5
2264
  8
0
 10
184.65579667045671
 20
168.75566288823521
 30
0.0
  0
VERTEX
  5
2265
  8
0
 10
184.57309820328399
 20
168.7807451332165
 30
0.0
  0
VERTEX
  5
2266
  8
0
 10
184.48960047155279
 20
168.80670523317571
 30
0.0
  0
VERTEX
  5
2267
  8
0
 10
184.40530993288721
 20
168.83356368146889
 30
0.0
  0
VERTEX
  5
2268
  8
0
 10
184.36286936538531
 20
168.84733629360261
 30
0.0
  0
VERTEX
  5
2269
  8
0
 10
184.32023299507091
 20
168.86134135064179
 30
0.0
  0
VERTEX
  5
226A
  8
0
 10
184.2343760153104
 20
168.89005951050569
 30
0.0
  0
VERTEX
  5
226B
  8
0
 10
184.1477453044044
 20
168.91973984571831
 30
0.0
  0
VERTEX
  5
226C
  8
0
 10
184.1041417614922
 20
168.93494772308929
 30
0.0
  0
SEQEND
  5
226D
  8
0
  0
POLYLINE
  5
180C
  8
0
 66
     1
 10
0.0
 20
0.0
 30
0.0
  0
VERTEX
  5
226E
  8
0
 10
161.19440872106949
 20
177.7221300865792
 30
0.0
  0
VERTEX
  5
226F
  8
0
 10
161.1934153449773
 20
177.71827721554061
 30
0.0
  0
VERTEX
  5
2270
  8
0
 10
161.1854229844233
 20
177.68746102348109
 30
0.0
  0
VERTEX
  5
2271
  8
0
 10
161.16920024490281
 20
177.62588007953781
 30
0.0
  0
VERTEX
  5
2272
  8
0
 10
161.15786169276129
 20
177.58357841459889
 30
0.0
  0
VERTEX
  5
2273
  8
0
 10
161.14424264040969
 20
177.53353519281481
 30
0.0
  0
VERTEX
  5
2274
  8
0
 10
161.10969412631241
 20
177.41010185720791
 30
0.0
  0
VERTEX
  5
2275
  8
0
 10
161.064479672278
 20
177.25547752920519
 30
0.0
  0
VERTEX
  5
2276
  8
0
 10
161.00726377889831
 20
177.06966186428389
 30
0.0
  0
VERTEX
  5
2277
  8
0
 10
160.9364272619608
 20
176.85272112511851
 30
0.0
  0
VERTEX
  5
2278
  8
0
 10
160.85046424903371
 20
176.6059396677505
 30
0.0
  0
VERTEX
  5
2279
  8
0
 10
160.80185219130169
 20
176.47330029929091
 30
0.0
  0
VERTEX
  5
227A
  8
0
 10
160.74934385977971
 20
176.3350026297542
 30
0.0
  0
VERTEX
  5
227B
  8
0
 10
160.632045044074
 20
176.04250310837369
 30
0.0
  0
VERTEX
  5
227C
  8
0
 10
160.49735281024951
 20
175.73054485185131
 30
0.0
  0
VERTEX
  5
227D
  8
0
 10
160.34401229616549
 20
175.40117090544501
 30
0.0
  0
VERTEX
  5
227E
  8
0
 10
160.1707305838502
 20
175.05636200881699
 30
0.0
  0
VERTEX
  5
227F
  8
0
 10
159.97458544306301
 20
174.69522649101231
 30
0.0
  0
VERTEX
  5
2280
  8
0
 10
159.86547086564349
 20
174.50585846604591
 30
0.0
  0
VERTEX
  5
2281
  8
0
 10
159.84651929893229
 20
174.4737326646935
 30
0.0
  0
VERTEX
  5
2282
  8
0
 10
159.80794369721889
 20
174.4090093107161
 30
0.0
  0
VERTEX
  5
2283
  8
0
 10
159.76845940346581
 20
174.34366615192889
 30
0.0
  0
VERTEX
  5
2284
  8
0
 10
159.74837193407231
 20
174.3107656415188
 30
0.0
  0
VERTEX
  5
2285
  8
0
 10
159.72805179484121
 20
174.27771439843141
 30
0.0
  0
VERTEX
  5
2286
  8
0
 10
159.68670607448229
 20
174.21116544398819
 30
0.0
  0
VERTEX
  5
2287
  8
0
 10
159.6444072569094
 20
174.14403084955831
 30
0.0
  0
VERTEX
  5
2288
  8
0
 10
159.6011401522839
 20
174.07632232721741
 30
0.0
  0
VERTEX
  5
2289
  8
0
 10
159.55688934957021
 20
174.0080517246883
 30
0.0
  0
VERTEX
  5
228A
  8
0
 10
159.511639198692
 20
173.93923101072181
 30
0.0
  0
VERTEX
  5
228B
  8
0
 10
159.48863440708689
 20
173.9046181319288
 30
0.0
  0
VERTEX
  5
228C
  8
0
 10
159.46537379180629
 20
173.86987226160201
 30
0.0
  0
VERTEX
  5
228D
  8
0
 10
159.4180769438608
 20
173.79998764908439
 30
0.0
  0
VERTEX
  5
228E
  8
0
 10
159.36973217264261
 20
173.72958943010579
 30
0.0
  0
VERTEX
  5
228F
  8
0
 10
159.3203226785765
 20
173.65868993864299
 30
0.0
  0
VERTEX
  5
2290
  8
0
 10
159.2698313245877
 20
173.58730158013
 30
0.0
  0
VERTEX
  5
2291
  8
0
 10
159.21824061640601
 20
173.515436828877
 30
0.0
  0
VERTEX
  5
2292
  8
0
 10
159.19202743520611
 20
173.47932972317011
 30
0.0
  0
VERTEX
  5
2293
  8
0
 10
159.1655326837502
 20
173.44310822896949
 30
0.0
  0
VERTEX
  5
2294
  8
0
 10
159.1116892629112
 20
173.37032839915119
 30
0.0
  0
VERTEX
  5
2295
  8
0
 10
159.05669168131871
 20
173.29711004222011
 30
0.0
  0
VERTEX
  5
2296
  8
0
 10
159.0287541300527
 20
173.26034041214101
 30
0.0
  0
SEQEND
  5
2297
  8
0
  0
POLYLINE
  5
1810
  8
0
 66
     1
 10
0.0
 20
0.0
 30
0.0
  0
VERTEX
  5
2298
  8
0
 10
153.16114767198289
 20
169.02262463686839
 30
0.0
  0
VERTEX
  5
2299
  8
0
 10
153.11637892291009
 20
169.00729665229429
 30
0.0
  0
VERTEX
  5
229A
  8
0
 10
153.02746119172409
 20
168.97741258665309
 30
0.0
  0
VERTEX
  5
229B
  8
0
 10
152.93937760052759
 20
168.94853837925999
 30
0.0
  0
VERTEX
  5
229C
  8
0
 10
152.89565153192481
 20
168.93447280917999
 30
0.0
  0
VERTEX
  5
229D
  8
0
 10
152.85213751004471
 20
168.9206511548943
 30
0.0
  0
VERTEX
  5
229E
  8
0
 10
152.76575029645591
 20
168.8937284090363
 30
0.0
  0
VERTEX
  5
229F
  8
0
 10
152.68022533913501
 20
168.8677479876095
 30
0.0
  0
VERTEX
  5
22A0
  8
0
 10
152.59557200456911
 20
168.8426880673311
 30
0.0
  0
VERTEX
  5
22A1
  8
0
 10
152.51179962721591
 20
168.8185271369922
 30
0.0
  0
VERTEX
  5
22A2
  8
0
 10
152.428917487977
 20
168.79524397991091
 30
0.0
  0
VERTEX
  5
22A3
  8
0
 10
152.38781313758
 20
168.78392501264921
 30
0.0
  0
VERTEX
  5
22A4
  8
0
 10
152.34693479089159
 20
168.772817657742
 30
0.0
  0
VERTEX
  5
22A5
  8
0
 10
152.2658606385819
 20
168.75122749576951
 30
0.0
  0
VERTEX
  5
22A6
  8
0
 10
152.18570400691311
 20
168.73045306976141
 30
0.0
  0
VERTEX
  5
22A7
  8
0
 10
152.10647371926669
 20
168.7104741944257
 30
0.0
  0
VERTEX
  5
22A8
  8
0
 10
152.02817842076701
 20
168.6912709134713
 30
0.0
  0
VERTEX
  5
22A9
  8
0
 10
151.95082655274581
 20
168.67282349125449
 30
0.0
  0
VERTEX
  5
22AA
  8
0
 10
151.91250698117631
 20
168.663877118409
 30
0.0
  0
VERTEX
  5
22AB
  8
0
 10
151.8744263276825
 20
168.6551124059618
 30
0.0
  0
VERTEX
  5
22AC
  8
0
 10
151.79898229306801
 20
168.63811758680919
 30
0.0
  0
VERTEX
  5
22AD
  8
0
 10
151.7244249788252
 20
168.62180335473829
 30
0.0
  0
VERTEX
  5
22AE
  8
0
 10
151.68746795443559
 20
168.6138932134227
 30
0.0
  0
VERTEX
  5
22AF
  8
0
 10
151.47024297527889
 20
168.56975180235949
 30
0.0
  0
VERTEX
  5
22B0
  8
0
 10
151.05918083048391
 20
168.49710995426599
 30
0.0
  0
VERTEX
  5
22B1
  8
0
 10
150.67960899888891
 20
168.44250704883291
 30
0.0
  0
VERTEX
  5
22B2
  8
0
 10
150.33037020857171
 20
168.4027067000132
 30
0.0
  0
VERTEX
  5
22B3
  8
0
 10
150.00423741430299
 20
168.37448521289181
 30
0.0
  0
VERTEX
  5
22B4
  8
0
 10
149.7012646484587
 20
168.3559558542197
 30
0.0
  0
VERTEX
  5
22B5
  8
0
 10
149.55887058675441
 20
168.34979497461009
 30
0.0
  0
VERTEX
  5
22B6
  8
0
 10
149.4227584916645
 20
168.34542550089469
 30
0.0
  0
VERTEX
  5
22B7
  8
0
 10
149.1700525020392
 20
168.34124690604111
 30
0.0
  0
VERTEX
  5
22B8
  8
0
 10
148.94451374243249
 20
168.34183276744261
 30
0.0
  0
VERTEX
  5
22B9
  8
0
 10
148.74755336112241
 20
168.34567384397479
 30
0.0
  0
VERTEX
  5
22BA
  8
0
 10
148.58089109866179
 20
168.35135083842451
 30
0.0
  0
VERTEX
  5
22BB
  8
0
 10
148.44760212437109
 20
168.3574941201658
 30
0.0
  0
VERTEX
  5
22BC
  8
0
 10
148.3936076795832
 20
168.36038869454711
 30
0.0
  0
VERTEX
  5
22BD
  8
0
 10
148.34800163298181
 20
168.36301611532551
 30
0.0
  0
VERTEX
  5
22BE
  8
0
 10
148.2818297146938
 20
168.3671258243387
 30
0.0
  0
VERTEX
  5
22BF
  8
0
 10
148.24884695674001
 20
168.36930588721719
 30
0.0
  0
VERTEX
  5
22C0
  8
0
 10
148.24472976276459
 20
168.36958417224781
 30
0.0
  0
SEQEND
  5
22C1
  8
0
  0
POLYLINE
  5
1811
  8
0
 66
     1
 10
0.0
 20
0.0
 30
0.0
  0
VERTEX
  5
22C2
  8
0
 10
159.0287541300527
 20
173.26034041214089
 30
0.0
  0
VERTEX
  5
22C3
  8
0
 10
159.01123591945071
 20
173.2374271242667
 30
0.0
  0
VERTEX
  5
22C4
  8
0
 10
158.9758121041782
 20
173.1914261369856
 30
0.0
  0
VERTEX
  5
22C5
  8
0
 10
158.93986952414659
 20
173.1451991668533
 30
0.0
  0
VERTEX
  5
22C6
  8
0
 10
158.92170286291361
 20
173.12200340387321
 30
0.0
  0
VERTEX
  5
22C7
  8
0
 10
158.90340551181231
 20
173.09875410543569
 30
0.0
  0
VERTEX
  5
22C8
  8
0
 10
158.86641742005139
 20
173.05209885478931
 30
0.0
  0
VERTEX
  5
22C9
  8
0
 10
158.82890261976181
 20
173.0052413233019
 30
0.0
  0
VERTEX
  5
22CA
  8
0
 10
158.79085849734929
 20
172.95818942167139
 30
0.0
  0
VERTEX
  5
22CB
  8
0
 10
158.7522824521192
 20
172.91095105905521
 30
0.0
  0
VERTEX
  5
22CC
  8
0
 10
158.7131718935992
 20
172.86353413941919
 30
0.0
  0
VERTEX
  5
22CD
  8
0
 10
158.69341536445941
 20
172.83976118844279
 30
0.0
  0
VERTEX
  5
22CE
  8
0
 10
158.67352423882051
 20
172.8159465581225
 30
0.0
  0
VERTEX
  5
22CF
  8
0
 10
158.633336909587
 20
172.7681961987665
 30
0.0
  0
VERTEX
  5
22D0
  8
0
 10
158.59260732976679
 20
172.72029093034379
 30
0.0
  0
VERTEX
  5
22D1
  8
0
 10
158.55133292263901
 20
172.67223860471759
 30
0.0
  0
VERTEX
  5
22D2
  8
0
 10
158.5095111083356
 20
172.62404705446411
 30
0.0
  0
VERTEX
  5
22D3
  8
0
 10
158.46713930141721
 20
172.57572409110961
 30
0.0
  0
VERTEX
  5
22D4
  8
0
 10
158.4457463406965
 20
172.55151576452701
 30
0.0
  0
VERTEX
  5
22D5
  8
0
 10
158.424214908625
 20
172.52727750379191
 30
0.0
  0
VERTEX
  5
22D6
  8
0
 10
158.38073532685499
 20
172.4787150583752
 30
0.0
  0
VERTEX
  5
22D7
  8
0
 10
158.3366979413978
 20
172.43004449704631
 30
0.0
  0
VERTEX
  5
22D8
  8
0
 10
158.314469251654
 20
172.405671085888
 30
0.0
  0
VERTEX
  5
22D9
  8
0
 10
158.29210012449519
 20
172.38127353841631
 30
0.0
  0
VERTEX
  5
22DA
  8
0
 10
158.24693923426091
 20
172.3324098781525
 30
0.0
  0
VERTEX
  5
22DB
  8
0
 10
158.20124057748009
 20
172.28349096380919
 30
0.0
  0
VERTEX
  5
22DC
  8
0
 10
158.1782048129119
 20
172.25902988713051
 30
0.0
  0
VERTEX
  5
22DD
  8
0
 10
158.15504507019881
 20
172.23456940126559
 30
0.0
  0
VERTEX
  5
22DE
  8
0
 10
158.10835424807931
 20
172.18565479095159
 30
0.0
  0
VERTEX
  5
22DF
  8
0
 10
158.06116935441031
 20
172.13675626793909
 30
0.0
  0
VERTEX
  5
22E0
  8
0
 10
158.01349170685521
 20
172.08788289605599
 30
0.0
  0
VERTEX
  5
22E1
  8
0
 10
157.96532269447951
 20
172.03904366434779
 30
0.0
  0
VERTEX
  5
22E2
  8
0
 10
157.91666377486879
 20
171.99024748387291
 30
0.0
  0
VERTEX
  5
22E3
  8
0
 10
157.89215107340041
 20
171.96586830051999
 30
0.0
  0
VERTEX
  5
22E4
  8
0
 10
157.86751647137291
 20
171.94150318485231
 30
0.0
  0
VERTEX
  5
22E5
  8
0
 10
157.8178823705133
 20
171.89281951419301
 30
0.0
  0
VERTEX
  5
22E6
  8
0
 10
157.76776311959159
 20
171.84420513339899
 30
0.0
  0
VERTEX
  5
22E7
  8
0
 10
157.7171604245388
 20
171.7956686168869
 30
0.0
  0
VERTEX
  5
22E8
  8
0
 10
157.66607604804
 20
171.74721845071511
 30
0.0
  0
VERTEX
  5
22E9
  8
0
 10
157.6145118079767
 20
171.69886303173681
 30
0.0
  0
VERTEX
  5
22EA
  8
0
 10
157.58855032198451
 20
171.67472345195819
 30
0.0
  0
VERTEX
  5
22EB
  8
0
 10
157.56246957622119
 20
171.65061066718241
 30
0.0
  0
VERTEX
  5
22EC
  8
0
 10
157.50995127782161
 20
171.60246957467351
 30
0.0
  0
VERTEX
  5
22ED
  8
0
 10
157.45695889061321
 20
171.5544478826703
 30
0.0
  0
VERTEX
  5
22EE
  8
0
 10
157.4034944452907
 20
171.50655363134729
 30
0.0
  0
VERTEX
  5
22EF
  8
0
 10
157.34956002597511
 20
171.45879477389249
 30
0.0
  0
VERTEX
  5
22F0
  8
0
 10
157.295157988867
 20
171.41117936753119
 30
0.0
  0
VERTEX
  5
22F1
  8
0
 10
157.26779666715859
 20
171.387440323395
 30
0.0
  0
VERTEX
  5
22F2
  8
0
 10
157.24034232491411
 20
171.36375973577529
 30
0.0
  0
VERTEX
  5
22F3
  8
0
 10
157.18515736810321
 20
171.31657777819689
 30
0.0
  0
VERTEX
  5
22F4
  8
0
 10
157.12960876178349
 20
171.269641107946
 30
0.0
  0
VERTEX
  5
22F5
  8
0
 10
157.0737022520465
 20
171.222957204539
 30
0.0
  0
VERTEX
  5
22F6
  8
0
 10
157.01744368653931
 20
171.176533412959
 30
0.0
  0
VERTEX
  5
22F7
  8
0
 10
156.9608390134137
 20
171.1303769429168
 30
0.0
  0
VERTEX
  5
22F8
  8
0
 10
156.93240877254649
 20
171.107401169371
 30
0.0
  0
VERTEX
  5
22F9
  8
0
 10
156.90389428041729
 20
171.0844948682637
 30
0.0
  0
VERTEX
  5
22FA
  8
0
 10
156.84661563413101
 20
171.0388941265488
 30
0.0
  0
VERTEX
  5
22FB
  8
0
 10
156.78900931935519
 20
170.99358151871101
 30
0.0
  0
VERTEX
  5
22FC
  8
0
 10
156.7310816786451
 20
170.94856370889389
 30
0.0
  0
VERTEX
  5
22FD
  8
0
 10
156.67283915199661
 20
170.9038472243756
 30
0.0
  0
VERTEX
  5
22FE
  8
0
 10
156.61428827667939
 20
170.8594384555976
 30
0.0
  0
VERTEX
  5
22FF
  8
0
 10
156.58489927775699
 20
170.83735142423589
 30
0.0
  0
VERTEX
  5
2300
  8
0
 10
156.55543568721569
 20
170.8153436562848
 30
0.0
  0
VERTEX
  5
2301
  8
0
 10
156.49628811549971
 20
170.7715689436406
 30
0.0
  0
VERTEX
  5
2302
  8
0
 10
156.4368523910523
 20
170.72812029860711
 30
0.0
  0
VERTEX
  5
2303
  8
0
 10
156.40702863256629
 20
170.70652008330541
 30
0.0
  0
VERTEX
  5
2304
  8
0
 10
156.3771354414047
 20
170.68500356617579
 30
0.0
  0
VERTEX
  5
2305
  8
0
 10
156.3171442926033
 20
170.64222445573691
 30
0.0
  0
VERTEX
  5
2306
  8
0
 10
156.25688606982649
 20
170.59978854145459
 30
0.0
  0
VERTEX
  5
2307
  8
0
 10
156.22665905959741
 20
170.57870098791801
 30
0.0
  0
VERTEX
  5
2308
  8
0
 10
156.19636799810519
 20
170.55770126265531
 30
0.0
  0
VERTEX
  5
2309
  8
0
 10
156.1355974031344
 20
170.5159679242185
 30
0.0
  0
VERTEX
  5
230A
  8
0
 10
156.0745817367218
 20
170.47459371350129
 30
0.0
  0
VERTEX
  5
230B
  8
0
 10
156.0133856090699
 20
170.43362164023591
 30
0.0
  0
VERTEX
  5
230C
  8
0
 10
155.9520693842625
 20
170.39308979211191
 30
0.0
  0
VERTEX
  5
230D
  8
0
 10
155.8906410986871
 20
170.35300038278959
 30
0.0
  0
VERTEX
  5
230E
  8
0
 10
155.85988746512581
 20
170.33312225338341
 30
0.0
  0
VERTEX
  5
230F
  8
0
 10
155.8291088644803
 20
170.3133555124864
 30
0.0
  0
VERTEX
  5
2310
  8
0
 10
155.76748087198899
 20
170.27415716953561
 30
0.0
  0
VERTEX
  5
2311
  8
0
 10
155.70576539191131
 20
170.23540723160801
 30
0.0
  0
VERTEX
  5
2312
  8
0
 10
155.64397077709771
 20
170.19710746661019
 30
0.0
  0
VERTEX
  5
2313
  8
0
 10
155.58210546399599
 20
170.1592595332732
 30
0.0
  0
VERTEX
  5
2314
  8
0
 10
155.52017797372829
 20
170.12186498144749
 30
0.0
  0
VERTEX
  5
2315
  8
0
 10
155.48919359833971
 20
170.10333817816749
 30
0.0
  0
VERTEX
  5
2316
  8
0
 10
155.45819691278561
 20
170.08492525212139
 30
0.0
  0
VERTEX
  5
2317
  8
0
 10
155.39617097333559
 20
170.04844167718201
 30
0.0
  0
VERTEX
  5
2318
  8
0
 10
155.3341089331347
 20
170.01241547893909
 30
0.0
  0
VERTEX
  5
2319
  8
0
 10
155.27201965504139
 20
169.9768477694324
 30
0.0
  0
VERTEX
  5
231A
  8
0
 10
155.20991208613259
 20
169.941739549544
 30
0.0
  0
VERTEX
  5
231B
  8
0
 10
155.1477952564222
 20
169.9070917079398
 30
0.0
  0
VERTEX
  5
231C
  8
0
 10
155.1167362129201
 20
169.88994067572389
 30
0.0
  0
VERTEX
  5
231D
  8
0
 10
155.08567827718829
 20
169.8729050198624
 30
0.0
  0
VERTEX
  5
231E
  8
0
 10
155.02357033891539
 20
169.83918014579891
 30
0.0
  0
VERTEX
  5
231F
  8
0
 10
154.9614807088619
 20
169.80591763004861
 30
0.0
  0
VERTEX
  5
2320
  8
0
 10
154.89941872826449
 20
169.7731178992135
 30
0.0
  0
VERTEX
  5
2321
  8
0
 10
154.83739380919391
 20
169.74078126063631
 30
0.0
  0
VERTEX
  5
2322
  8
0
 10
154.7754154310793
 20
169.70890790080901
 30
0.0
  0
VERTEX
  5
2323
  8
0
 10
154.74444667469399
 20
169.69314497526699
 30
0.0
  0
VERTEX
  5
2324
  8
0
 10
154.7134954619379
 20
169.6774990550322
 30
0.0
  0
VERTEX
  5
2325
  8
0
 10
154.65172317134659
 20
169.64659419756791
 30
0.0
  0
VERTEX
  5
2326
  8
0
 10
154.5901451892116
 20
169.61620957704019
 30
0.0
  0
VERTEX
  5
2327
  8
0
 10
154.52876820107269
 20
169.58634102146209
 30
0.0
  0
VERTEX
  5
2328
  8
0
 10
154.46759892061851
 20
169.55698435267141
 30
0.0
  0
VERTEX
  5
2329
  8
0
 10
154.40664409284909
 20
169.52813538644921
 30
0.0
  0
VERTEX
  5
232A
  8
0
 10
154.37624921570941
 20
169.5138999825194
 30
0.0
  0
VERTEX
  5
232B
  8
0
 10
154.34591049651141
 20
169.4997899322577
 30
0.0
  0
VERTEX
  5
232C
  8
0
 10
154.28540494582791
 20
169.4719437926409
 30
0.0
  0
VERTEX
  5
232D
  8
0
 10
154.22513429154489
 20
169.4445927623338
 30
0.0
  0
VERTEX
  5
232E
  8
0
 10
154.19508920150821
 20
169.43110159661489
 30
0.0
  0
VERTEX
  5
232F
  8
0
 10
154.16510542132519
 20
169.41773262712351
 30
0.0
  0
VERTEX
  5
2330
  8
0
 10
154.10532525952109
 20
169.39135916250339
 30
0.0
  0
VERTEX
  5
2331
  8
0
 10
154.04580076635571
 20
169.36546813216211
 30
0.0
  0
VERTEX
  5
2332
  8
0
 10
154.01613658006431
 20
169.35270220236919
 30
0.0
  0
VERTEX
  5
2333
  8
0
 10
153.98653893655279
 20
169.3400552863435
 30
0.0
  0
VERTEX
  5
2334
  8
0
 10
153.92754679744959
 20
169.31511636011771
 30
0.0
  0
VERTEX
  5
2335
  8
0
 10
153.8688314066334
 20
169.29064707159469
 30
0.0
  0
VERTEX
  5
2336
  8
0
 10
153.81039984914031
 20
169.26664312011451
 30
0.0
  0
VERTEX
  5
2337
  8
0
 10
153.75225923425791
 20
169.2431001844441
 30
0.0
  0
VERTEX
  5
2338
  8
0
 10
153.69441669197141
 20
169.22001392100759
 30
0.0
  0
VERTEX
  5
2339
  8
0
 10
153.6656094308855
 20
169.20864067747809
 30
0.0
  0
VERTEX
  5
233A
  8
0
 10
153.63687936909599
 20
169.19737996217719
 30
0.0
  0
VERTEX
  5
233B
  8
0
 10
153.57965442513449
 20
169.17519391464589
 30
0.0
  0
VERTEX
  5
233C
  8
0
 10
153.52274902790131
 20
169.15345135790361
 30
0.0
  0
VERTEX
  5
233D
  8
0
 10
153.46617034895209
 20
169.13214784283579
 30
0.0
  0
VERTEX
  5
233E
  8
0
 10
153.4099255588583
 20
169.11127889045861
 30
0.0
  0
VERTEX
  5
233F
  8
0
 10
153.35402182236251
 20
169.09083999080619
 30
0.0
  0
VERTEX
  5
2340
  8
0
 10
153.32620008539081
 20
169.0807803926788
 30
0.0
  0
VERTEX
  5
2341
  8
0
 10
153.29846629345229
 20
169.07082660198159
 30
0.0
  0
VERTEX
  5
2342
  8
0
 10
153.2432661103868
 20
169.0512341493783
 30
0.0
  0
VERTEX
  5
2343
  8
0
 10
153.18842839070859
 20
169.0320580250843
 30
0.0
  0
VERTEX
  5
2344
  8
0
 10
153.16114767198309
 20
169.02262463686839
 30
0.0
  0
SEQEND
  5
2345
  8
0
  0
CIRCLE
  5
181C
  8
0
 10
168.589751797698
 20
153.8409889752553
 30
0.0
 40
13.068744227924
  0
CIRCLE
  5
181D
  8
0
 10
168.589751797698
 20
153.8409889752553
 30
0.0
 40
13.210165584161309
  0
ARC
  5
1820
  8
0
 10
168.589751797698
 20
153.8409889752553
 30
0.0
 40
25.0
 50
72.468967733176683
 51
107.20633817538
  0
ARC
  5
1821
  8
0
 10
168.589751797698
 20
153.8409889752553
 30
0.0
 40
25.000000000000011
 50
144.46896773317661
 51
179.2063381753799
  0
ARC
  5
1822
  8
0
 10
168.589751797698
 20
153.8409889752553
 30
0.0
 40
24.999999999999979
 50
0.4689677331763513
 51
35.206338175380232
  0
ARC
  5
1823
  8
0
 10
168.589751797698
 20
153.84098897525541
 30
0.0
 40
25.000000000000121
 50
216.4689677331765
 51
251.20633817538041
  0
ARC
  5
1824
  8
0
 10
168.589751797698
 20
153.8409889752553
 30
0.0
 40
25.00000000000005
 50
288.4689677331765
 51
323.20633817538032
  0
LINE
  5
18B5
  8
1
 10
168.589751797698
 20
24.346418594202959
 30
0.0
 11
168.589751797698
 21
94.346418594203016
 31
0.0
  0
LINE
  5
18B6
  8
2
 10
172.589751797698
 20
29.346418594202991
 30
0.0
 11
172.589751797698
 21
49.346418594202987
 31
0.0
  0
LINE
  5
18B7
  8
2
 10
164.589751797698
 20
29.346418594202991
 30
0.0
 11
164.589751797698
 21
49.346418594202987
 31
0.0
  0
LINE
  5
18B8
  8
2
 10
165.266251797698
 20
48.669918594203011
 30
0.0
 11
171.913251797698
 21
48.669918594203011
 31
0.0
  0
LINE
  5
18B9
  8
2
 10
165.266251797698
 20
30.022918594202991
 30
0.0
 11
171.913251797698
 21
30.022918594202991
 31
0.0
  0
POLYLINE
  5
18BA
  8
0
 66
     1
 10
0.0
 20
0.0
 30
0.0
  0
VERTEX
  5
2346
  8
0
 10
193.0714867699898
 20
73.731180018740247
 30
0.0
  0
VERTEX
  5
2347
  8
0
 10
193.01609069621369
 20
74.002385462768359
 30
0.0
  0
VERTEX
  5
2348
  8
0
 10
192.89714108494471
 20
74.541298877384349
 30
0.0
  0
VERTEX
  5
2349
  8
0
 10
192.76749329398351
 20
75.074929184607072
 30
0.0
  0
VERTEX
  5
234A
  8
0
 10
192.69911462248609
 20
75.338085805393916
 30
0.0
  0
VERTEX
  5
234B
  8
0
 10
192.62873487706361
 20
75.597658725347628
 30
0.0
  0
VERTEX
  5
234C
  8
0
 10
192.48231336580949
 20
76.105910738607633
 30
0.0
  0
VERTEX
  5
234D
  8
0
 10
192.32890675711661
 20
76.599400032354538
 30
0.0
  0
VERTEX
  5
234E
  8
0
 10
192.16918576475661
 20
77.077840775493314
 30
0.0
  0
VERTEX
  5
234F
  8
0
 10
192.00381344772521
 20
77.540944840575378
 30
0.0
  0
VERTEX
  5
2350
  8
0
 10
191.83344482541139
 20
77.988419827998484
 30
0.0
  0
VERTEX
  5
2351
  8
0
 10
191.74658931072449
 20
78.206203283204559
 30
0.0
  0
VERTEX
  5
2352
  8
0
 10
191.65872654522741
 20
78.419966610845449
 30
0.0
  0
VERTEX
  5
2353
  8
0
 10
191.48029669621741
 20
78.835276205611649
 30
0.0
  0
VERTEX
  5
2354
  8
0
 10
191.2987848967492
 20
79.234025737789921
 30
0.0
  0
VERTEX
  5
2355
  8
0
 10
191.1133744665276
 20
79.618774845693906
 30
0.0
  0
VERTEX
  5
2356
  8
0
 10
190.92213922604509
 20
79.99351540980274
 30
0.0
  0
VERTEX
  5
2357
  8
0
 10
190.7258809802947
 20
80.356239575035033
 30
0.0
  0
VERTEX
  5
2358
  8
0
 10
190.62615414561861
 20
80.532436261245266
 30
0.0
  0
VERTEX
  5
2359
  8
0
 10
190.52552129591581
 20
80.704840194414032
 30
0.0
  0
VERTEX
  5
235A
  8
0
 10
190.3220321415252
 20
81.037223897029662
 30
0.0
  0
VERTEX
  5
235B
  8
0
 10
190.11642886572449
 20
81.351285913810784
 30
0.0
  0
VERTEX
  5
235C
  8
0
 10
190.01316328645541
 20
81.500775615915913
 30
0.0
  0
SEQEND
  5
235D
  8
0
  0
POLYLINE
  5
18BB
  8
0
 66
     1
 10
0.0
 20
0.0
 30
0.0
  0
VERTEX
  5
235E
  8
0
 10
193.587353358098
 20
68.466418594203049
 30
0.0
  0
VERTEX
  5
235F
  8
0
 10
193.58695219625369
 20
68.614240176355054
 30
0.0
  0
VERTEX
  5
2360
  8
0
 10
193.58374317401501
 20
68.909848502070929
 30
0.0
  0
VERTEX
  5
2361
  8
0
 10
193.57732683738209
 20
69.205342915314077
 30
0.0
  0
VERTEX
  5
2362
  8
0
 10
193.57291698726729
 20
69.353022105083994
 30
0.0
  0
VERTEX
  5
2363
  8
0
 10
193.5677068239747
 20
69.500642456909304
 30
0.0
  0
VERTEX
  5
2364
  8
0
 10
193.5548887061143
 20
69.795666167799183
 30
0.0
  0
VERTEX
  5
2365
  8
0
 10
193.538879982591
 20
70.090333093884851
 30
0.0
  0
VERTEX
  5
2366
  8
0
 10
193.51969006763181
 20
70.384562287496919
 30
0.0
  0
VERTEX
  5
2367
  8
0
 10
193.49733027723249
 20
70.678272805185031
 30
0.0
  0
VERTEX
  5
2368
  8
0
 10
193.4718027670296
 20
70.97150308204175
 30
0.0
  0
VERTEX
  5
2369
  8
0
 10
193.45784344516861
 20
71.118025903601264
 30
0.0
  0
VERTEX
  5
236A
  8
0
 10
193.4430871959392
 20
71.264476349284223
 30
0.0
  0
VERTEX
  5
236B
  8
0
 10
193.4111865601437
 20
71.557111002716155
 30
0.0
  0
VERTEX
  5
236C
  8
0
 10
193.37610769123739
 20
71.84930884405577
 30
0.0
  0
VERTEX
  5
236D
  8
0
 10
193.33785985471999
 20
72.140971743099158
 30
0.0
  0
VERTEX
  5
236E
  8
0
 10
193.2964546983257
 20
72.43200167008456
 30
0.0
  0
VERTEX
  5
236F
  8
0
 10
193.25190619581741
 20
72.722300708809485
 30
0.0
  0
VERTEX
  5
2370
  8
0
 10
193.22845817795371
 20
72.867145575963363
 30
0.0
  0
VERTEX
  5
2371
  8
0
 10
193.20423058726959
 20
73.011771049364484
 30
0.0
  0
VERTEX
  5
2372
  8
0
 10
193.15344631692381
 20
73.300314959125217
 30
0.0
  0
VERTEX
  5
2373
  8
0
 10
193.0995739697899
 20
73.587834730403301
 30
0.0
  0
VERTEX
  5
2374
  8
0
 10
193.0714867699898
 20
73.731180018740247
 30
0.0
  0
SEQEND
  5
2375
  8
0
  0
POLYLINE
  5
18BC
  8
0
 66
     1
 10
0.0
 20
0.0
 30
0.0
  0
VERTEX
  5
2376
  8
0
 10
193.07148676998969
 20
63.201657169665168
 30
0.0
  0
VERTEX
  5
2377
  8
0
 10
193.09829487686949
 20
63.338382284502927
 30
0.0
  0
VERTEX
  5
2378
  8
0
 10
193.15005277455009
 20
63.613881059680921
 30
0.0
  0
VERTEX
  5
2379
  8
0
 10
193.19927416597309
 20
63.89206603582619
 30
0.0
  0
VERTEX
  5
237A
  8
0
 10
193.2229117906401
 20
64.032148917542983
 30
0.0
  0
VERTEX
  5
237B
  8
0
 10
193.2458891113298
 20
64.172883038641999
 30
0.0
  0
VERTEX
  5
237C
  8
0
 10
193.289828309428
 20
64.456277947135163
 30
0.0
  0
VERTEX
  5
237D
  8
0
 10
193.33102309140261
 20
64.742196678453183
 30
0.0
  0
VERTEX
  5
237E
  8
0
 10
193.3694054119731
 20
65.030585170709742
 30
0.0
  0
VERTEX
  5
237F
  8
0
 10
193.4049078382522
 20
65.321389363463936
 30
0.0
  0
VERTEX
  5
2380
  8
0
 10
193.43746353611209
 20
65.614555175503369
 30
0.0
  0
VERTEX
  5
2381
  8
0
 10
193.45261563604021
 20
65.762006776544183
 30
0.0
  0
VERTEX
  5
2382
  8
0
 10
193.46700625412339
 20
65.910028479563721
 30
0.0
  0
VERTEX
  5
2383
  8
0
 10
193.49347030508369
 20
66.207755073594853
 30
0.0
  0
VERTEX
  5
2384
  8
0
 10
193.51677327651819
 20
66.507441419600525
 30
0.0
  0
VERTEX
  5
2385
  8
0
 10
193.53678646758269
 20
66.807851669194179
 30
0.0
  0
VERTEX
  5
2386
  8
0
 10
193.5534840972272
 20
67.108744402858292
 30
0.0
  0
VERTEX
  5
2387
  8
0
 10
193.56685538385111
 20
67.410033328517784
 30
0.0
  0
VERTEX
  5
2388
  8
0
 10
193.57229084942679
 20
67.560799395046502
 30
0.0
  0
VERTEX
  5
2389
  8
0
 10
193.57689163225149
 20
67.711632146750503
 30
0.0
  0
VERTEX
  5
238A
  8
0
 10
193.58358624574399
 20
68.01345455231268
 30
0.0
  0
VERTEX
  5
238B
  8
0
 10
193.58693473511789
 20
68.315414239173947
 30
0.0
  0
VERTEX
  5
238C
  8
0
 10
193.587353358098
 20
68.466418594203049
 30
0.0
  0
SEQEND
  5
238D
  8
0
  0
POLYLINE
  5
18BD
  8
0
 66
     1
 10
0.0
 20
0.0
 30
0.0
  0
VERTEX
  5
238E
  8
0
 10
190.41119006269059
 20
56.03859314760296
 30
0.0
  0
VERTEX
  5
238F
  8
0
 10
190.5074081720407
 20
56.1975340812279
 30
0.0
  0
VERTEX
  5
2390
  8
0
 10
190.6977210790821
 20
56.526300026912111
 30
0.0
  0
VERTEX
  5
2391
  8
0
 10
190.88456847997341
 20
56.86820866308102
 30
0.0
  0
VERTEX
  5
2392
  8
0
 10
190.97646324621439
 20
57.043581082617948
 30
0.0
  0
VERTEX
  5
2393
  8
0
 10
191.0672212493991
 20
57.221626670344449
 30
0.0
  0
VERTEX
  5
2394
  8
0
 10
191.2449907462811
 20
57.58491672554976
 30
0.0
  0
VERTEX
  5
2395
  8
0
 10
191.41727363443371
 20
57.956513274326539
 30
0.0
  0
VERTEX
  5
2396
  8
0
 10
191.58424400055529
 20
58.336543779666783
 30
0.0
  0
VERTEX
  5
2397
  8
0
 10
191.7457815680776
 20
58.724639337091162
 30
0.0
  0
VERTEX
  5
2398
  8
0
 10
191.9015373044594
 20
59.119913409180469
 30
0.0
  0
VERTEX
  5
2399
  8
0
 10
191.97714468974189
 20
59.319966570998133
 30
0.0
  0
VERTEX
  5
239A
  8
0
 10
192.0511871617299
 20
59.521483327989927
 30
0.0
  0
VERTEX
  5
239B
  8
0
 10
192.19443423381671
 20
59.928464803193549
 30
0.0
  0
VERTEX
  5
239C
  8
0
 10
192.33101134191659
 20
60.339968800013082
 30
0.0
  0
VERTEX
  5
239D
  8
0
 10
192.46085857431879
 20
60.75567769368547
 30
0.0
  0
VERTEX
  5
239E
  8
0
 10
192.58523468463221
 20
61.179944972933697
 30
0.0
  0
VERTEX
  5
239F
  8
0
 10
192.70411895332529
 20
61.613629203975051
 30
0.0
  0
VERTEX
  5
23A0
  8
0
 10
192.7613818333682
 20
61.833915257256812
 30
0.0
  0
VERTEX
  5
23A1
  8
0
 10
192.81712861664931
 20
62.056450810645117
 30
0.0
  0
VERTEX
  5
23A2
  8
0
 10
192.92388609507211
 20
62.508131487939131
 30
0.0
  0
VERTEX
  5
23A3
  8
0
 10
193.0240191830041
 20
62.968394042984748
 30
0.0
  0
VERTEX
  5
23A4
  8
0
 10
193.07148676998969
 20
63.201657169665168
 30
0.0
  0
SEQEND
  5
23A5
  8
0
  0
POLYLINE
  5
18BE
  8
0
 66
     1
 10
0.0
 20
0.0
 30
0.0
  0
VERTEX
  5
23A6
  8
0
 10
187.7941091279786
 20
55.60714625324826
 30
0.0
  0
VERTEX
  5
23A7
  8
0
 10
187.79575664206831
 20
55.427762854970688
 30
0.0
  0
VERTEX
  5
23A8
  8
0
 10
187.809510703581
 20
55.085911899174711
 30
0.0
  0
VERTEX
  5
23A9
  8
0
 10
187.8244551669772
 20
54.898840823963383
 30
0.0
  0
VERTEX
  5
23AA
  8
0
 10
187.8297152630293
 20
54.847280975437883
 30
0.0
  0
VERTEX
  5
23AB
  8
0
 10
187.83542773578401
 20
54.796611234865281
 30
0.0
  0
VERTEX
  5
23AC
  8
0
 10
187.83845577535629
 20
54.771618043907097
 30
0.0
  0
VERTEX
  5
23AD
  8
0
 10
187.8415994754204
 20
54.74685712695571
 30
0.0
  0
VERTEX
  5
23AE
  8
0
 10
187.8482371521325
 20
54.69804612959831
 30
0.0
  0
VERTEX
  5
23AF
  8
0
 10
187.85534732209371
 20
54.6502062536916
 30
0.0
  0
VERTEX
  5
23B0
  8
0
 10
187.85908162568199
 20
54.6266592302565
 30
0.0
  0
VERTEX
  5
23B1
  8
0
 10
187.8629364858493
 20
54.603365474684573
 30
0.0
  0
VERTEX
  5
23B2
  8
0
 10
187.87101108663319
 20
54.557551722796291
 30
0.0
  0
VERTEX
  5
23B3
  8
0
 10
187.87957750868051
 20
54.512792872388097
 30
0.0
  0
VERTEX
  5
23B4
  8
0
 10
187.88404713121051
 20
54.490817727895433
 30
0.0
  0
VERTEX
  5
23B5
  8
0
 10
187.88864207557441
 20
54.469116730482938
 30
0.0
  0
VERTEX
  5
23B6
  8
0
 10
187.8982110486798
 20
54.426551024441892
 30
0.0
  0
VERTEX
  5
23B7
  8
0
 10
187.90829062571851
 20
54.385123388826003
 30
0.0
  0
VERTEX
  5
23B8
  8
0
 10
187.91888693956
 20
54.344861351495332
 30
0.0
  0
VERTEX
  5
23B9
  8
0
 10
187.93000605730231
 20
54.305792319020583
 30
0.0
  0
VERTEX
  5
23BA
  8
0
 10
187.941653979737
 20
54.267943561513903
 30
0.0
  0
VERTEX
  5
23BB
  8
0
 10
187.94767809980601
 20
54.24948526663519
 30
0.0
  0
VERTEX
  5
23BC
  8
0
 10
187.95383664129599
 20
54.231342197017341
 30
0.0
  0
VERTEX
  5
23BD
  8
0
 10
187.9665599105912
 20
54.196015175624353
 30
0.0
  0
VERTEX
  5
23BE
  8
0
 10
187.97982959166831
 20
54.16198926354744
 30
0.0
  0
VERTEX
  5
23BF
  8
0
 10
187.99365142609631
 20
54.129291027388142
 30
0.0
  0
VERTEX
  5
23C0
  8
0
 10
188.0080310960297
 20
54.097946818905022
 30
0.0
  0
VERTEX
  5
23C1
  8
0
 10
188.0229742284273
 20
54.067982760510688
 30
0.0
  0
VERTEX
  5
23C2
  8
0
 10
188.0306588399724
 20
54.053526380661083
 30
0.0
  0
VERTEX
  5
23C3
  8
0
 10
188.03848641074481
 20
54.039424713992297
 30
0.0
  0
VERTEX
  5
23C4
  8
0
 10
188.054573185305
 20
54.012298296703392
 30
0.0
  0
VERTEX
  5
23C5
  8
0
 10
188.0712399974077
 20
53.986628958160338
 30
0.0
  0
VERTEX
  5
23C6
  8
0
 10
188.08849218390341
 20
53.96244195908497
 30
0.0
  0
VERTEX
  5
23C7
  8
0
 10
188.1063349684774
 20
53.93976233770676
 30
0.0
  0
VERTEX
  5
23C8
  8
0
 10
188.12477345820449
 20
53.918614875734733
 30
0.0
  0
VERTEX
  5
23C9
  8
0
 10
188.1342176560685
 20
53.908623370340933
 30
0.0
  0
VERTEX
  5
23CA
  8
0
 10
188.14381264163211
 20
53.899024064584857
 30
0.0
  0
VERTEX
  5
23CB
  8
0
 10
188.1634573886457
 20
53.881014072521822
 30
0.0
  0
VERTEX
  5
23CC
  8
0
 10
188.1837124523629
 20
53.864608713437939
 30
0.0
  0
VERTEX
  5
23CD
  8
0
 10
188.204582473274
 20
53.849831418039628
 30
0.0
  0
VERTEX
  5
23CE
  8
0
 10
188.22607198582139
 20
53.836705208239749
 30
0.0
  0
VERTEX
  5
23CF
  8
0
 10
188.24818542756049
 20
53.825252675557977
 30
0.0
  0
VERTEX
  5
23D0
  8
0
 10
188.25947748497799
 20
53.82016097605301
 30
0.0
  0
VERTEX
  5
23D1
  8
0
 10
188.2709271509965
 20
53.815495964307722
 30
0.0
  0
VERTEX
  5
23D2
  8
0
 10
188.29430143812311
 20
53.807456760293547
 30
0.0
  0
VERTEX
  5
23D3
  8
0
 10
188.3183125176221
 20
53.801156285658408
 30
0.0
  0
VERTEX
  5
23D4
  8
0
 10
188.34296458460341
 20
53.79661530040201
 30
0.0
  0
VERTEX
  5
23D5
  8
0
 10
188.36826182268669
 20
53.793854110946107
 30
0.0
  0
VERTEX
  5
23D6
  8
0
 10
188.39420842814681
 20
53.792892585951279
 30
0.0
  0
VERTEX
  5
23D7
  8
0
 10
188.40740591668609
 20
53.793092127876569
 30
0.0
  0
VERTEX
  5
23D8
  8
0
 10
188.4207196886702
 20
53.79374433102555
 30
0.0
  0
VERTEX
  5
23D9
  8
0
 10
188.44769196311989
 20
53.79639693181619
 30
0.0
  0
VERTEX
  5
23DA
  8
0
 10
188.47511734625709
 20
53.800830545722079
 30
0.0
  0
VERTEX
  5
23DB
  8
0
 10
188.48899747088561
 20
53.80370891284511
 30
0.0
  0
VERTEX
  5
23DC
  8
0
 10
188.5029878764492
 20
53.807024893395919
 30
0.0
  0
VERTEX
  5
23DD
  8
0
 10
188.53129545906521
 20
53.814959242664088
 30
0.0
  0
VERTEX
  5
23DE
  8
0
 10
188.56003187734569
 20
53.824612399525513
 30
0.0
  0
VERTEX
  5
23DF
  8
0
 10
188.57455830184071
 20
53.830076780781333
 30
0.0
  0
VERTEX
  5
23E0
  8
0
 10
188.589188805182
 20
53.8359627062149
 30
0.0
  0
VERTEX
  5
23E1
  8
0
 10
188.61875782138711
 20
53.848988045964738
 30
0.0
  0
VERTEX
  5
23E2
  8
0
 10
188.64873042503021
 20
53.863665853951737
 30
0.0
  0
VERTEX
  5
23E3
  8
0
 10
188.67909805141551
 20
53.879973133795751
 30
0.0
  0
VERTEX
  5
23E4
  8
0
 10
188.7098520883078
 20
53.897886478890833
 30
0.0
  0
VERTEX
  5
23E5
  8
0
 10
188.74098389203431
 20
53.917382097792569
 30
0.0
  0
VERTEX
  5
23E6
  8
0
 10
188.7566887505827
 20
53.92771572686015
 30
0.0
  0
VERTEX
  5
23E7
  8
0
 10
188.7724848031383
 20
53.93843584286023
 30
0.0
  0
VERTEX
  5
23E8
  8
0
 10
188.80434616129861
 20
53.961023241353899
 30
0.0
  0
VERTEX
  5
23E9
  8
0
 10
188.83655931928331
 20
53.985119528214739
 30
0.0
  0
VERTEX
  5
23EA
  8
0
 10
188.86911565575369
 20
54.010699679801597
 30
0.0
  0
VERTEX
  5
23EB
  8
0
 10
188.90200658678381
 20
54.037738447921022
 30
0.0
  0
VERTEX
  5
23EC
  8
0
 10
188.9352235760083
 20
54.066210393560247
 30
0.0
  0
VERTEX
  5
23ED
  8
0
 10
188.95195168967101
 20
54.080975813904331
 30
0.0
  0
VERTEX
  5
23EE
  8
0
 10
188.96875813312209
 20
54.096089910530047
 30
0.0
  0
VERTEX
  5
23EF
  8
0
 10
189.00260171327849
 20
54.127351154119651
 30
0.0
  0
VERTEX
  5
23F0
  8
0
 10
189.036745685293
 20
54.159968016395851
 30
0.0
  0
VERTEX
  5
23F1
  8
0
 10
189.0711813628437
 20
54.19391415910377
 30
0.0
  0
VERTEX
  5
23F2
  8
0
 10
189.10590001191139
 20
54.229163028244891
 30
0.0
  0
VERTEX
  5
23F3
  8
0
 10
189.14089285744939
 20
54.265687869268589
 30
0.0
  0
VERTEX
  5
23F4
  8
0
 10
189.15848935199071
 20
54.284420367460989
 30
0.0
  0
VERTEX
  5
23F5
  8
0
 10
189.17615108949599
 20
54.303461742780797
 30
0.0
  0
VERTEX
  5
23F6
  8
0
 10
189.211665868685
 20
54.342457540471571
 30
0.0
  0
VERTEX
  5
23F7
  8
0
 10
189.24742833113049
 20
54.382648001003531
 30
0.0
  0
VERTEX
  5
23F8
  8
0
 10
189.28342959267869
 20
54.424005725644982
 30
0.0
  0
VERTEX
  5
23F9
  8
0
 10
189.3196607525322
 20
54.46650319347011
 30
0.0
  0
VERTEX
  5
23FA
  8
0
 10
189.35611289626681
 20
54.510112775985931
 30
0.0
  0
VERTEX
  5
23FB
  8
0
 10
189.37441904821659
 20
54.532325950383068
 30
0.0
  0
VERTEX
  5
23FC
  8
0
 10
189.39277709826749
 20
54.554806751077557
 30
0.0
  0
VERTEX
  5
23FD
  8
0
 10
189.4296444236187
 20
54.600557316194113
 30
0.0
  0
VERTEX
  5
23FE
  8
0
 10
189.4667059294863
 20
54.647336600722731
 30
0.0
  0
VERTEX
  5
23FF
  8
0
 10
189.5039526660361
 20
54.695116677520787
 30
0.0
  0
VERTEX
  5
2400
  8
0
 10
189.54137567692931
 20
54.743869573595497
 30
0.0
  0
VERTEX
  5
2401
  8
0
 10
189.578965999443
 20
54.793567279935132
 30
0.0
  0
VERTEX
  5
2402
  8
0
 10
189.59782110108611
 20
54.818761678091903
 30
0.0
  0
VERTEX
  5
2403
  8
0
 10
189.61671499733899
 20
54.844182210171567
 30
0.0
  0
VERTEX
  5
2404
  8
0
 10
189.65461553566789
 20
54.895688846252249
 30
0.0
  0
VERTEX
  5
2405
  8
0
 10
189.69265906566389
 20
54.94805983780185
 30
0.0
  0
VERTEX
  5
2406
  8
0
 10
189.7117316940716
 20
54.974560806722401
 30
0.0
  0
VERTEX
  5
2407
  8
0
 10
189.8268096926534
 20
55.13776472563233
 30
0.0
  0
VERTEX
  5
2408
  8
0
 10
190.0595026926805
 20
55.483386673787322
 30
0.0
  0
VERTEX
  5
2409
  8
0
 10
190.2939414374757
 20
55.849621570302439
 30
0.0
  0
VERTEX
  5
240A
  8
0
 10
190.41119006269059
 20
56.03859314760296
 30
0.0
  0
SEQEND
  5
240B
  8
0
  0
POLYLINE
  5
18BF
  8
0
 66
     1
 10
0.0
 20
0.0
 30
0.0
  0
VERTEX
  5
240C
  8
0
 10
187.80234459711301
 20
56.03859314760296
 30
0.0
  0
VERTEX
  5
240D
  8
0
 10
187.79987567963141
 20
55.965356000040629
 30
0.0
  0
VERTEX
  5
240E
  8
0
 10
187.79621908587981
 20
55.820348148367543
 30
0.0
  0
VERTEX
  5
240F
  8
0
 10
187.7943473183407
 20
55.677581630298327
 30
0.0
  0
VERTEX
  5
2410
  8
0
 10
187.7941091279786
 20
55.60714625324826
 30
0.0
  0
SEQEND
  5
2411
  8
0
  0
POLYLINE
  5
18C0
  8
0
 66
     1
 10
0.0
 20
0.0
 30
0.0
  0
VERTEX
  5
2412
  8
0
 10
188.6942244921394
 20
68.466418594203049
 30
0.0
  0
VERTEX
  5
2413
  8
0
 10
188.69278991010299
 20
68.04568931483567
 30
0.0
  0
VERTEX
  5
2414
  8
0
 10
188.68133747845329
 20
67.204386378874574
 30
0.0
  0
VERTEX
  5
2415
  8
0
 10
188.65860625721311
 20
66.364843186680787
 30
0.0
  0
VERTEX
  5
2416
  8
0
 10
188.64312358223521
 20
65.94631335935054
 30
0.0
  0
VERTEX
  5
2417
  8
0
 10
188.62498311603659
 20
65.528921678901156
 30
0.0
  0
VERTEX
  5
2418
  8
0
 10
188.58108961676891
 20
64.698808098535437
 30
0.0
  0
VERTEX
  5
2419
  8
0
 10
188.52838979115791
 20
63.885360975735352
 30
0.0
  0
VERTEX
  5
241A
  8
0
 10
188.4685069013147
 20
63.094105841016471
 30
0.0
  0
VERTEX
  5
241B
  8
0
 10
188.40296676714919
 20
62.326347950209602
 30
0.0
  0
VERTEX
  5
241C
  8
0
 10
188.3333774643678
 20
61.583395148732897
 30
0.0
  0
VERTEX
  5
241D
  8
0
 10
188.2975852339961
 20
61.2216294717511
 30
0.0
  0
VERTEX
  5
241E
  8
0
 10
188.26141246719129
 20
60.866555404540918
 30
0.0
  0
VERTEX
  5
241F
  8
0
 10
188.1887941907508
 20
60.17713380377819
 30
0.0
  0
VERTEX
  5
2420
  8
0
 10
188.1172780800697
 20
59.516429393238688
 30
0.0
  0
VERTEX
  5
2421
  8
0
 10
188.0486387145483
 20
58.885743136113433
 30
0.0
  0
VERTEX
  5
2422
  8
0
 10
187.9848031312701
 20
58.287782565804768
 30
0.0
  0
VERTEX
  5
2423
  8
0
 10
187.9275803530229
 20
57.724521076586313
 30
0.0
  0
VERTEX
  5
2424
  8
0
 10
187.90196045962631
 20
57.456165659015078
 30
0.0
  0
VERTEX
  5
2425
  8
0
 10
187.8786002595694
 20
57.196801335722171
 30
0.0
  0
VERTEX
  5
2426
  8
0
 10
187.83943108643149
 20
56.705471376620721
 30
0.0
  0
VERTEX
  5
2427
  8
0
 10
187.81157650057551
 20
56.251390600273218
 30
0.0
  0
VERTEX
  5
2428
  8
0
 10
187.80234459711301
 20
56.03859314760296
 30
0.0
  0
SEQEND
  5
2429
  8
0
  0
POLYLINE
  5
18C1
  8
0
 66
     1
 10
0.0
 20
0.0
 30
0.0
  0
VERTEX
  5
242A
  8
0
 10
187.7941091279786
 20
81.316504145012118
 30
0.0
  0
VERTEX
  5
242B
  8
0
 10
187.7941894768708
 20
81.277373911899375
 30
0.0
  0
VERTEX
  5
242C
  8
0
 10
187.79482380944
 20
81.198166163460371
 30
0.0
  0
VERTEX
  5
242D
  8
0
 10
187.79607101246361
 20
81.117728387267917
 30
0.0
  0
VERTEX
  5
242E
  8
0
 10
187.79691751712099
 20
81.07706059202161
 30
0.0
  0
VERTEX
  5
242F
  8
0
 10
187.79790896658659
 20
81.036100103282806
 30
0.0
  0
VERTEX
  5
2430
  8
0
 10
187.80031583044411
 20
80.953320760794668
 30
0.0
  0
VERTEX
  5
2431
  8
0
 10
187.80327003131171
 20
80.869429779618017
 30
0.0
  0
VERTEX
  5
2432
  8
0
 10
187.80675025735309
 20
80.784466586065264
 30
0.0
  0
VERTEX
  5
2433
  8
0
 10
187.8107354514367
 20
80.698470644038935
 30
0.0
  0
VERTEX
  5
2434
  8
0
 10
187.81520480647421
 20
80.611481481590815
 30
0.0
  0
VERTEX
  5
2435
  8
0
 10
187.81761460968909
 20
80.567626818349595
 30
0.0
  0
VERTEX
  5
2436
  8
0
 10
187.8201377622143
 20
80.523538713284438
 30
0.0
  0
VERTEX
  5
2437
  8
0
 10
187.8255140034131
 20
80.434682058690214
 30
0.0
  0
VERTEX
  5
2438
  8
0
 10
187.83131345929269
 20
80.344951357325158
 30
0.0
  0
VERTEX
  5
2439
  8
0
 10
187.8546743180508
 20
80.024411759271061
 30
0.0
  0
VERTEX
  5
243A
  8
0
 10
187.87811733023
 20
79.741592613217335
 30
0.0
  0
VERTEX
  5
243B
  8
0
 10
187.90426902273671
 20
79.451897230800625
 30
0.0
  0
VERTEX
  5
243C
  8
0
 10
187.96307134180159
 20
78.854631862835959
 30
0.0
  0
VERTEX
  5
243D
  8
0
 10
188.02804093934361
 20
78.238002019941973
 30
0.0
  0
VERTEX
  5
243E
  8
0
 10
188.09778791404801
 20
77.595206784586523
 30
0.0
  0
VERTEX
  5
243F
  8
0
 10
188.1710568365728
 20
76.92070919908906
 30
0.0
  0
VERTEX
  5
2440
  8
0
 10
188.2459202666216
 20
76.215664318956328
 30
0.0
  0
VERTEX
  5
2441
  8
0
 10
188.28335392607099
 20
75.852039772550938
 30
0.0
  0
VERTEX
  5
2442
  8
0
 10
188.3204746257984
 20
75.48119976739963
 30
0.0
  0
VERTEX
  5
2443
  8
0
 10
188.39284808494429
 20
74.718426708835921
 30
0.0
  0
VERTEX
  5
2444
  8
0
 10
188.46121123333239
 20
73.928447805506096
 30
0.0
  0
VERTEX
  5
2445
  8
0
 10
188.5237901601744
 20
73.112363624296094
 30
0.0
  0
VERTEX
  5
2446
  8
0
 10
188.57847777563279
 20
72.278058374427573
 30
0.0
  0
VERTEX
  5
2447
  8
0
 10
188.6234400348539
 20
71.436813698615822
 30
0.0
  0
VERTEX
  5
2448
  8
0
 10
188.64200179375459
 20
71.014247201362878
 30
0.0
  0
VERTEX
  5
2449
  8
0
 10
188.65783581431381
 20
70.590721316643226
 30
0.0
  0
VERTEX
  5
244A
  8
0
 10
188.6810638844203
 20
69.741802045389704
 30
0.0
  0
VERTEX
  5
244B
  8
0
 10
188.69275734275621
 20
68.891897674751974
 30
0.0
  0
VERTEX
  5
244C
  8
0
 10
188.6942244921394
 20
68.466418594203049
 30
0.0
  0
SEQEND
  5
244D
  8
0
  0
POLYLINE
  5
18C2
  8
0
 66
     1
 10
0.0
 20
0.0
 30
0.0
  0
VERTEX
  5
244E
  8
0
 10
187.79604619602341
 20
81.500775615915984
 30
0.0
  0
VERTEX
  5
244F
  8
0
 10
187.79544805918439
 20
81.470609277972073
 30
0.0
  0
VERTEX
  5
2450
  8
0
 10
187.79458665879559
 20
81.409614073012676
 30
0.0
  0
VERTEX
  5
2451
  8
0
 10
187.79416169147089
 20
81.347752931064861
 30
0.0
  0
VERTEX
  5
2452
  8
0
 10
187.7941091279786
 20
81.316504145012118
 30
0.0
  0
SEQEND
  5
2453
  8
0
  0
POLYLINE
  5
18C3
  8
0
 66
     1
 10
0.0
 20
0.0
 30
0.0
  0
VERTEX
  5
2454
  8
0
 10
190.01316328645541
 20
81.500775615915913
 30
0.0
  0
VERTEX
  5
2455
  8
0
 10
189.9967827973216
 20
81.523949215384164
 30
0.0
  0
VERTEX
  5
2456
  8
0
 10
189.9639761321738
 20
81.569769493130138
 30
0.0
  0
VERTEX
  5
2457
  8
0
 10
189.93111549803589
 20
81.614882335389552
 30
0.0
  0
VERTEX
  5
2458
  8
0
 10
189.9146675492035
 20
81.637171647208547
 30
0.0
  0
VERTEX
  5
2459
  8
0
 10
189.8982092365751
 20
81.659281918312217
 30
0.0
  0
VERTEX
  5
245A
  8
0
 10
189.86526569263819
 20
81.702962444066756
 30
0.0
  0
VERTEX
  5
245B
  8
0
 10
189.8322932109964
 20
81.745918137743729
 30
0.0
  0
VERTEX
  5
245C
  8
0
 10
189.79930013325739
 20
81.788143243722445
 30
0.0
  0
VERTEX
  5
245D
  8
0
 10
189.76629479496191
 20
81.829632021489374
 30
0.0
  0
VERTEX
  5
245E
  8
0
 10
189.73328552289081
 20
81.870378740895717
 30
0.0
  0
VERTEX
  5
245F
  8
0
 10
189.71678201080249
 20
81.890472039580914
 30
0.0
  0
VERTEX
  5
2460
  8
0
 10
189.70028063260389
 20
81.910377676845656
 30
0.0
  0
VERTEX
  5
2461
  8
0
 10
189.66728842623121
 20
81.949623103405983
 30
0.0
  0
VERTEX
  5
2462
  8
0
 10
189.63431719053889
 20
81.988109287333032
 30
0.0
  0
VERTEX
  5
2463
  8
0
 10
189.60137519528899
 20
82.025830481013713
 30
0.0
  0
VERTEX
  5
2464
  8
0
 10
189.56847069191321
 20
82.062780914819655
 30
0.0
  0
VERTEX
  5
2465
  8
0
 10
189.53561191251609
 20
82.098954788877734
 30
0.0
  0
VERTEX
  5
2466
  8
0
 10
189.51920223639041
 20
82.116748693115028
 30
0.0
  0
VERTEX
  5
2467
  8
0
 10
189.5028070692259
 20
82.134346264261922
 30
0.0
  0
VERTEX
  5
2468
  8
0
 10
189.47006435390529
 20
82.168949453615014
 30
0.0
  0
VERTEX
  5
2469
  8
0
 10
189.43739193823481
 20
82.202758411212756
 30
0.0
  0
VERTEX
  5
246A
  8
0
 10
189.42108464100659
 20
82.219363176536604
 30
0.0
  0
VERTEX
  5
246B
  8
0
 10
189.40479797417879
 20
82.235767122484162
 30
0.0
  0
VERTEX
  5
246C
  8
0
 10
189.37229059484071
 20
82.267969493008465
 30
0.0
  0
VERTEX
  5
246D
  8
0
 10
189.33988182123559
 20
82.299355598155216
 30
0.0
  0
VERTEX
  5
246E
  8
0
 10
189.32373039770721
 20
82.31472794135459
 30
0.0
  0
VERTEX
  5
246F
  8
0
 10
189.30761905489351
 20
82.329882661562351
 30
0.0
  0
VERTEX
  5
2470
  8
0
 10
189.2755207859289
 20
82.359537687251077
 30
0.0
  0
VERTEX
  5
2471
  8
0
 10
189.24359530513539
 20
82.388317588424357
 30
0.0
  0
VERTEX
  5
2472
  8
0
 10
189.21185080807871
 20
82.416219282368218
 30
0.0
  0
VERTEX
  5
2473
  8
0
 10
189.1802953923827
 20
82.443239685183016
 30
0.0
  0
VERTEX
  5
2474
  8
0
 10
189.14893705528641
 20
82.469375706067026
 30
0.0
  0
VERTEX
  5
2475
  8
0
 10
189.13333426236341
 20
82.482111104018145
 30
0.0
  0
VERTEX
  5
2476
  8
0
 10
189.11778369148141
 20
82.494624241169845
 30
0.0
  0
VERTEX
  5
2477
  8
0
 10
189.08684309123601
 20
82.518982167030572
 30
0.0
  0
VERTEX
  5
2478
  8
0
 10
189.05612293881151
 20
82.542446333623275
 30
0.0
  0
VERTEX
  5
2479
  8
0
 10
189.02563081117469
 20
82.565013557029204
 30
0.0
  0
VERTEX
  5
247A
  8
0
 10
188.99537417700529
 20
82.586680611762233
 30
0.0
  0
VERTEX
  5
247B
  8
0
 10
188.965360395998
 20
82.607444222773211
 30
0.0
  0
VERTEX
  5
247C
  8
0
 10
188.95044684542779
 20
82.617486197843562
 30
0.0
  0
VERTEX
  5
247D
  8
0
 10
188.93559671845429
 20
82.627301057162057
 30
0.0
  0
VERTEX
  5
247E
  8
0
 10
188.90609028515871
 20
82.646247715628533
 30
0.0
  0
VERTEX
  5
247F
  8
0
 10
188.87684812752971
 20
82.664280723694105
 30
0.0
  0
VERTEX
  5
2480
  8
0
 10
188.84787716803351
 20
82.681396522729969
 30
0.0
  0
VERTEX
  5
2481
  8
0
 10
188.81918422084979
 20
82.697591460826573
 30
0.0
  0
VERTEX
  5
2482
  8
0
 10
188.7907759927692
 20
82.712861783542735
 30
0.0
  0
VERTEX
  5
2483
  8
0
 10
188.77668071517081
 20
82.720149010538819
 30
0.0
  0
VERTEX
  5
2484
  8
0
 10
188.7626590843085
 20
82.727203624573633
 30
0.0
  0
VERTEX
  5
2485
  8
0
 10
188.73483999101981
 20
82.740612996376683
 30
0.0
  0
VERTEX
  5
2486
  8
0
 10
188.70732510497291
 20
82.753085780798074
 30
0.0
  0
VERTEX
  5
2487
  8
0
 10
188.68013746958661
 20
82.764610868881505
 30
0.0
  0
VERTEX
  5
2488
  8
0
 10
188.65331169670179
 20
82.775174632450273
 30
0.0
  0
VERTEX
  5
2489
  8
0
 10
188.62685316963169
 20
82.784777038299922
 30
0.0
  0
VERTEX
  5
248A
  8
0
 10
188.61376309671741
 20
82.789217776248051
 30
0.0
  0
VERTEX
  5
248B
  8
0
 10
188.60076658304911
 20
82.793418219530224
 30
0.0
  0
VERTEX
  5
248C
  8
0
 10
188.57505646889069
 20
82.801098242751152
 30
0.0
  0
VERTEX
  5
248D
  8
0
 10
188.54972719621841
 20
82.807817106145237
 30
0.0
  0
VERTEX
  5
248E
  8
0
 10
188.52478297113831
 20
82.813574737597492
 30
0.0
  0
VERTEX
  5
248F
  8
0
 10
188.5002278367655
 20
82.818370992907717
 30
0.0
  0
VERTEX
  5
2490
  8
0
 10
188.47606567322919
 20
82.822205654097488
 30
0.0
  0
VERTEX
  5
2491
  8
0
 10
188.46413312350651
 20
82.823762298212614
 30
0.0
  0
VERTEX
  5
2492
  8
0
 10
188.45230019770671
 20
82.82507842782411
 30
0.0
  0
VERTEX
  5
2493
  8
0
 10
188.42893496447931
 20
82.826988943910024
 30
0.0
  0
VERTEX
  5
2494
  8
0
 10
188.40597336500161
 20
82.827936753998983
 30
0.0
  0
VERTEX
  5
2495
  8
0
 10
188.39464494324349
 20
82.828049482505435
 30
0.0
  0
VERTEX
  5
2496
  8
0
 10
188.38341862797481
 20
82.827921330344793
 30
0.0
  0
VERTEX
  5
2497
  8
0
 10
188.36127381941901
 20
82.826942064738546
 30
0.0
  0
VERTEX
  5
2498
  8
0
 10
188.339541842735
 20
82.824998267580213
 30
0.0
  0
VERTEX
  5
2499
  8
0
 10
188.3288315292032
 20
82.823664431717944
 30
0.0
  0
VERTEX
  5
249A
  8
0
 10
188.31822543875049
 20
82.82208916709601
 30
0.0
  0
VERTEX
  5
249B
  8
0
 10
188.29732718574439
 20
82.818213908704706
 30
0.0
  0
VERTEX
  5
249C
  8
0
 10
188.2768494994443
 20
82.813371554530818
 30
0.0
  0
VERTEX
  5
249D
  8
0
 10
188.25679463299221
 20
82.807561083064911
 30
0.0
  0
VERTEX
  5
249E
  8
0
 10
188.23716895204771
 20
82.800782988468995
 30
0.0
  0
VERTEX
  5
249F
  8
0
 10
188.21799759765591
 20
82.793046911264824
 30
0.0
  0
VERTEX
  5
24A0
  8
0
 10
188.2085835488104
 20
82.788821157126378
 30
0.0
  0
VERTEX
  5
24A1
  8
0
 10
188.19928379678419
 20
82.784357478530467
 30
0.0
  0
VERTEX
  5
24A2
  8
0
 10
188.18102676897999
 20
82.774717959107534
 30
0.0
  0
VERTEX
  5
24A3
  8
0
 10
188.1632256061589
 20
82.764131501230224
 30
0.0
  0
VERTEX
  5
24A4
  8
0
 10
188.1458792730399
 20
82.752601139694207
 30
0.0
  0
VERTEX
  5
24A5
  8
0
 10
188.12898660737611
 20
82.740129803123395
 30
0.0
  0
VERTEX
  5
24A6
  8
0
 10
188.11254632000319
 20
82.726720321299226
 30
0.0
  0
VERTEX
  5
24A7
  8
0
 10
188.10449538058299
 20
82.719664635007916
 30
0.0
  0
VERTEX
  5
24A8
  8
0
 10
188.09655699472549
 20
82.712375432521071
 30
0.0
  0
VERTEX
  5
24A9
  8
0
 10
188.08101708806041
 20
82.697097790961777
 30
0.0
  0
VERTEX
  5
24AA
  8
0
 10
188.06592492886611
 20
82.680889973986496
 30
0.0
  0
VERTEX
  5
24AB
  8
0
 10
188.05127871787101
 20
82.663754489401569
 30
0.0
  0
VERTEX
  5
24AC
  8
0
 10
188.03707652712859
 20
82.645693782599906
 30
0.0
  0
VERTEX
  5
24AD
  8
0
 10
188.0233162994212
 20
82.626710243572504
 30
0.0
  0
VERTEX
  5
24AE
  8
0
 10
188.01660124332301
 20
82.616873145386137
 30
0.0
  0
VERTEX
  5
24AF
  8
0
 10
188.00999584763119
 20
82.606806213754794
 30
0.0
  0
VERTEX
  5
24B0
  8
0
 10
187.99711285410439
 20
82.585983992677143
 30
0.0
  0
VERTEX
  5
24B1
  8
0
 10
187.98466487002349
 20
82.564245844392417
 30
0.0
  0
VERTEX
  5
24B2
  8
0
 10
187.97264931481391
 20
82.541594003651596
 30
0.0
  0
VERTEX
  5
24B3
  8
0
 10
187.9610634756001
 20
82.518030681803168
 30
0.0
  0
VERTEX
  5
24B4
  8
0
 10
187.94990450673029
 20
82.493558072390385
 30
0.0
  0
VERTEX
  5
24B5
  8
0
 10
187.94448417300481
 20
82.480981466765726
 30
0.0
  0
VERTEX
  5
24B6
  8
0
 10
187.9391694293887
 20
82.46817835642463
 30
0.0
  0
VERTEX
  5
24B7
  8
0
 10
187.92886424654949
 20
82.441917824176855
 30
0.0
  0
VERTEX
  5
24B8
  8
0
 10
187.91899403494099
 20
82.414808024787362
 30
0.0
  0
VERTEX
  5
24B9
  8
0
 10
187.90955274839069
 20
82.386855067714578
 30
0.0
  0
VERTEX
  5
24BA
  8
0
 10
187.9005343196711
 20
82.358064910254029
 30
0.0
  0
VERTEX
  5
24BB
  8
0
 10
187.8919326667469
 20
82.328443387689603
 30
0.0
  0
VERTEX
  5
24BC
  8
0
 10
187.88778622628061
 20
82.313322657711126
 30
0.0
  0
VERTEX
  5
24BD
  8
0
 10
187.8837416917807
 20
82.297996225672819
 30
0.0
  0
VERTEX
  5
24BE
  8
0
 10
187.87595528003479
 20
82.266729052223425
 30
0.0
  0
VERTEX
  5
24BF
  8
0
 10
187.86856729870391
 20
82.234647409316366
 30
0.0
  0
VERTEX
  5
24C0
  8
0
 10
187.86502079770599
 20
82.218302872907188
 30
0.0
  0
VERTEX
  5
24C1
  8
0
 10
187.8615715957111
 20
82.201756764024651
 30
0.0
  0
VERTEX
  5
24C2
  8
0
 10
187.8549619984982
 20
82.168062519191608
 30
0.0
  0
VERTEX
  5
24C3
  8
0
 10
187.84873231283771
 20
82.133570023608627
 30
0.0
  0
VERTEX
  5
24C4
  8
0
 10
187.84575799493669
 20
82.116026090892305
 30
0.0
  0
VERTEX
  5
24C5
  8
0
 10
187.84287632169401
 20
82.098284581678385
 30
0.0
  0
VERTEX
  5
24C6
  8
0
 10
187.83738778415491
 20
82.062211462546998
 30
0.0
  0
VERTEX
  5
24C7
  8
0
 10
187.8322604344564
 20
82.025355908690926
 30
0.0
  0
VERTEX
  5
24C8
  8
0
 10
187.82748798111851
 20
81.987723143950291
 30
0.0
  0
VERTEX
  5
24C9
  8
0
 10
187.8230641062091
 20
81.949318380999046
 30
0.0
  0
VERTEX
  5
24CA
  8
0
 10
187.81898246474799
 20
81.910146828249935
 30
0.0
  0
VERTEX
  5
24CB
  8
0
 10
187.81706799124649
 20
81.890275133736054
 30
0.0
  0
VERTEX
  5
24CC
  8
0
 10
187.8152366842657
 20
81.870213696191399
 30
0.0
  0
VERTEX
  5
24CD
  8
0
 10
187.8118203645237
 20
81.829524203158826
 30
0.0
  0
VERTEX
  5
24CE
  8
0
 10
187.80872707740471
 20
81.788083580543116
 30
0.0
  0
VERTEX
  5
24CF
  8
0
 10
187.80595036697889
 20
81.745897077443075
 30
0.0
  0
VERTEX
  5
24D0
  8
0
 10
187.80348374974841
 20
81.702969964769295
 30
0.0
  0
VERTEX
  5
24D1
  8
0
 10
187.8013207150716
 20
81.659307538810765
 30
0.0
  0
VERTEX
  5
24D2
  8
0
 10
187.8003509993386
 20
81.637202246138017
 30
0.0
  0
VERTEX
  5
24D3
  8
0
 10
187.79945472576881
 20
81.614915124274447
 30
0.0
  0
VERTEX
  5
24D4
  8
0
 10
187.7978792189059
 20
81.569798076812845
 30
0.0
  0
VERTEX
  5
24D5
  8
0
 10
187.7965876067536
 20
81.523961785053757
 30
0.0
  0
VERTEX
  5
24D6
  8
0
 10
187.79604619602341
 20
81.500775615915913
 30
0.0
  0
SEQEND
  5
24D7
  8
0
  0
POLYLINE
  5
18C4
  8
0
 66
     1
 10
0.0
 20
0.0
 30
0.0
  0
VERTEX
  5
24D8
  8
0
 10
176.6437761226241
 20
68.466418594203049
 30
0.0
  0
VERTEX
  5
24D9
  8
0
 10
176.64049240682121
 20
68.908789216087314
 30
0.0
  0
VERTEX
  5
24DA
  8
0
 10
176.61421163510511
 20
69.791973498366019
 30
0.0
  0
VERTEX
  5
24DB
  8
0
 10
176.56139579717529
 20
70.673100145608373
 30
0.0
  0
VERTEX
  5
24DC
  8
0
 10
176.5248427795533
 20
71.11285917274347
 30
0.0
  0
VERTEX
  5
24DD
  8
0
 10
176.4814075429872
 20
71.551681533108876
 30
0.0
  0
VERTEX
  5
24DE
  8
0
 10
176.37346635838281
 20
72.425316673755162
 30
0.0
  0
VERTEX
  5
24DF
  8
0
 10
176.23660119313931
 20
73.291608393900901
 30
0.0
  0
VERTEX
  5
24E0
  8
0
 10
176.06962915388141
 20
74.148144442080138
 30
0.0
  0
VERTEX
  5
24E1
  8
0
 10
175.87352337325689
 20
74.983129345100963
 30
0.0
  0
VERTEX
  5
24E2
  8
0
 10
175.65015559969089
 20
75.786479541449637
 30
0.0
  0
VERTEX
  5
24E3
  8
0
 10
175.52835055569881
 20
76.175797274640729
 30
0.0
  0
VERTEX
  5
24E4
  8
0
 10
175.39984848973731
 20
76.55661301639077
 30
0.0
  0
VERTEX
  5
24E5
  8
0
 10
175.12289954842461
 20
77.291947923662178
 30
0.0
  0
VERTEX
  5
24E6
  8
0
 10
174.81960112831399
 20
77.990905337652691
 30
0.0
  0
VERTEX
  5
24E7
  8
0
 10
174.4902511659329
 20
78.651910306426771
 30
0.0
  0
VERTEX
  5
24E8
  8
0
 10
174.135373100018
 20
79.273030478842202
 30
0.0
  0
VERTEX
  5
24E9
  8
0
 10
173.7574154076629
 20
79.849764009494379
 30
0.0
  0
VERTEX
  5
24EA
  8
0
 10
173.56022212320539
 20
80.120939536339549
 30
0.0
  0
VERTEX
  5
24EB
  8
0
 10
173.3577034733438
 20
80.380520205450225
 30
0.0
  0
VERTEX
  5
24EC
  8
0
 10
173.1148519711173
 20
80.668572240485219
 30
0.0
  0
VERTEX
  5
24ED
  8
0
 10
173.04418778173991
 20
80.747924944351325
 30
0.0
  0
VERTEX
  5
24EE
  8
0
 10
172.9729631547973
 20
80.825960150844196
 30
0.0
  0
VERTEX
  5
24EF
  8
0
 10
172.93714196050331
 20
80.864482419072203
 30
0.0
  0
VERTEX
  5
24F0
  8
0
 10
172.9011821938152
 20
80.902673777466248
 30
0.0
  0
VERTEX
  5
24F1
  8
0
 10
172.82884897814921
 20
80.978061681707516
 30
0.0
  0
VERTEX
  5
24F2
  8
0
 10
172.75596756032729
 20
81.052119655127839
 30
0.0
  0
VERTEX
  5
24F3
  8
0
 10
172.6825419635162
 20
81.124843416989847
 30
0.0
  0
VERTEX
  5
24F4
  8
0
 10
172.60857617915551
 20
81.196228607425553
 30
0.0
  0
VERTEX
  5
24F5
  8
0
 10
172.53407416481059
 20
81.266270780121616
 30
0.0
  0
VERTEX
  5
24F6
  8
0
 10
172.4966232984022
 20
81.300786819795448
 30
0.0
  0
VERTEX
  5
24F7
  8
0
 10
172.4590398422954
 20
81.334965394510391
 30
0.0
  0
VERTEX
  5
24F8
  8
0
 10
172.3834770961258
 20
81.402307807457703
 30
0.0
  0
VERTEX
  5
24F9
  8
0
 10
172.30738977236271
 20
81.468293264441755
 30
0.0
  0
VERTEX
  5
24FA
  8
0
 10
172.26915058507981
 20
81.500775615915913
 30
0.0
  0
SEQEND
  5
24FB
  8
0
  0
POLYLINE
  5
18C5
  8
0
 66
     1
 10
0.0
 20
0.0
 30
0.0
  0
VERTEX
  5
24FC
  8
0
 10
172.90915817181451
 20
56.038593147603031
 30
0.0
  0
VERTEX
  5
24FD
  8
0
 10
172.94695178048539
 20
56.078856613728362
 30
0.0
  0
VERTEX
  5
24FE
  8
0
 10
173.02175591786011
 20
56.160126771148157
 30
0.0
  0
VERTEX
  5
24FF
  8
0
 10
173.095520789311
 20
56.242363073822787
 30
0.0
  0
VERTEX
  5
2500
  8
0
 10
173.13201528021779
 20
56.283834246701822
 30
0.0
  0
VERTEX
  5
2501
  8
0
 10
173.1682520729434
 20
56.32553582706435
 30
0.0
  0
VERTEX
  5
2502
  8
0
 10
173.23995531073029
 20
56.409615412991002
 30
0.0
  0
VERTEX
  5
2503
  8
0
 10
173.31063592384729
 20
56.494572262955607
 30
0.0
  0
VERTEX
  5
2504
  8
0
 10
173.55004089014989
 20
56.798403130373231
 30
0.0
  0
VERTEX
  5
2505
  8
0
 10
173.93208804672969
 20
57.339758928665283
 30
0.0
  0
VERTEX
  5
2506
  8
0
 10
174.11030981032491
 20
57.619034903259092
 30
0.0
  0
VERTEX
  5
2507
  8
0
 10
174.28065708656371
 20
57.90387617561953
 30
0.0
  0
VERTEX
  5
2508
  8
0
 10
174.598423818182
 20
58.488154327881603
 30
0.0
  0
VERTEX
  5
2509
  8
0
 10
174.8867158130565
 20
59.08838718165407
 30
0.0
  0
VERTEX
  5
250A
  8
0
 10
175.1504478115811
 20
59.709459658187882
 30
0.0
  0
VERTEX
  5
250B
  8
0
 10
175.39361135842481
 20
60.358443360875981
 30
0.0
  0
VERTEX
  5
250C
  8
0
 10
175.6159964434606
 20
61.034127469884652
 30
0.0
  0
VERTEX
  5
250D
  8
0
 10
175.71933483714099
 20
61.381600977131477
 30
0.0
  0
VERTEX
  5
250E
  8
0
 10
175.8174045302506
 20
61.735291200694171
 30
0.0
  0
VERTEX
  5
250F
  8
0
 10
175.99763785920379
 20
62.46070718824302
 30
0.0
  0
VERTEX
  5
2510
  8
0
 10
176.15648495659391
 20
63.209144714390902
 30
0.0
  0
VERTEX
  5
2511
  8
0
 10
176.29370276149169
 20
63.979372660541912
 30
0.0
  0
VERTEX
  5
2512
  8
0
 10
176.40899553759411
 20
64.77016192684539
 30
0.0
  0
VERTEX
  5
2513
  8
0
 10
176.50198688798909
 20
65.580250141899569
 30
0.0
  0
VERTEX
  5
2514
  8
0
 10
176.53980448436451
 20
65.99012461268569
 30
0.0
  0
VERTEX
  5
2515
  8
0
 10
176.57169450067531
 20
66.401176954665971
 30
0.0
  0
VERTEX
  5
2516
  8
0
 10
176.61789456662299
 20
67.225936530679633
 30
0.0
  0
VERTEX
  5
2517
  8
0
 10
176.64090511835801
 20
68.052771761582449
 30
0.0
  0
VERTEX
  5
2518
  8
0
 10
176.6437761226241
 20
68.466418594203049
 30
0.0
  0
SEQEND
  5
2519
  8
0
  0
POLYLINE
  5
18C6
  8
0
 66
     1
 10
0.0
 20
0.0
 30
0.0
  0
VERTEX
  5
251A
  8
0
 10
164.39248632587299
 20
56.038593147603031
 30
0.0
  0
VERTEX
  5
251B
  8
0
 10
164.5865435969653
 20
55.837596440125793
 30
0.0
  0
VERTEX
  5
251C
  8
0
 10
164.99138289384271
 20
55.449082487755838
 30
0.0
  0
VERTEX
  5
251D
  8
0
 10
165.41780530835109
 20
55.084571218573387
 30
0.0
  0
VERTEX
  5
251E
  8
0
 10
165.6388368243089
 20
54.913579177404273
 30
0.0
  0
VERTEX
  5
251F
  8
0
 10
165.67617084508149
 20
54.885903323299829
 30
0.0
  0
VERTEX
  5
2520
  8
0
 10
165.7512588340862
 20
54.831294477316881
 30
0.0
  0
VERTEX
  5
2521
  8
0
 10
165.82690456108051
 20
54.777702985348697
 30
0.0
  0
VERTEX
  5
2522
  8
0
 10
165.86493645289531
 20
54.75129835519536
 30
0.0
  0
VERTEX
  5
2523
  8
0
 10
165.90310698448269
 20
54.725160060976769
 30
0.0
  0
VERTEX
  5
2524
  8
0
 10
165.979861622182
 20
54.673699366442349
 30
0.0
  0
VERTEX
  5
2525
  8
0
 10
166.0571637206115
 20
54.623354647329158
 30
0.0
  0
VERTEX
  5
2526
  8
0
 10
166.13500842122571
 20
54.574159597501932
 30
0.0
  0
VERTEX
  5
2527
  8
0
 10
166.2133907573911
 20
54.52614784513198
 30
0.0
  0
VERTEX
  5
2528
  8
0
 10
166.29230565226331
 20
54.479352937485032
 30
0.0
  0
VERTEX
  5
2529
  8
0
 10
166.33196119231249
 20
54.456422257808583
 30
0.0
  0
VERTEX
  5
252A
  8
0
 10
166.37174791787959
 20
54.433808324477013
 30
0.0
  0
VERTEX
  5
252B
  8
0
 10
166.45171225571619
 20
54.389547341032021
 30
0.0
  0
VERTEX
  5
252C
  8
0
 10
166.53219325897709
 20
54.346603188311768
 30
0.0
  0
VERTEX
  5
252D
  8
0
 10
166.61318541690241
 20
54.305008913925803
 30
0.0
  0
VERTEX
  5
252E
  8
0
 10
166.69468312139051
 20
54.264797391280688
 30
0.0
  0
VERTEX
  5
252F
  8
0
 10
166.77668067623671
 20
54.226001298278099
 30
0.0
  0
VERTEX
  5
2530
  8
0
 10
166.81786509631601
 20
54.207144190945371
 30
0.0
  0
VERTEX
  5
2531
  8
0
 10
166.85917230928689
 20
54.188653095632361
 30
0.0
  0
VERTEX
  5
2532
  8
0
 10
166.9421521877874
 20
54.152785005141482
 30
0.0
  0
VERTEX
  5
2533
  8
0
 10
167.02561443718889
 20
54.118428988313838
 30
0.0
  0
VERTEX
  5
2534
  8
0
 10
167.10955316361719
 20
54.085616725820593
 30
0.0
  0
VERTEX
  5
2535
  8
0
 10
167.19396249116789
 20
54.054379594356192
 30
0.0
  0
VERTEX
  5
2536
  8
0
 10
167.27883666407811
 20
54.024748626203937
 30
0.0
  0
VERTEX
  5
2537
  8
0
 10
167.3214462371744
 20
54.010545079183373
 30
0.0
  0
VERTEX
  5
2538
  8
0
 10
167.36416978419149
 20
53.996754597586857
 30
0.0
  0
VERTEX
  5
2539
  8
0
 10
167.4499556255499
 20
53.970428060963002
 30
0.0
  0
VERTEX
  5
253A
  8
0
 10
167.53618764036739
 20
53.945799300787478
 30
0.0
  0
VERTEX
  5
253B
  8
0
 10
167.6228589745977
 20
53.922898287154453
 30
0.0
  0
VERTEX
  5
253C
  8
0
 10
167.70996249005731
 20
53.901754629514357
 30
0.0
  0
VERTEX
  5
253D
  8
0
 10
167.79749079345709
 20
53.882397531452078
 30
0.0
  0
VERTEX
  5
253E
  8
0
 10
167.84141186922361
 20
53.873397946742699
 30
0.0
  0
VERTEX
  5
253F
  8
0
 10
167.88543627254239
 20
53.864855747620709
 30
0.0
  0
VERTEX
  5
2540
  8
0
 10
167.97379113935091
 20
53.849157544010097
 30
0.0
  0
VERTEX
  5
2541
  8
0
 10
168.06254748038441
 20
53.835330662780223
 30
0.0
  0
VERTEX
  5
2542
  8
0
 10
168.1516973132519
 20
53.823402292899338
 30
0.0
  0
VERTEX
  5
2543
  8
0
 10
168.24123264909181
 20
53.813399047786838
 30
0.0
  0
VERTEX
  5
2544
  8
0
 10
168.3311455598203
 20
53.805346951070867
 30
0.0
  0
VERTEX
  5
2545
  8
0
 10
168.3762411622524
 20
53.802060553004189
 30
0.0
  0
VERTEX
  5
2546
  8
0
 10
168.42142824901501
 20
53.799271431423449
 30
0.0
  0
VERTEX
  5
2547
  8
0
 10
168.51207312501151
 20
53.795197327233609
 30
0.0
  0
VERTEX
  5
2548
  8
0
 10
168.6030728746112
 20
53.793148901630722
 30
0.0
  0
VERTEX
  5
2549
  8
0
 10
168.64870363569321
 20
53.792891749311217
 30
0.0
  0
VERTEX
  5
254A
  8
0
 10
168.69433486876869
 20
53.793148901630722
 30
0.0
  0
VERTEX
  5
254B
  8
0
 10
168.7853383782853
 20
53.79519732723363
 30
0.0
  0
VERTEX
  5
254C
  8
0
 10
168.8759907329335
 20
53.799271431423449
 30
0.0
  0
VERTEX
  5
254D
  8
0
 10
168.92118294000019
 20
53.802060553004189
 30
0.0
  0
VERTEX
  5
254E
  8
0
 10
168.9662845760993
 20
53.805346951070867
 30
0.0
  0
VERTEX
  5
254F
  8
0
 10
169.05621227217401
 20
53.813399047786838
 30
0.0
  0
VERTEX
  5
2550
  8
0
 10
169.1457659802102
 20
53.823402292899338
 30
0.0
  0
VERTEX
  5
2551
  8
0
 10
169.23493772698669
 20
53.835330662780223
 30
0.0
  0
VERTEX
  5
2552
  8
0
 10
169.32371947787661
 20
53.849157544010062
 30
0.0
  0
VERTEX
  5
2553
  8
0
 10
169.41210320409749
 20
53.86485574762073
 30
0.0
  0
VERTEX
  5
2554
  8
0
 10
169.45614331604099
 20
53.873397946742699
 30
0.0
  0
VERTEX
  5
2555
  8
0
 10
169.50008094514899
 20
53.882397531452078
 30
0.0
  0
VERTEX
  5
2556
  8
0
 10
169.58764486548469
 20
53.901754629514357
 30
0.0
  0
VERTEX
  5
2557
  8
0
 10
169.6747873047228
 20
53.922898287154453
 30
0.0
  0
VERTEX
  5
2558
  8
0
 10
169.7615008209516
 20
53.945799300787478
 30
0.0
  0
VERTEX
  5
2559
  8
0
 10
169.8477782269226
 20
53.970428060963002
 30
0.0
  0
VERTEX
  5
255A
  8
0
 10
169.93361261914029
 20
53.996754597586857
 30
0.0
  0
VERTEX
  5
255B
  8
0
 10
169.97636161093351
 20
54.010545079183373
 30
0.0
  0
VERTEX
  5
255C
  8
0
 10
170.01899740004529
 20
54.024748626203973
 30
0.0
  0
VERTEX
  5
255D
  8
0
 10
170.10392629364139
 20
54.054379594356163
 30
0.0
  0
VERTEX
  5
255E
  8
0
 10
170.18839335152771
 20
54.085616725820593
 30
0.0
  0
VERTEX
  5
255F
  8
0
 10
170.27239276740531
 20
54.118428988313802
 30
0.0
  0
VERTEX
  5
2560
  8
0
 10
170.35591861435501
 20
54.152785005141482
 30
0.0
  0
VERTEX
  5
2561
  8
0
 10
170.43896494705831
 20
54.188653095632333
 30
0.0
  0
VERTEX
  5
2562
  8
0
 10
170.4803064421871
 20
54.207144190945371
 30
0.0
  0
VERTEX
  5
2563
  8
0
 10
170.52152583911089
 20
54.226001298278099
 30
0.0
  0
VERTEX
  5
2564
  8
0
 10
170.60359540550749
 20
54.264797391280688
 30
0.0
  0
VERTEX
  5
2565
  8
0
 10
170.68516782146119
 20
54.305008913925803
 30
0.0
  0
VERTEX
  5
2566
  8
0
 10
170.7662373377712
 20
54.346603188311768
 30
0.0
  0
VERTEX
  5
2567
  8
0
 10
170.8467982929929
 20
54.389547341032021
 30
0.0
  0
VERTEX
  5
2568
  8
0
 10
170.926845122695
 20
54.433808324477013
 30
0.0
  0
VERTEX
  5
2569
  8
0
 10
170.96667402980071
 20
54.456422257808583
 30
0.0
  0
VERTEX
  5
256A
  8
0
 10
171.0063723660972
 20
54.479352937485032
 30
0.0
  0
VERTEX
  5
256B
  8
0
 10
171.0853746703954
 20
54.52614784513198
 30
0.0
  0
VERTEX
  5
256C
  8
0
 10
171.16384679306401
 20
54.574159597501932
 30
0.0
  0
VERTEX
  5
256D
  8
0
 10
171.24178360242661
 20
54.623354647329158
 30
0.0
  0
VERTEX
  5
256E
  8
0
 10
171.31918007675949
 20
54.673699366442349
 30
0.0
  0
VERTEX
  5
256F
  8
0
 10
171.3960313021793
 20
54.725160060976769
 30
0.0
  0
VERTEX
  5
2570
  8
0
 10
171.43425093969941
 20
54.75129835519536
 30
0.0
  0
VERTEX
  5
2571
  8
0
 10
171.47233246954099
 20
54.777702985348697
 30
0.0
  0
VERTEX
  5
2572
  8
0
 10
171.54807904115179
 20
54.831294477316881
 30
0.0
  0
VERTEX
  5
2573
  8
0
 10
171.62326992428979
 20
54.885903323299829
 30
0.0
  0
VERTEX
  5
2574
  8
0
 10
171.66065614406281
 20
54.913579177404273
 30
0.0
  0
VERTEX
  5
2575
  8
0
 10
171.8820109423788
 20
55.084571218573387
 30
0.0
  0
VERTEX
  5
2576
  8
0
 10
172.30912697632641
 20
55.449082487755838
 30
0.0
  0
VERTEX
  5
2577
  8
0
 10
172.7147122576705
 20
55.837596440125822
 30
0.0
  0
VERTEX
  5
2578
  8
0
 10
172.90915817181451
 20
56.038593147603031
 30
0.0
  0
SEQEND
  5
2579
  8
0
  0
POLYLINE
  5
18C7
  8
0
 66
     1
 10
0.0
 20
0.0
 30
0.0
  0
VERTEX
  5
257A
  8
0
 10
160.66997721382361
 20
68.466418594203049
 30
0.0
  0
VERTEX
  5
257B
  8
0
 10
160.67297684300229
 20
68.042614470408068
 30
0.0
  0
VERTEX
  5
257C
  8
0
 10
160.69702455149991
 20
67.195412228749376
 30
0.0
  0
VERTEX
  5
257D
  8
0
 10
160.74532760975561
 20
66.350327964440226
 30
0.0
  0
VERTEX
  5
257E
  8
0
 10
160.77868221008481
 20
65.92917118785374
 30
0.0
  0
VERTEX
  5
257F
  8
0
 10
160.8182489844242
 20
65.509253306360392
 30
0.0
  0
VERTEX
  5
2580
  8
0
 10
160.91581602038829
 20
64.677790812263709
 30
0.0
  0
VERTEX
  5
2581
  8
0
 10
161.03689161531119
 20
63.866616976194727
 30
0.0
  0
VERTEX
  5
2582
  8
0
 10
161.181044110378
 20
63.077470020807709
 30
0.0
  0
VERTEX
  5
2583
  8
0
 10
161.3479689544574
 20
62.31167260490583
 30
0.0
  0
VERTEX
  5
2584
  8
0
 10
161.5374184833455
 20
61.57054956953499
 30
0.0
  0
VERTEX
  5
2585
  8
0
 10
161.64052227291469
 20
61.209654895263547
 30
0.0
  0
VERTEX
  5
2586
  8
0
 10
161.74917830090379
 20
60.855425209365883
 30
0.0
  0
VERTEX
  5
2587
  8
0
 10
161.98304755803861
 20
60.167619996338658
 30
0.0
  0
VERTEX
  5
2588
  8
0
 10
162.23882336182641
 20
59.508447105874382
 30
0.0
  0
VERTEX
  5
2589
  8
0
 10
162.51627297332089
 20
58.879244889975553
 30
0.0
  0
VERTEX
  5
258A
  8
0
 10
162.81434830041729
 20
58.282819535788121
 30
0.0
  0
VERTEX
  5
258B
  8
0
 10
163.1321728902029
 20
57.720936809964137
 30
0.0
  0
VERTEX
  5
258C
  8
0
 10
163.29833083210821
 20
57.453211918176578
 30
0.0
  0
VERTEX
  5
258D
  8
0
 10
163.46923100282831
 20
57.194438773940078
 30
0.0
  0
VERTEX
  5
258E
  8
0
 10
163.8249872593714
 20
56.704172780047308
 30
0.0
  0
VERTEX
  5
258F
  8
0
 10
164.1988954720791
 20
56.25099750315519
 30
0.0
  0
VERTEX
  5
2590
  8
0
 10
164.39248632587299
 20
56.03859314760296
 30
0.0
  0
SEQEND
  5
2591
  8
0
  0
POLYLINE
  5
18C8
  8
0
 66
     1
 10
0.0
 20
0.0
 30
0.0
  0
VERTEX
  5
2592
  8
0
 10
165.03129040808469
 20
81.500775615915913
 30
0.0
  0
VERTEX
  5
2593
  8
0
 10
164.98634059237619
 20
81.462479700578896
 30
0.0
  0
VERTEX
  5
2594
  8
0
 10
164.8973870203618
 20
81.384827895392505
 30
0.0
  0
VERTEX
  5
2595
  8
0
 10
164.80969032011049
 20
81.305798607388283
 30
0.0
  0
VERTEX
  5
2596
  8
0
 10
164.766311646497
 20
81.265780779592134
 30
0.0
  0
VERTEX
  5
2597
  8
0
 10
164.7232452365551
 20
81.225434602251255
 30
0.0
  0
VERTEX
  5
2598
  8
0
 10
164.63804671762441
 20
81.143778459765244
 30
0.0
  0
VERTEX
  5
2599
  8
0
 10
164.55408989088261
 20
81.060872632748385
 30
0.0
  0
VERTEX
  5
259A
  8
0
 10
164.47137003795211
 20
80.976759499266052
 30
0.0
  0
VERTEX
  5
259B
  8
0
 10
164.3898825674529
 20
80.891481408487721
 30
0.0
  0
VERTEX
  5
259C
  8
0
 10
164.30962298708951
 20
80.805080720579952
 30
0.0
  0
VERTEX
  5
259D
  8
0
 10
164.2699522720124
 20
80.761472651817726
 30
0.0
  0
VERTEX
  5
259E
  8
0
 10
164.23058687542479
 20
80.717599841037099
 30
0.0
  0
VERTEX
  5
259F
  8
0
 10
164.15276985379259
 20
80.629081249852334
 30
0.0
  0
VERTEX
  5
25A0
  8
0
 10
164.07616755872161
 20
80.539567525924326
 30
0.0
  0
VERTEX
  5
25A1
  8
0
 10
164.00077561517341
 20
80.449101367081084
 30
0.0
  0
VERTEX
  5
25A2
  8
0
 10
163.9265896108345
 20
80.357725606084159
 30
0.0
  0
VERTEX
  5
25A3
  8
0
 10
163.85360507164441
 20
80.265483222951787
 30
0.0
  0
VERTEX
  5
25A4
  8
0
 10
163.81755689079031
 20
80.21904398790997
 30
0.0
  0
VERTEX
  5
25A5
  8
0
 10
163.7817846349073
 20
80.172374287007585
 30
0.0
  0
VERTEX
  5
25A6
  8
0
 10
163.71105916749389
 20
80.078352054499774
 30
0.0
  0
VERTEX
  5
25A7
  8
0
 10
163.641418697944
 20
79.98344298690148
 30
0.0
  0
VERTEX
  5
25A8
  8
0
 10
163.60700273679609
 20
79.935664714033123
 30
0.0
  0
VERTEX
  5
25A9
  8
0
 10
163.40610324773189
 20
79.644684179801274
 30
0.0
  0
VERTEX
  5
25AA
  8
0
 10
163.0324277835081
 20
79.042950158531141
 30
0.0
  0
VERTEX
  5
25AB
  8
0
 10
162.6948783078125
 20
78.419808640011126
 30
0.0
  0
VERTEX
  5
25AC
  8
0
 10
162.38628832583811
 20
77.768684318292799
 30
0.0
  0
VERTEX
  5
25AD
  8
0
 10
162.1024296914461
 20
77.083544460300104
 30
0.0
  0
VERTEX
  5
25AE
  8
0
 10
161.84334345042819
 20
76.365593506218829
 30
0.0
  0
VERTEX
  5
25AF
  8
0
 10
161.72311667857269
 20
75.994680799662035
 30
0.0
  0
VERTEX
  5
25B0
  8
0
 10
161.6091219788988
 20
75.616002837219696
 30
0.0
  0
VERTEX
  5
25B1
  8
0
 10
161.39991637952619
 20
74.835924835641549
 30
0.0
  0
VERTEX
  5
25B2
  8
0
 10
161.2159500427623
 20
74.02650303480641
 30
0.0
  0
VERTEX
  5
25B3
  8
0
 10
161.0577866889457
 20
73.190330653846615
 30
0.0
  0
VERTEX
  5
25B4
  8
0
 10
160.92753354556561
 20
72.341945162547404
 30
0.0
  0
VERTEX
  5
25B5
  8
0
 10
160.82473847137871
 20
71.486588986998186
 30
0.0
  0
VERTEX
  5
25B6
  8
0
 10
160.78335376069799
 20
71.056982326898435
 30
0.0
  0
VERTEX
  5
25B7
  8
0
 10
160.74851588060321
 20
70.626455490207775
 30
0.0
  0
VERTEX
  5
25B8
  8
0
 10
160.69815942812971
 20
69.763739086518399
 30
0.0
  0
VERTEX
  5
25B9
  8
0
 10
160.67310778833109
 20
68.899371282524214
 30
0.0
  0
VERTEX
  5
25BA
  8
0
 10
160.66997721382361
 20
68.466418594203049
 30
0.0
  0
SEQEND
  5
25BB
  8
0
  0
POLYLINE
  5
18C9
  8
0
 66
     1
 10
0.0
 20
0.0
 30
0.0
  0
VERTEX
  5
25BC
  8
0
 10
172.26915058507981
 20
81.500775615915913
 30
0.0
  0
VERTEX
  5
25BD
  8
0
 10
172.24149532149841
 20
81.523958478413519
 30
0.0
  0
VERTEX
  5
25BE
  8
0
 10
172.1857776158125
 20
81.569790074274223
 30
0.0
  0
VERTEX
  5
25BF
  8
0
 10
172.1295194478196
 20
81.614904907105256
 30
0.0
  0
VERTEX
  5
25C0
  8
0
 10
172.10118861518629
 20
81.637191823667806
 30
0.0
  0
VERTEX
  5
25C1
  8
0
 10
172.07272378098509
 20
81.659297497054581
 30
0.0
  0
VERTEX
  5
25C2
  8
0
 10
172.01539361214279
 20
81.702962395993836
 30
0.0
  0
VERTEX
  5
25C3
  8
0
 10
171.95753196708301
 20
81.745894185277393
 30
0.0
  0
VERTEX
  5
25C4
  8
0
 10
171.8991418960631
 20
81.788087472994732
 30
0.0
  0
VERTEX
  5
25C5
  8
0
 10
171.84022646927289
 20
81.829536890702911
 30
0.0
  0
VERTEX
  5
25C6
  8
0
 10
171.7807887722908
 20
81.870237089625221
 30
0.0
  0
VERTEX
  5
25C7
  8
0
 10
171.75087503981621
 20
81.890304564868174
 30
0.0
  0
VERTEX
  5
25C8
  8
0
 10
171.7208319015671
 20
81.910182736304805
 30
0.0
  0
VERTEX
  5
25C9
  8
0
 10
171.66035895997359
 20
81.949368507703639
 30
0.0
  0
VERTEX
  5
25CA
  8
0
 10
171.59937305246271
 20
81.98778908573837
 30
0.0
  0
VERTEX
  5
25CB
  8
0
 10
171.53787728187791
 20
82.025439151249088
 30
0.0
  0
VERTEX
  5
25CC
  8
0
 10
171.4758747449639
 20
82.062313377396507
 30
0.0
  0
VERTEX
  5
25CD
  8
0
 10
171.41336852862091
 20
82.098406422487486
 30
0.0
  0
VERTEX
  5
25CE
  8
0
 10
171.38192750177211
 20
82.116158326901996
 30
0.0
  0
VERTEX
  5
25CF
  8
0
 10
171.35036170645489
 20
82.133712922231155
 30
0.0
  0
VERTEX
  5
25D0
  8
0
 10
171.28685733567249
 20
82.168227481430435
 30
0.0
  0
VERTEX
  5
25D1
  8
0
 10
171.22285845437241
 20
82.201944665116898
 30
0.0
  0
VERTEX
  5
25D2
  8
0
 10
171.19067451589291
 20
82.218502529535385
 30
0.0
  0
VERTEX
  5
25D3
  8
0
 10
171.1583680792848
 20
82.234858989140605
 30
0.0
  0
VERTEX
  5
25D4
  8
0
 10
171.0933892040118
 20
82.26696491022858
 30
0.0
  0
VERTEX
  5
25D5
  8
0
 10
171.02792479781979
 20
82.298256815530408
 30
0.0
  0
VERTEX
  5
25D6
  8
0
 10
170.99501144170949
 20
82.313595736536513
 30
0.0
  0
VERTEX
  5
25D7
  8
0
 10
170.96197780503809
 20
82.328729011671896
 30
0.0
  0
VERTEX
  5
25D8
  8
0
 10
170.8955511451106
 20
82.358375713341673
 30
0.0
  0
VERTEX
  5
25D9
  8
0
 10
170.82864771335471
 20
82.38719103143859
 30
0.0
  0
VERTEX
  5
25DA
  8
0
 10
170.76127038247151
 20
82.415168960812494
 30
0.0
  0
VERTEX
  5
25DB
  8
0
 10
170.69342836623289
 20
82.442300871908174
 30
0.0
  0
VERTEX
  5
25DC
  8
0
 10
170.62521478308699
 20
82.468546720771528
 30
0.0
  0
VERTEX
  5
25DD
  8
0
 10
170.59098156899671
 20
82.4813322781377
 30
0.0
  0
VERTEX
  5
25DE
  8
0
 10
170.5566653100023
 20
82.49389251138723
 30
0.0
  0
VERTEX
  5
25DF
  8
0
 10
170.487787374866
 20
82.518335764129006
 30
0.0
  0
VERTEX
  5
25E0
  8
0
 10
170.41858842278279
 20
82.541873988166344
 30
0.0
  0
VERTEX
  5
25E1
  8
0
 10
170.34907591204399
 20
82.564504675849378
 30
0.0
  0
VERTEX
  5
25E2
  8
0
 10
170.27925731038459
 20
82.586225296743351
 30
0.0
  0
VERTEX
  5
25E3
  8
0
 10
170.2091400915632
 20
82.607033291334005
 30
0.0
  0
VERTEX
  5
25E4
  8
0
 10
170.17397183715079
 20
82.617094244348024
 30
0.0
  0
VERTEX
  5
25E5
  8
0
 10
170.1387317322947
 20
82.626926064429298
 30
0.0
  0
VERTEX
  5
25E6
  8
0
 10
170.06803970956469
 20
82.64590097828227
 30
0.0
  0
VERTEX
  5
25E7
  8
0
 10
169.99707149835399
 20
82.663955345464501
 30
0.0
  0
VERTEX
  5
25E8
  8
0
 10
169.92583456979739
 20
82.681086421517307
 30
0.0
  0
VERTEX
  5
25E9
  8
0
 10
169.85433638980061
 20
82.697291397413196
 30
0.0
  0
VERTEX
  5
25EA
  8
0
 10
169.78258441813591
 20
82.712567391858784
 30
0.0
  0
VERTEX
  5
25EB
  8
0
 10
169.74661558981941
 20
82.719856098950004
 30
0.0
  0
VERTEX
  5
25EC
  8
0
 10
169.7105861080353
 20
82.726911443471295
 30
0.0
  0
VERTEX
  5
25ED
  8
0
 10
169.63834890629431
 20
82.740320502865302
 30
0.0
  0
VERTEX
  5
25EE
  8
0
 10
169.56588025390181
 20
82.752791424681547
 30
0.0
  0
VERTEX
  5
25EF
  8
0
 10
169.49318758720349
 20
82.764320959595921
 30
0.0
  0
VERTEX
  5
25F0
  8
0
 10
169.42027833960481
 20
82.774905746342824
 30
0.0
  0
VERTEX
  5
25F1
  8
0
 10
169.34715994381759
 20
82.784542303790772
 30
0.0
  0
VERTEX
  5
25F2
  8
0
 10
169.3105260303625
 20
82.789003709106893
 30
0.0
  0
VERTEX
  5
25F3
  8
0
 10
169.2738645254847
 20
82.793224262824424
 30
0.0
  0
VERTEX
  5
25F4
  8
0
 10
169.2004836366319
 20
82.800940577545376
 30
0.0
  0
VERTEX
  5
25F5
  8
0
 10
169.1270332794393
 20
82.807690954346398
 30
0.0
  0
VERTEX
  5
25F6
  8
0
 10
169.05352269875661
 20
82.813475871833646
 30
0.0
  0
VERTEX
  5
25F7
  8
0
 10
168.9799611394925
 20
82.818295734362948
 30
0.0
  0
VERTEX
  5
25F8
  8
0
 10
168.90635784637169
 20
82.82215087119954
 30
0.0
  0
VERTEX
  5
25F9
  8
0
 10
168.86954343849851
 20
82.823716749664072
 30
0.0
  0
VERTEX
  5
25FA
  8
0
 10
168.83272206376651
 20
82.825041535789012
 30
0.0
  0
VERTEX
  5
25FB
  8
0
 10
168.75906303558889
 20
82.826967905147754
 30
0.0
  0
VERTEX
  5
25FC
  8
0
 10
168.68539000523481
 20
82.827930079378817
 30
0.0
  0
VERTEX
  5
25FD
  8
0
 10
168.64855112765611
 20
82.828049603482839
 30
0.0
  0
VERTEX
  5
25FE
  8
0
 10
168.61171221556381
 20
82.827928081318063
 30
0.0
  0
VERTEX
  5
25FF
  8
0
 10
168.53803890890509
 20
82.826961856314256
 30
0.0
  0
VERTEX
  5
2600
  8
0
 10
168.46437932707369
 20
82.825031272143576
 30
0.0
  0
VERTEX
  5
2601
  8
0
 10
168.4275575708989
 20
82.823704282849334
 30
0.0
  0
VERTEX
  5
2602
  8
0
 10
168.3907427113858
 20
82.822136119060914
 30
0.0
  0
VERTEX
  5
2603
  8
0
 10
168.31713830265829
 20
82.818276109984936
 30
0.0
  0
VERTEX
  5
2604
  8
0
 10
168.2435753411801
 20
82.813450880814514
 30
0.0
  0
VERTEX
  5
2605
  8
0
 10
168.17006306664331
 20
82.80765999087339
 30
0.0
  0
VERTEX
  5
2606
  8
0
 10
168.09661071802091
 20
82.800902923475576
 30
0.0
  0
VERTEX
  5
2607
  8
0
 10
168.02322753338009
 20
82.793179086606074
 30
0.0
  0
VERTEX
  5
2608
  8
0
 10
167.98657087975931
 20
82.788955149288142
 30
0.0
  0
VERTEX
  5
2609
  8
0
 10
167.94996166346129
 20
82.784492687050886
 30
0.0
  0
VERTEX
  5
260A
  8
0
 10
167.87689437847661
 20
82.774854531898427
 30
0.0
  0
VERTEX
  5
260B
  8
0
 10
167.8040348754588
 20
82.764268281013969
 30
0.0
  0
VERTEX
  5
260C
  8
0
 10
167.73139065535071
 20
82.752737281525413
 30
0.0
  0
VERTEX
  5
260D
  8
0
 10
167.65896921988519
 20
82.740264765096867
 30
0.0
  0
VERTEX
  5
260E
  8
0
 10
167.58677807355039
 20
82.726853855678485
 30
0.0
  0
VERTEX
  5
260F
  8
0
 10
167.55077120507781
 20
82.719797452297257
 30
0.0
  0
VERTEX
  5
2610
  8
0
 10
167.51482472502809
 20
82.712507577300471
 30
0.0
  0
VERTEX
  5
2611
  8
0
 10
167.44311668810531
 20
82.697228861874976
 30
0.0
  0
VERTEX
  5
2612
  8
0
 10
167.3716614820683
 20
82.681020556971703
 30
0.0
  0
VERTEX
  5
2613
  8
0
 10
167.30046663158751
 20
82.663885433531433
 30
0.0
  0
VERTEX
  5
2614
  8
0
 10
167.22953966610589
 20
82.645826193483586
 30
0.0
  0
VERTEX
  5
2615
  8
0
 10
167.15888811874731
 20
82.626845477234951
 30
0.0
  0
VERTEX
  5
2616
  8
0
 10
167.1236679815982
 20
82.617010375646714
 30
0.0
  0
VERTEX
  5
2617
  8
0
 10
167.08851952476141
 20
82.606945870996469
 30
0.0
  0
VERTEX
  5
2618
  8
0
 10
167.0184414195277
 20
82.586129913917432
 30
0.0
  0
VERTEX
  5
2619
  8
0
 10
166.94866133613999
 20
82.564400104996068
 30
0.0
  0
VERTEX
  5
261A
  8
0
 10
166.87918680259821
 20
82.541758909739315
 30
0.0
  0
VERTEX
  5
261B
  8
0
 10
166.81002533863261
 20
82.518208766542955
 30
0.0
  0
VERTEX
  5
261C
  8
0
 10
166.7411844521925
 20
82.493752092768148
 30
0.0
  0
VERTEX
  5
261D
  8
0
 10
166.706886567623
 20
82.481184558009147
 30
0.0
  0
VERTEX
  5
261E
  8
0
 10
166.6726716356265
 20
82.468391290489365
 30
0.0
  0
VERTEX
  5
261F
  8
0
 10
166.60449873863371
 20
82.442130471158237
 30
0.0
  0
VERTEX
  5
2620
  8
0
 10
166.53675885065951
 20
82.415007169975397
 30
0.0
  0
VERTEX
  5
2621
  8
0
 10
166.4694890611479
 20
82.387040508201778
 30
0.0
  0
VERTEX
  5
2622
  8
0
 10
166.4026922437381
 20
82.358236539809013
 30
0.0
  0
VERTEX
  5
2623
  8
0
 10
166.33637129290619
 20
82.328601193110316
 30
0.0
  0
VERTEX
  5
2624
  8
0
 10
166.3033901782137
 20
82.313473574222769
 30
0.0
  0
VERTEX
  5
2625
  8
0
 10
166.27052912607451
 20
82.298140283279267
 30
0.0
  0
VERTEX
  5
2626
  8
0
 10
166.2051686849361
 20
82.266859524492531
 30
0.0
  0
VERTEX
  5
2627
  8
0
 10
166.14029293603801
 20
82.234764541663253
 30
0.0
  0
VERTEX
  5
2628
  8
0
 10
166.10803775500759
 20
82.218413452398408
 30
0.0
  0
VERTEX
  5
2629
  8
0
 10
166.07590487067191
 20
82.201860881732955
 30
0.0
  0
VERTEX
  5
262A
  8
0
 10
166.0120075041219
 20
82.168154024494527
 30
0.0
  0
VERTEX
  5
262B
  8
0
 10
165.94860387432061
 20
82.133649392922166
 30
0.0
  0
VERTEX
  5
262C
  8
0
 10
165.9170881657941
 20
82.116099593330304
 30
0.0
  0
VERTEX
  5
262D
  8
0
 10
165.88569703996461
 20
82.098352362987384
 30
0.0
  0
VERTEX
  5
262E
  8
0
 10
165.82329007814249
 20
82.062268272943754
 30
0.0
  0
VERTEX
  5
262F
  8
0
 10
165.7613860815255
 20
82.025402432066926
 30
0.0
  0
VERTEX
  5
2630
  8
0
 10
165.6999881551753
 20
81.987760128838488
 30
0.0
  0
VERTEX
  5
2631
  8
0
 10
165.6390994130175
 20
81.94934663856651
 30
0.0
  0
VERTEX
  5
2632
  8
0
 10
165.57872297403219
 20
81.910167230438049
 30
0.0
  0
VERTEX
  5
2633
  8
0
 10
165.54872784330121
 20
81.890291953731889
 30
0.0
  0
VERTEX
  5
2634
  8
0
 10
165.51886195820919
 20
81.870227174001798
 30
0.0
  0
VERTEX
  5
2635
  8
0
 10
165.4595194823163
 20
81.829531745082022
 30
0.0
  0
VERTEX
  5
2636
  8
0
 10
165.40069865552479
 20
81.788086231126485
 30
0.0
  0
VERTEX
  5
2637
  8
0
 10
165.34240257493639
 20
81.745895935995236
 30
0.0
  0
VERTEX
  5
2638
  8
0
 10
165.28463432105181
 20
81.702966184197166
 30
0.0
  0
VERTEX
  5
2639
  8
0
 10
165.22739695322221
 20
81.659302324584914
 30
0.0
  0
VERTEX
  5
263A
  8
0
 10
165.1989783007258
 20
81.637196783310756
 30
0.0
  0
VERTEX
  5
263B
  8
0
 10
165.1706935051169
 20
81.614909733519085
 30
0.0
  0
VERTEX
  5
263C
  8
0
 10
165.11452698024539
 20
81.569793817515915
 30
0.0
  0
VERTEX
  5
263D
  8
0
 10
165.05890034756229
 20
81.52396001539239
 30
0.0
  0
VERTEX
  5
263E
  8
0
 10
165.03129040808491
 20
81.500775615915913
 30
0.0
  0
SEQEND
  5
263F
  8
0
  0
POLYLINE
  5
18CA
  8
0
 66
     1
 10
0.0
 20
0.0
 30
0.0
  0
VERTEX
  5
2640
  8
0
 10
143.90586032309531
 20
64.346960405117215
 30
0.0
  0
VERTEX
  5
2641
  8
0
 10
143.95301162604281
 20
64.052465567349145
 30
0.0
  0
VERTEX
  5
2642
  8
0
 10
144.05587557173641
 20
63.472210116105089
 30
0.0
  0
VERTEX
  5
2643
  8
0
 10
144.16960961553221
 20
62.904016065829637
 30
0.0
  0
VERTEX
  5
2644
  8
0
 10
144.23034558862309
 20
62.624598214379489
 30
0.0
  0
VERTEX
  5
2645
  8
0
 10
144.293548718854
 20
62.348383183302417
 30
0.0
  0
VERTEX
  5
2646
  8
0
 10
144.42701542883759
 20
61.805811829714173
 30
0.0
  0
VERTEX
  5
2647
  8
0
 10
144.56932034966999
 20
61.276802443676729
 30
0.0
  0
VERTEX
  5
2648
  8
0
 10
144.71976292052679
 20
60.761854943619653
 30
0.0
  0
VERTEX
  5
2649
  8
0
 10
144.87763249928801
 20
60.261468088373022
 30
0.0
  0
VERTEX
  5
264A
  8
0
 10
145.04220974871359
 20
59.776138841207171
 30
0.0
  0
VERTEX
  5
264B
  8
0
 10
145.12678698727331
 20
59.539275486759998
 30
0.0
  0
VERTEX
  5
264C
  8
0
 10
145.21276831722821
 20
59.306361794698141
 30
0.0
  0
VERTEX
  5
264D
  8
0
 10
145.38856618421471
 20
58.852655273998323
 30
0.0
  0
VERTEX
  5
264E
  8
0
 10
145.56850132779451
 20
58.416368209624409
 30
0.0
  0
VERTEX
  5
264F
  8
0
 10
145.75163697077059
 20
57.998280627329052
 30
0.0
  0
VERTEX
  5
2650
  8
0
 10
145.9372195043932
 20
57.598714643754072
 30
0.0
  0
VERTEX
  5
2651
  8
0
 10
146.12450790665361
 20
57.217993385427462
 30
0.0
  0
VERTEX
  5
2652
  8
0
 10
146.21856408468929
 20
57.034800937154778
 30
0.0
  0
VERTEX
  5
2653
  8
0
 10
146.3127753906694
 20
56.856441664275167
 30
0.0
  0
VERTEX
  5
2654
  8
0
 10
146.50131111461681
 20
56.514387225055941
 30
0.0
  0
VERTEX
  5
2655
  8
0
 10
146.68942181207561
 20
56.192162867273282
 30
0.0
  0
VERTEX
  5
2656
  8
0
 10
146.7831062768887
 20
56.038593147603031
 30
0.0
  0
SEQEND
  5
2657
  8
0
  0
POLYLINE
  5
18CB
  8
0
 66
     1
 10
0.0
 20
0.0
 30
0.0
  0
VERTEX
  5
2658
  8
0
 10
143.59058922718461
 20
68.466418594203049
 30
0.0
  0
VERTEX
  5
2659
  8
0
 10
143.59939499778611
 20
67.775165308920563
 30
0.0
  0
VERTEX
  5
265A
  8
0
 10
143.66983295377551
 20
66.39465624729246
 30
0.0
  0
VERTEX
  5
265B
  8
0
 10
143.81022034607261
 20
65.023696259583289
 30
0.0
  0
VERTEX
  5
265C
  8
0
 10
143.90586032309531
 20
64.346960405117215
 30
0.0
  0
SEQEND
  5
265D
  8
0
  0
POLYLINE
  5
18CC
  8
0
 66
     1
 10
0.0
 20
0.0
 30
0.0
  0
VERTEX
  5
265E
  8
0
 10
143.90586032309531
 20
72.585876783288995
 30
0.0
  0
VERTEX
  5
265F
  8
0
 10
143.80978394256201
 20
71.905738884776497
 30
0.0
  0
VERTEX
  5
2660
  8
0
 10
143.6695672431527
 20
70.534711784696469
 30
0.0
  0
VERTEX
  5
2661
  8
0
 10
143.59936601038191
 20
69.156533443094418
 30
0.0
  0
VERTEX
  5
2662
  8
0
 10
143.59058922718461
 20
68.466418594203049
 30
0.0
  0
SEQEND
  5
2663
  8
0
  0
POLYLINE
  5
18CD
  8
0
 66
     1
 10
0.0
 20
0.0
 30
0.0
  0
VERTEX
  5
2664
  8
0
 10
147.1842073129375
 20
81.500775615915984
 30
0.0
  0
VERTEX
  5
2665
  8
0
 10
147.0647417668967
 20
81.328744391419036
 30
0.0
  0
VERTEX
  5
2666
  8
0
 10
146.82744279326661
 20
80.965341550409889
 30
0.0
  0
VERTEX
  5
2667
  8
0
 10
146.5937787030702
 20
80.579177799414424
 30
0.0
  0
VERTEX
  5
2668
  8
0
 10
146.4788370040589
 20
80.378694525013316
 30
0.0
  0
VERTEX
  5
2669
  8
0
 10
146.36542455714749
 20
80.173885852351418
 30
0.0
  0
VERTEX
  5
266A
  8
0
 10
146.14320360943501
 20
79.751672817011354
 30
0.0
  0
VERTEX
  5
266B
  8
0
 10
145.92753369211641
 20
79.313833806295975
 30
0.0
  0
VERTEX
  5
266C
  8
0
 10
145.71938521395049
 20
78.862707431395336
 30
0.0
  0
VERTEX
  5
266D
  8
0
 10
145.5196500111347
 20
78.400638777383051
 30
0.0
  0
VERTEX
  5
266E
  8
0
 10
145.32779164899259
 20
77.92657730503754
 30
0.0
  0
VERTEX
  5
266F
  8
0
 10
145.23398503739671
 20
77.682791328192422
 30
0.0
  0
VERTEX
  5
2670
  8
0
 10
145.1416976348614
 20
77.434506286491455
 30
0.0
  0
VERTEX
  5
2671
  8
0
 10
144.9620941635113
 20
76.924687433963186
 30
0.0
  0
VERTEX
  5
2672
  8
0
 10
144.7898093803318
 20
76.397610708611637
 30
0.0
  0
VERTEX
  5
2673
  8
0
 10
144.62567212166209
 20
75.853757375031478
 30
0.0
  0
VERTEX
  5
2674
  8
0
 10
144.4705111856444
 20
75.293602713622022
 30
0.0
  0
VERTEX
  5
2675
  8
0
 10
144.32515463942769
 20
74.717618118295718
 30
0.0
  0
VERTEX
  5
2676
  8
0
 10
144.2564114401606
 20
74.42383626701718
 30
0.0
  0
VERTEX
  5
2677
  8
0
 10
144.19042925081899
 20
74.126272797232559
 30
0.0
  0
VERTEX
  5
2678
  8
0
 10
144.06716010315611
 20
73.520035254713832
 30
0.0
  0
VERTEX
  5
2679
  8
0
 10
143.95619348114209
 20
72.899513060236131
 30
0.0
  0
VERTEX
  5
267A
  8
0
 10
143.90586032309531
 20
72.585876783288995
 30
0.0
  0
SEQEND
  5
267B
  8
0
  0
POLYLINE
  5
18CE
  8
0
 66
     1
 10
0.0
 20
0.0
 30
0.0
  0
VERTEX
  5
267C
  8
0
 10
149.44033381770771
 20
81.500775615915913
 30
0.0
  0
VERTEX
  5
267D
  8
0
 10
149.43962929017471
 20
81.523949096656736
 30
0.0
  0
VERTEX
  5
267E
  8
0
 10
149.4380093080872
 20
81.569769388038253
 30
0.0
  0
VERTEX
  5
267F
  8
0
 10
149.43610242629029
 20
81.614882568579389
 30
0.0
  0
VERTEX
  5
2680
  8
0
 10
149.4350392765507
 20
81.637172167431117
 30
0.0
  0
VERTEX
  5
2681
  8
0
 10
149.4339018575034
 20
81.659282802080483
 30
0.0
  0
VERTEX
  5
2682
  8
0
 10
149.43140082550391
 20
81.702964278126856
 30
0.0
  0
VERTEX
  5
2683
  8
0
 10
149.4285925656541
 20
81.745921208959217
 30
0.0
  0
VERTEX
  5
2684
  8
0
 10
149.42547032525019
 20
81.788147825807471
 30
0.0
  0
VERTEX
  5
2685
  8
0
 10
149.42202736369731
 20
81.829638374674445
 30
0.0
  0
VERTEX
  5
2686
  8
0
 10
149.41825695250731
 20
81.870387111558344
 30
0.0
  0
VERTEX
  5
2687
  8
0
 10
149.4162468539177
 20
81.890481506934748
 30
0.0
  0
VERTEX
  5
2688
  8
0
 10
149.4141523751274
 20
81.910388297104305
 30
0.0
  0
VERTEX
  5
2689
  8
0
 10
149.40970692659991
 20
81.949636190677765
 30
0.0
  0
VERTEX
  5
268A
  8
0
 10
149.40491391306449
 20
81.988125043853344
 30
0.0
  0
VERTEX
  5
268B
  8
0
 10
149.39976665110919
 20
82.025849093317902
 30
0.0
  0
VERTEX
  5
268C
  8
0
 10
149.39425846698339
 20
82.062802553185975
 30
0.0
  0
VERTEX
  5
268D
  8
0
 10
149.38838269568569
 20
82.098979606731405
 30
0.0
  0
VERTEX
  5
268E
  8
0
 10
149.38530488417771
 20
82.116775152807634
 30
0.0
  0
VERTEX
  5
268F
  8
0
 10
149.38213267994371
 20
82.134374397539929
 30
0.0
  0
VERTEX
  5
2690
  8
0
 10
149.37550176910341
 20
82.168981020092133
 30
0.0
  0
VERTEX
  5
2691
  8
0
 10
149.36848331795039
 20
82.202793509787739
 30
0.0
  0
VERTEX
  5
2692
  8
0
 10
149.36482668931399
 20
82.219400072144126
 30
0.0
  0
VERTEX
  5
2693
  8
0
 10
149.36107068548631
 20
82.235805832427502
 30
0.0
  0
VERTEX
  5
2694
  8
0
 10
149.35325723368581
 20
82.268011873171915
 30
0.0
  0
VERTEX
  5
2695
  8
0
 10
149.34503857179959
 20
82.299397168164205
 30
0.0
  0
VERTEX
  5
2696
  8
0
 10
149.34077913254879
 20
82.314766762605302
 30
0.0
  0
VERTEX
  5
2697
  8
0
 10
149.3364193021487
 20
82.329918869673406
 30
0.0
  0
VERTEX
  5
2698
  8
0
 10
149.32739634318631
 20
82.359569065696576
 30
0.0
  0
VERTEX
  5
2699
  8
0
 10
149.31796551388919
 20
82.388344648722736
 30
0.0
  0
VERTEX
  5
269A
  8
0
 10
149.30812274262149
 20
82.416242514911687
 30
0.0
  0
VERTEX
  5
269B
  8
0
 10
149.2978640669354
 20
82.443259558761781
 30
0.0
  0
VERTEX
  5
269C
  8
0
 10
149.28718563323849
 20
82.469392667330837
 30
0.0
  0
VERTEX
  5
269D
  8
0
 10
149.28168783254409
 20
82.482126769536194
 30
0.0
  0
VERTEX
  5
269E
  8
0
 10
149.27608369634021
 20
82.494638714025541
 30
0.0
  0
VERTEX
  5
269F
  8
0
 10
149.2645546188968
 20
82.518994551976576
 30
0.0
  0
VERTEX
  5
26A0
  8
0
 10
149.2525948707723
 20
82.542457007020275
 30
0.0
  0
VERTEX
  5
26A1
  8
0
 10
149.24020102833649
 20
82.565022870307743
 30
0.0
  0
VERTEX
  5
26A2
  8
0
 10
149.22736977372119
 20
82.58668889056753
 30
0.0
  0
VERTEX
  5
26A3
  8
0
 10
149.21409789405811
 20
82.607451766047575
 30
0.0
  0
VERTEX
  5
26A4
  8
0
 10
149.20729574433699
 20
82.617493476845254
 30
0.0
  0
VERTEX
  5
26A5
  8
0
 10
149.200382280724
 20
82.627308136166107
 30
0.0
  0
VERTEX
  5
26A6
  8
0
 10
149.18621992861711
 20
82.646254572901512
 30
0.0
  0
VERTEX
  5
26A7
  8
0
 10
149.17160793549229
 20
82.664287571955356
 30
0.0
  0
VERTEX
  5
26A8
  8
0
 10
149.1565435013832
 20
82.68140354372224
 30
0.0
  0
VERTEX
  5
26A9
  8
0
 10
149.1410239281382
 20
82.697598804102896
 30
0.0
  0
VERTEX
  5
26AA
  8
0
 10
149.12504661909969
 20
82.712869565198957
 30
0.0
  0
VERTEX
  5
26AB
  8
0
 10
149.11688552991421
 20
82.720157044105974
 30
0.0
  0
VERTEX
  5
26AC
  8
0
 10
149.10860907895599
 20
82.727211925928486
 30
0.0
  0
VERTEX
  5
26AD
  8
0
 10
149.09170891379381
 20
82.740621862601984
 30
0.0
  0
VERTEX
  5
26AE
  8
0
 10
149.07434383138181
 20
82.753095219501006
 30
0.0
  0
VERTEX
  5
26AF
  8
0
 10
149.05652613046331
 20
82.764618828855987
 30
0.0
  0
VERTEX
  5
26B0
  8
0
 10
149.03827207774461
 20
82.775181121208774
 30
0.0
  0
VERTEX
  5
26B1
  8
0
 10
149.01958249405209
 20
82.784782262997155
 30
0.0
  0
VERTEX
  5
26B2
  8
0
 10
149.010074673708
 20
82.789222440759545
 30
0.0
  0
VERTEX
  5
26B3
  8
0
 10
149.000458345797
 20
82.793422368651079
 30
0.0
  0
VERTEX
  5
26B4
  8
0
 10
148.98090076278061
 20
82.801101486199244
 30
0.0
  0
VERTEX
  5
26B5
  8
0
 10
148.96091103788879
 20
82.807819595301908
 30
0.0
  0
VERTEX
  5
26B6
  8
0
 10
148.94049062682191
 20
82.813576605351955
 30
0.0
  0
VERTEX
  5
26B7
  8
0
 10
148.9196411478637
 20
82.818372353657196
 30
0.0
  0
VERTEX
  5
26B8
  8
0
 10
148.8983643816932
 20
82.822206603717959
 30
0.0
  0
VERTEX
  5
26B9
  8
0
 10
148.88756636673449
 20
82.823763072418842
 30
0.0
  0
VERTEX
  5
26BA
  8
0
 10
148.87666227124231
 20
82.825079043611254
 30
0.0
  0
VERTEX
  5
26BB
  8
0
 10
148.85453692160121
 20
82.826989284490651
 30
0.0
  0
VERTEX
  5
26BC
  8
0
 10
148.8319905999721
 20
82.827936859212954
 30
0.0
  0
VERTEX
  5
26BD
  8
0
 10
148.82056032749031
 20
82.828049479065555
 30
0.0
  0
VERTEX
  5
26BE
  8
0
 10
148.80902573567329
 20
82.827921221097654
 30
0.0
  0
VERTEX
  5
26BF
  8
0
 10
148.78564492019069
 20
82.826941742825625
 30
0.0
  0
VERTEX
  5
26C0
  8
0
 10
148.76185090727739
 20
82.82499771548197
 30
0.0
  0
VERTEX
  5
26C1
  8
0
 10
148.74979985673701
 20
82.823663751858575
 30
0.0
  0
VERTEX
  5
26C2
  8
0
 10
148.73764661309929
 20
82.822088347745932
 30
0.0
  0
VERTEX
  5
26C3
  8
0
 10
148.71303511642219
 20
82.818212765229589
 30
0.0
  0
VERTEX
  5
26C4
  8
0
 10
148.6880196588387
 20
82.813370009964856
 30
0.0
  0
VERTEX
  5
26C5
  8
0
 10
148.66260364503091
 20
82.807559040037916
 30
0.0
  0
VERTEX
  5
26C6
  8
0
 10
148.63679760478621
 20
82.800780673936742
 30
0.0
  0
VERTEX
  5
26C7
  8
0
 10
148.610638138198
 20
82.793044635453384
 30
0.0
  0
VERTEX
  5
26C8
  8
0
 10
148.5974290523572
 20
82.788818921529568
 30
0.0
  0
VERTEX
  5
26C9
  8
0
 10
148.5841346444052
 20
82.784355295670139
 30
0.0
  0
VERTEX
  5
26CA
  8
0
 10
148.55729264820641
 20
82.774715915231567
 30
0.0
  0
VERTEX
  5
26CB
  8
0
 10
148.53011780102091
 20
82.764129634407183
 30
0.0
  0
VERTEX
  5
26CC
  8
0
 10
148.50261588192791
 20
82.75259948025041
 30
0.0
  0
VERTEX
  5
26CD
  8
0
 10
148.47479279860599
 20
82.740128373854745
 30
0.0
  0
VERTEX
  5
26CE
  8
0
 10
148.44665458814731
 20
82.726719137673527
 30
0.0
  0
VERTEX
  5
26CF
  8
0
 10
148.432469232388
 20
82.719663577766369
 30
0.0
  0
VERTEX
  5
26D0
  8
0
 10
148.41820741772921
 20
82.712374502868315
 30
0.0
  0
VERTEX
  5
26D1
  8
0
 10
148.38945758512369
 20
82.697097116654561
 30
0.0
  0
VERTEX
  5
26D2
  8
0
 10
148.36041151902549
 20
82.680889549608636
 30
0.0
  0
VERTEX
  5
26D3
  8
0
 10
148.33107577918511
 20
82.663754302905318
 30
0.0
  0
VERTEX
  5
26D4
  8
0
 10
148.3014570563308
 20
82.645693815452034
 30
0.0
  0
VERTEX
  5
26D5
  8
0
 10
148.27156217186791
 20
82.626710470888767
 30
0.0
  0
VERTEX
  5
26D6
  8
0
 10
148.2565133363278
 20
82.616873458652094
 30
0.0
  0
VERTEX
  5
26D7
  8
0
 10
148.24139807734429
 20
82.606806604422658
 30
0.0
  0
VERTEX
  5
26D8
  8
0
 10
148.2109718536735
 20
82.585984509467195
 30
0.0
  0
VERTEX
  5
26D9
  8
0
 10
148.18029071010841
 20
82.564246444058085
 30
0.0
  0
VERTEX
  5
26DA
  8
0
 10
148.14936198296061
 20
82.541594637017724
 30
0.0
  0
VERTEX
  5
26DB
  8
0
 10
148.11819313406281
 20
82.518031293842796
 30
0.0
  0
VERTEX
  5
26DC
  8
0
 10
148.08679174897259
 20
82.493558602290705
 30
0.0
  0
VERTEX
  5
26DD
  8
0
 10
148.0710062591734
 20
82.480981930998723
 30
0.0
  0
VERTEX
  5
26DE
  8
0
 10
148.05516553492029
 20
82.468178737641566
 30
0.0
  0
VERTEX
  5
26DF
  8
0
 10
148.0233515057154
 20
82.441918292690616
 30
0.0
  0
VERTEX
  5
26E0
  8
0
 10
147.99138921078011
 20
82.414808583705792
 30
0.0
  0
VERTEX
  5
26E1
  8
0
 10
147.95928652840399
 20
82.386855712764373
 30
0.0
  0
VERTEX
  5
26E2
  8
0
 10
147.9270513492454
 20
82.358065636446099
 30
0.0
  0
VERTEX
  5
26E3
  8
0
 10
147.8946915921108
 20
82.328444189345873
 30
0.0
  0
VERTEX
  5
26E4
  8
0
 10
147.87846747966489
 20
82.313323494762244
 30
0.0
  0
VERTEX
  5
26E5
  8
0
 10
147.8622152061123
 20
82.297997096452605
 30
0.0
  0
VERTEX
  5
26E6
  8
0
 10
147.8296301724522
 20
82.266729985148345
 30
0.0
  0
VERTEX
  5
26E7
  8
0
 10
147.7969445058269
 20
82.234648396794455
 30
0.0
  0
VERTEX
  5
26E8
  8
0
 10
147.78056644916259
 20
82.218303884629563
 30
0.0
  0
VERTEX
  5
26E9
  8
0
 10
147.76416625544809
 20
82.201757797873583
 30
0.0
  0
VERTEX
  5
26EA
  8
0
 10
147.7313035056815
 20
82.168063590660722
 30
0.0
  0
VERTEX
  5
26EB
  8
0
 10
147.69836437630559
 20
82.133571123400145
 30
0.0
  0
VERTEX
  5
26EC
  8
0
 10
147.6818687163576
 20
82.116027201192864
 30
0.0
  0
VERTEX
  5
26ED
  8
0
 10
147.6653570223975
 20
82.098285699967278
 30
0.0
  0
VERTEX
  5
26EE
  8
0
 10
147.63228963385299
 20
82.062212588999856
 30
0.0
  0
VERTEX
  5
26EF
  8
0
 10
147.59917043455371
 20
82.025357032484067
 30
0.0
  0
VERTEX
  5
26F0
  8
0
 10
147.5660076811935
 20
81.987724253786382
 30
0.0
  0
VERTEX
  5
26F1
  8
0
 10
147.53280966177741
 20
81.949319465122869
 30
0.0
  0
VERTEX
  5
26F2
  8
0
 10
147.4995846938142
 20
81.91014787446295
 30
0.0
  0
VERTEX
  5
26F3
  8
0
 10
147.48296471090489
 20
81.890276156284472
 30
0.0
  0
VERTEX
  5
26F4
  8
0
 10
147.46634112221531
 20
81.870214691865456
 30
0.0
  0
VERTEX
  5
26F5
  8
0
 10
147.43308731692389
 20
81.829525135248673
 30
0.0
  0
VERTEX
  5
26F6
  8
0
 10
147.3998316702916
 20
81.788084435597966
 30
0.0
  0
VERTEX
  5
26F7
  8
0
 10
147.3665825942264
 20
81.745897841616966
 30
0.0
  0
VERTEX
  5
26F8
  8
0
 10
147.3333485171307
 20
81.702970623830879
 30
0.0
  0
VERTEX
  5
26F9
  8
0
 10
147.3001378806542
 20
81.659308078151426
 30
0.0
  0
VERTEX
  5
26FA
  8
0
 10
147.2835439934496
 20
81.637202720024334
 30
0.0
  0
VERTEX
  5
26FB
  8
0
 10
147.26695913628311
 20
81.614915528916299
 30
0.0
  0
VERTEX
  5
26FC
  8
0
 10
147.2338207417875
 20
81.569798331415313
 30
0.0
  0
VERTEX
  5
26FD
  8
0
 10
147.20073115755051
 20
81.523961873919134
 30
0.0
  0
VERTEX
  5
26FE
  8
0
 10
147.1842073129375
 20
81.500775615915913
 30
0.0
  0
SEQEND
  5
26FF
  8
0
  0
POLYLINE
  5
18CF
  8
0
 66
     1
 10
0.0
 20
0.0
 30
0.0
  0
VERTEX
  5
2700
  8
0
 10
149.44371859548971
 20
81.254404984261043
 30
0.0
  0
VERTEX
  5
2701
  8
0
 10
149.44362741121509
 20
81.296411684465625
 30
0.0
  0
VERTEX
  5
2702
  8
0
 10
149.44288779271179
 20
81.379307722543388
 30
0.0
  0
VERTEX
  5
2703
  8
0
 10
149.44138237315809
 20
81.460677229722023
 30
0.0
  0
VERTEX
  5
2704
  8
0
 10
149.44033381770771
 20
81.500775615915984
 30
0.0
  0
SEQEND
  5
2705
  8
0
  0
POLYLINE
  5
18D0
  8
0
 66
     1
 10
0.0
 20
0.0
 30
0.0
  0
VERTEX
  5
2706
  8
0
 10
148.56981101632081
 20
68.466418594203049
 30
0.0
  0
VERTEX
  5
2707
  8
0
 10
148.57119070207929
 20
68.881965990696813
 30
0.0
  0
VERTEX
  5
2708
  8
0
 10
148.58219095372289
 20
69.712210938208045
 30
0.0
  0
VERTEX
  5
2709
  8
0
 10
148.6039902504393
 20
70.539824075164574
 30
0.0
  0
VERTEX
  5
270A
  8
0
 10
148.6188246494869
 20
70.952171916606744
 30
0.0
  0
VERTEX
  5
270B
  8
0
 10
148.63622593785041
 20
71.363924198270695
 30
0.0
  0
VERTEX
  5
270C
  8
0
 10
148.6784535649889
 20
72.184958986124514
 30
0.0
  0
VERTEX
  5
270D
  8
0
 10
148.7299539554952
 20
73.000883207149613
 30
0.0
  0
VERTEX
  5
270E
  8
0
 10
148.7897690547961
 20
73.809520973922361
 30
0.0
  0
VERTEX
  5
270F
  8
0
 10
148.85670327263639
 20
74.608696407291291
 30
0.0
  0
VERTEX
  5
2710
  8
0
 10
148.9291179209726
 20
75.394138097069117
 30
0.0
  0
VERTEX
  5
2711
  8
0
 10
148.9663861533387
 20
75.776340931620837
 30
0.0
  0
VERTEX
  5
2712
  8
0
 10
149.0039527749376
 20
76.150540244270815
 30
0.0
  0
VERTEX
  5
2713
  8
0
 10
149.07897125323379
 20
76.874464748339904
 30
0.0
  0
VERTEX
  5
2714
  8
0
 10
149.1521507391314
 20
77.564979968322632
 30
0.0
  0
VERTEX
  5
2715
  8
0
 10
149.22146916897239
 20
78.221137598237192
 30
0.0
  0
VERTEX
  5
2716
  8
0
 10
149.28490878305951
 20
78.841955521988993
 30
0.0
  0
VERTEX
  5
2717
  8
0
 10
149.3404985491261
 20
79.426879067984089
 30
0.0
  0
VERTEX
  5
2718
  8
0
 10
149.36503503471349
 20
79.709381323751984
 30
0.0
  0
VERTEX
  5
2719
  8
0
 10
149.3870603324944
 20
79.986174343812195
 30
0.0
  0
VERTEX
  5
271A
  8
0
 10
149.40900344445271
 20
80.300728463406529
 30
0.0
  0
VERTEX
  5
271B
  8
0
 10
149.4144368486557
 20
80.388766382964704
 30
0.0
  0
VERTEX
  5
271C
  8
0
 10
149.41946728021671
 20
80.475930917258381
 30
0.0
  0
VERTEX
  5
271D
  8
0
 10
149.42182592595009
 20
80.519175812575895
 30
0.0
  0
VERTEX
  5
271E
  8
0
 10
149.42407725379479
 20
80.562190543669317
 30
0.0
  0
VERTEX
  5
271F
  8
0
 10
149.4282490558044
 20
80.647513772750813
 30
0.0
  0
VERTEX
  5
2720
  8
0
 10
149.43196473941541
 20
80.731869126314677
 30
0.0
  0
VERTEX
  5
2721
  8
0
 10
149.4352061184133
 20
80.815225112207713
 30
0.0
  0
VERTEX
  5
2722
  8
0
 10
149.4379547598802
 20
80.897550195535814
 30
0.0
  0
VERTEX
  5
2723
  8
0
 10
149.44019197567121
 20
80.978812766092688
 30
0.0
  0
VERTEX
  5
2724
  8
0
 10
149.4411128867327
 20
81.019035701377504
 30
0.0
  0
VERTEX
  5
2725
  8
0
 10
149.44189881267619
 20
81.058981101754625
 30
0.0
  0
VERTEX
  5
2726
  8
0
 10
149.4430560418744
 20
81.138023327606788
 30
0.0
  0
VERTEX
  5
2727
  8
0
 10
149.4436441462145
 20
81.215907370583068
 30
0.0
  0
VERTEX
  5
2728
  8
0
 10
149.44371859548971
 20
81.254404984261043
 30
0.0
  0
SEQEND
  5
2729
  8
0
  0
POLYLINE
  5
18D1
  8
0
 66
     1
 10
0.0
 20
0.0
 30
0.0
  0
VERTEX
  5
272A
  8
0
 10
149.4378534831323
 20
56.038593147603031
 30
0.0
  0
VERTEX
  5
272B
  8
0
 10
149.43651469197721
 20
56.080151298785381
 30
0.0
  0
VERTEX
  5
272C
  8
0
 10
149.43345433609349
 20
56.164067710710071
 30
0.0
  0
VERTEX
  5
272D
  8
0
 10
149.4298995228836
 20
56.249025435779231
 30
0.0
  0
VERTEX
  5
272E
  8
0
 10
149.42794258747929
 20
56.291885278096061
 30
0.0
  0
VERTEX
  5
272F
  8
0
 10
149.42586907129541
 20
56.334994056267192
 30
0.0
  0
VERTEX
  5
2730
  8
0
 10
149.421381502077
 20
56.421943324421193
 30
0.0
  0
VERTEX
  5
2731
  8
0
 10
149.41645504826201
 20
56.509843124168867
 30
0.0
  0
VERTEX
  5
2732
  8
0
 10
149.39601304660039
 20
56.824544988668663
 30
0.0
  0
VERTEX
  5
2733
  8
0
 10
149.35109104066959
 20
57.38657206879941
 30
0.0
  0
VERTEX
  5
2734
  8
0
 10
149.32486269203639
 20
57.676571661948969
 30
0.0
  0
VERTEX
  5
2735
  8
0
 10
149.29666344686061
 20
57.971565740051751
 30
0.0
  0
VERTEX
  5
2736
  8
0
 10
149.2354497956573
 20
58.577366776343922
 30
0.0
  0
VERTEX
  5
2737
  8
0
 10
149.1697665240988
 20
59.202016901295558
 30
0.0
  0
VERTEX
  5
2738
  8
0
 10
149.1018069570251
 20
59.842029053789823
 30
0.0
  0
VERTEX
  5
2739
  8
0
 10
149.03352134622179
 20
60.493905684675383
 30
0.0
  0
VERTEX
  5
273A
  8
0
 10
148.9660401970358
 20
61.159989778030933
 30
0.0
  0
VERTEX
  5
273B
  8
0
 10
148.93266155735321
 20
61.501811401253121
 30
0.0
  0
VERTEX
  5
273C
  8
0
 10
148.8997575256526
 20
61.849391066504431
 30
0.0
  0
VERTEX
  5
273D
  8
0
 10
148.83608455078351
 20
62.56127272899414
 30
0.0
  0
VERTEX
  5
273E
  8
0
 10
148.77641078020929
 20
63.294535514092331
 30
0.0
  0
VERTEX
  5
273F
  8
0
 10
148.72206501567331
 20
64.04808609653378
 30
0.0
  0
VERTEX
  5
2740
  8
0
 10
148.67430370186159
 20
64.820835520209016
 30
0.0
  0
VERTEX
  5
2741
  8
0
 10
148.63429868496451
 20
65.611697228455853
 30
0.0
  0
VERTEX
  5
2742
  8
0
 10
148.61754468444511
 20
66.013580646288858
 30
0.0
  0
VERTEX
  5
2743
  8
0
 10
148.60312557405419
 20
66.419543281098754
 30
0.0
  0
VERTEX
  5
2744
  8
0
 10
148.58187775988989
 20
67.236514383000326
 30
0.0
  0
VERTEX
  5
2745
  8
0
 10
148.57115590479449
 20
68.056146015929585
 30
0.0
  0
VERTEX
  5
2746
  8
0
 10
148.56981101632081
 20
68.466418594203049
 30
0.0
  0
SEQEND
  5
2747
  8
0
  0
POLYLINE
  5
18D2
  8
0
 66
     1
 10
0.0
 20
0.0
 30
0.0
  0
VERTEX
  5
2748
  8
0
 10
149.44371859548971
 20
55.671758043533913
 30
0.0
  0
VERTEX
  5
2749
  8
0
 10
149.44354994534439
 20
55.7318839608389
 30
0.0
  0
VERTEX
  5
274A
  8
0
 10
149.44222127922191
 20
55.85342999258102
 30
0.0
  0
VERTEX
  5
274B
  8
0
 10
149.4396167743916
 20
55.976527646601369
 30
0.0
  0
VERTEX
  5
274C
  8
0
 10
149.4378534831323
 20
56.038593147603031
 30
0.0
  0
SEQEND
  5
274D
  8
0
  0
POLYLINE
  5
18D3
  8
0
 66
     1
 10
0.0
 20
0.0
 30
0.0
  0
VERTEX
  5
274E
  8
0
 10
146.7831062768887
 20
56.038593147603031
 30
0.0
  0
VERTEX
  5
274F
  8
0
 10
146.9023865136092
 20
55.847781394874232
 30
0.0
  0
VERTEX
  5
2750
  8
0
 10
147.14096702256791
 20
55.478127454575997
 30
0.0
  0
VERTEX
  5
2751
  8
0
 10
147.3778568267989
 20
55.129583886622747
 30
0.0
  0
VERTEX
  5
2752
  8
0
 10
147.49503563253401
 20
54.965161561165303
 30
0.0
  0
VERTEX
  5
2753
  8
0
 10
147.5144578152036
 20
54.938475522532201
 30
0.0
  0
VERTEX
  5
2754
  8
0
 10
147.55319966061251
 20
54.885750742990631
 30
0.0
  0
VERTEX
  5
2755
  8
0
 10
147.59179723900971
 20
54.833912803452051
 30
0.0
  0
VERTEX
  5
2756
  8
0
 10
147.61103913108849
 20
54.808335259772718
 30
0.0
  0
VERTEX
  5
2757
  8
0
 10
147.630242019756
 20
54.782989509070781
 30
0.0
  0
VERTEX
  5
2758
  8
0
 10
147.6685265508705
 20
54.733007310704458
 30
0.0
  0
VERTEX
  5
2759
  8
0
 10
147.70664171970159
 20
54.683994901775073
 30
0.0
  0
VERTEX
  5
275A
  8
0
 10
147.74457829092901
 20
54.635981117625683
 30
0.0
  0
VERTEX
  5
275B
  8
0
 10
147.78232703535409
 20
54.588994753857257
 30
0.0
  0
VERTEX
  5
275C
  8
0
 10
147.81987873010021
 20
54.54306455579583
 30
0.0
  0
VERTEX
  5
275D
  8
0
 10
147.83857780356459
 20
54.520504485277058
 30
0.0
  0
VERTEX
  5
275E
  8
0
 10
147.8572241592247
 20
54.498219207057559
 30
0.0
  0
VERTEX
  5
275F
  8
0
 10
147.8943541147969
 20
54.454487317210948
 30
0.0
  0
VERTEX
  5
2760
  8
0
 10
147.93125939848301
 20
54.411897408552782
 30
0.0
  0
VERTEX
  5
2761
  8
0
 10
147.96793082368831
 20
54.370477902035702
 30
0.0
  0
VERTEX
  5
2762
  8
0
 10
148.00435921829549
 20
54.330257102410883
 30
0.0
  0
VERTEX
  5
2763
  8
0
 10
148.040535428037
 20
54.291263182677817
 30
0.0
  0
VERTEX
  5
2764
  8
0
 10
148.0585261087339
 20
54.272235066849987
 30
0.0
  0
VERTEX
  5
2765
  8
0
 10
148.07645032052801
 20
54.253524167967157
 30
0.0
  0
VERTEX
  5
2766
  8
0
 10
148.11209478997799
 20
54.217067919018859
 30
0.0
  0
VERTEX
  5
2767
  8
0
 10
148.1474597625859
 20
54.181922115458207
 30
0.0
  0
VERTEX
  5
2768
  8
0
 10
148.18253620260481
 20
54.148114239115841
 30
0.0
  0
VERTEX
  5
2769
  8
0
 10
148.21731511904551
 20
54.115671557682191
 30
0.0
  0
VERTEX
  5
276A
  8
0
 10
148.25178757296371
 20
54.084621109032689
 30
0.0
  0
VERTEX
  5
276B
  8
0
 10
148.2689060992399
 20
54.069626354832991
 30
0.0
  0
VERTEX
  5
276C
  8
0
 10
148.2859446894991
 20
54.054989682989849
 30
0.0
  0
VERTEX
  5
276D
  8
0
 10
148.31977769295739
 20
54.026803786981993
 30
0.0
  0
VERTEX
  5
276E
  8
0
 10
148.35327781196619
 20
54.000089720999313
 30
0.0
  0
VERTEX
  5
276F
  8
0
 10
148.38643621971681
 20
53.974873606314532
 30
0.0
  0
VERTEX
  5
2770
  8
0
 10
148.41924404259859
 20
53.951181351533791
 30
0.0
  0
VERTEX
  5
2771
  8
0
 10
148.45169237150421
 20
53.929038616976932
 30
0.0
  0
VERTEX
  5
2772
  8
0
 10
148.46777893502369
 20
53.918556261951153
 30
0.0
  0
VERTEX
  5
2773
  8
0
 10
148.4837722745809
 20
53.908470778994847
 30
0.0
  0
VERTEX
  5
2774
  8
0
 10
148.5154748113182
 20
53.889502894889922
 30
0.0
  0
VERTEX
  5
2775
  8
0
 10
148.54679104780249
 20
53.872159669180462
 30
0.0
  0
VERTEX
  5
2776
  8
0
 10
148.57771207292299
 20
53.856465422011553
 30
0.0
  0
VERTEX
  5
2777
  8
0
 10
148.60822901525151
 20
53.842444060554378
 30
0.0
  0
VERTEX
  5
2778
  8
0
 10
148.6383330602722
 20
53.830119054255697
 30
0.0
  0
VERTEX
  5
2779
  8
0
 10
148.65322751155881
 20
53.824599893758311
 30
0.0
  0
VERTEX
  5
277A
  8
0
 10
148.66801546758589
 20
53.819513414785519
 30
0.0
  0
VERTEX
  5
277B
  8
0
 10
148.6972675876757
 20
53.810649681489963
 30
0.0
  0
VERTEX
  5
277C
  8
0
 10
148.7260808777902
 20
53.803549913077511
 30
0.0
  0
VERTEX
  5
277D
  8
0
 10
148.74032032480449
 20
53.80066827711601
 30
0.0
  0
VERTEX
  5
277E
  8
0
 10
148.7544469164863
 20
53.798235686156829
 30
0.0
  0
VERTEX
  5
277F
  8
0
 10
148.78235741636999
 20
53.794728101098713
 30
0.0
  0
VERTEX
  5
2780
  8
0
 10
148.80980423459101
 20
53.793047795520117
 30
0.0
  0
VERTEX
  5
2781
  8
0
 10
148.82335048940979
 20
53.792899195567543
 30
0.0
  0
VERTEX
  5
2782
  8
0
 10
148.8367463668601
 20
53.793213611719409
 30
0.0
  0
VERTEX
  5
2783
  8
0
 10
148.86304013661729
 20
53.795222859109003
 30
0.0
  0
VERTEX
  5
2784
  8
0
 10
148.88867349762751
 20
53.799055720953668
 30
0.0
  0
VERTEX
  5
2785
  8
0
 10
148.91365071525681
 20
53.804691478048653
 30
0.0
  0
VERTEX
  5
2786
  8
0
 10
148.93797605526379
 20
53.812108945451307
 30
0.0
  0
VERTEX
  5
2787
  8
0
 10
148.96165380820921
 20
53.8212864603762
 30
0.0
  0
VERTEX
  5
2788
  8
0
 10
148.9732511925923
 20
53.826528334115316
 30
0.0
  0
VERTEX
  5
2789
  8
0
 10
148.98468831149381
 20
53.832201877672993
 30
0.0
  0
VERTEX
  5
278A
  8
0
 10
149.0070839687732
 20
53.844832572555809
 30
0.0
  0
VERTEX
  5
278B
  8
0
 10
149.02884526658011
 20
53.859155450083051
 30
0.0
  0
VERTEX
  5
278C
  8
0
 10
149.04997678807609
 20
53.875146960747308
 30
0.0
  0
VERTEX
  5
278D
  8
0
 10
149.07048322392731
 20
53.892783121430568
 30
0.0
  0
VERTEX
  5
278E
  8
0
 10
149.09036938037909
 20
53.912039540908069
 30
0.0
  0
VERTEX
  5
278F
  8
0
 10
149.10008138876771
 20
53.922267620969002
 30
0.0
  0
VERTEX
  5
2790
  8
0
 10
149.10964018466171
 20
53.93289144904719
 30
0.0
  0
VERTEX
  5
2791
  8
0
 10
149.1283006879143
 20
53.955313728842782
 30
0.0
  0
VERTEX
  5
2792
  8
0
 10
149.14635606585301
 20
53.979280950450708
 30
0.0
  0
VERTEX
  5
2793
  8
0
 10
149.16381161743709
 20
54.00476740642813
 30
0.0
  0
VERTEX
  5
2794
  8
0
 10
149.1806727618044
 20
54.03174714745154
 30
0.0
  0
VERTEX
  5
2795
  8
0
 10
149.19694503375331
 20
54.06019401786093
 30
0.0
  0
VERTEX
  5
2796
  8
0
 10
149.2048621024382
 20
54.074959405107762
 30
0.0
  0
VERTEX
  5
2797
  8
0
 10
149.21263407626981
 20
54.090081686934688
 30
0.0
  0
VERTEX
  5
2798
  8
0
 10
149.2277455955234
 20
54.121383598080108
 30
0.0
  0
VERTEX
  5
2799
  8
0
 10
149.24228533244289
 20
54.15407291445802
 30
0.0
  0
VERTEX
  5
279A
  8
0
 10
149.2562590832392
 20
54.188122555899547
 30
0.0
  0
VERTEX
  5
279B
  8
0
 10
149.26967270496621
 20
54.223505215163918
 30
0.0
  0
VERTEX
  5
279C
  8
0
 10
149.2825321190906
 20
54.260193373760181
 30
0.0
  0
VERTEX
  5
279D
  8
0
 10
149.2887558670065
 20
54.279018362051723
 30
0.0
  0
VERTEX
  5
279E
  8
0
 10
149.29484331398589
 20
54.298159318376293
 30
0.0
  0
VERTEX
  5
279F
  8
0
 10
149.30661234649421
 20
54.337375157586727
 30
0.0
  0
VERTEX
  5
27A0
  8
0
 10
149.31784534269241
 20
54.377812838557361
 30
0.0
  0
VERTEX
  5
27A1
  8
0
 10
149.32854849799349
 20
54.419444163508267
 30
0.0
  0
VERTEX
  5
27A2
  8
0
 10
149.3387280767036
 20
54.46224080574018
 30
0.0
  0
VERTEX
  5
27A3
  8
0
 10
149.34839041114549
 20
54.506174325068883
 30
0.0
  0
VERTEX
  5
27A4
  8
0
 10
149.35302960892261
 20
54.52855849869507
 30
0.0
  0
VERTEX
  5
27A5
  8
0
 10
149.35754190044821
 20
54.551216182547591
 30
0.0
  0
VERTEX
  5
27A6
  8
0
 10
149.36618900909039
 20
54.59733775439139
 30
0.0
  0
VERTEX
  5
27A7
  8
0
 10
149.37433826527419
 20
54.644510345044438
 30
0.0
  0
VERTEX
  5
27A8
  8
0
 10
149.37822825575719
 20
54.66848178845359
 30
0.0
  0
VERTEX
  5
27A9
  8
0
 10
149.38199625919509
 20
54.692705199356851
 30
0.0
  0
VERTEX
  5
27AA
  8
0
 10
149.38916964126301
 20
54.741893513857242
 30
0.0
  0
VERTEX
  5
27AB
  8
0
 10
149.39586512032039
 20
54.792046447125188
 30
0.0
  0
VERTEX
  5
27AC
  8
0
 10
149.3990357582876
 20
54.817475624892431
 30
0.0
  0
VERTEX
  5
27AD
  8
0
 10
149.40208951016331
 20
54.843135544582992
 30
0.0
  0
VERTEX
  5
27AE
  8
0
 10
149.40784989043979
 20
54.895134500847519
 30
0.0
  0
VERTEX
  5
27AF
  8
0
 10
149.41315311722431
 20
54.948015185994201
 30
0.0
  0
VERTEX
  5
27B0
  8
0
 10
149.42821365911951
 20
55.139628897125363
 30
0.0
  0
VERTEX
  5
27B1
  8
0
 10
149.44206161879481
 20
55.488892571616873
 30
0.0
  0
VERTEX
  5
27B2
  8
0
 10
149.44371859548971
 20
55.671758043533913
 30
0.0
  0
SEQEND
  5
27B3
  8
0
  0
LINE
  5
18E0
  8
0
 10
187.089751797698
 20
49.346418594202987
 30
0.0
 11
150.089751797698
 21
49.346418594202987
 31
0.0
  0
LINE
  5
18EF
  8
0
 10
181.65849602562199
 20
87.918052432324544
 30
0.0
 11
155.52100756977401
 21
87.918052432324544
 31
0.0
  0
LINE
  5
18F1
  8
0
 10
181.7999173818593
 20
87.885936543015532
 30
0.0
 11
155.3795862135367
 21
87.885936543015532
 31
0.0
  0
LINE
  5
18F2
  8
0
 10
187.089751797698
 20
29.646418594202999
 30
0.0
 11
150.089751797698
 21
29.646418594202999
 31
0.0
  0
LINE
  5
18F3
  8
0
 10
176.339751797698
 20
29.346418594202991
 30
0.0
 11
160.839751797698
 21
29.346418594202991
 31
0.0
  0
LINE
  5
18F4
  8
2
 10
171.913251797698
 20
48.669918594202983
 30
0.0
 11
172.589751797698
 21
49.346418594202987
 31
0.0
  0
LINE
  5
18F5
  8
2
 10
164.589751797698
 20
49.346418594202987
 30
0.0
 11
165.266251797698
 21
48.669918594202983
 31
0.0
  0
LINE
  5
18F6
  8
2
 10
171.913251797698
 20
30.022918594202991
 30
0.0
 11
171.913251797698
 21
48.669918594203011
 31
0.0
  0
LINE
  5
18F7
  8
2
 10
165.266251797698
 20
48.669918594203011
 30
0.0
 11
165.266251797698
 21
30.022918594202991
 31
0.0
  0
LINE
  5
18F8
  8
2
 10
172.589751797698
 20
29.346418594202991
 30
0.0
 11
171.913251797698
 21
30.022918594202991
 31
0.0
  0
LINE
  5
18F9
  8
2
 10
165.266251797698
 20
30.022918594202991
 30
0.0
 11
164.589751797698
 21
29.346418594202991
 31
0.0
  0
LINE
  5
18FC
  8
0
 10
187.089751797698
 20
49.346418594202987
 30
0.0
 11
190.55950679579601
 21
56.03859314760296
 31
0.0
  0
LINE
  5
18FD
  8
0
 10
146.61999679959999
 20
56.03859314760296
 30
0.0
 11
150.089751797698
 21
49.346418594202987
 31
0.0
  0
ARC
  5
18FE
  8
0
 10
166.589751797698
 20
68.466418594203034
 30
0.0
 40
26.999999999999979
 50
332.5941886294803
 51
348.75579258903412
  0
ARC
  5
18FF
  8
0
 10
166.58975179769831
 20
68.466418594203148
 30
0.0
 40
26.999999999999751
 50
11.244207410964281
 51
28.86542273837404
  0
ARC
  5
1900
  8
0
 10
170.5897517976982
 20
68.466418594202977
 30
0.0
 40
27.000000000000249
 50
151.13457726162591
 51
171.22396227114089
  0
ARC
  5
1901
  8
0
 10
170.58975179769811
 20
68.466418594203091
 30
0.0
 40
27.000000000000121
 50
188.77603772885911
 51
207.4058113705197
  0
ARC
  5
1902
  8
0
 10
168.589751797698
 20
28.846418594203101
 30
0.0
 40
60.499999999999901
 50
77.525076436103248
 51
102.4749235638967
  0
LINE
  5
1903
  8
0
 10
181.69195961722079
 20
87.884588840725712
 30
0.0
 11
181.65849602562199
 21
87.918052432324544
 31
0.0
  0
LINE
  5
1906
  8
0
 10
155.52100756977401
 20
87.918052432324544
 30
0.0
 11
155.4875439781753
 21
87.884588840725712
 31
0.0
  0
ARC
  5
1909
  8
0
 10
158.32916748651809
 20
75.224974086942879
 30
0.0
 40
13.00000000000019
 50
103.1140929079103
 51
151.13457726162551
  0
ARC
  5
190A
  8
0
 10
178.85033610887791
 20
75.224974086942879
 30
0.0
 40
13.00000000000014
 50
28.865422738374441
 51
76.885907092089695
  0
LINE
  5
190B
  8
0
 10
187.089751797698
 20
29.646418594202999
 30
0.0
 11
187.089751797698
 21
49.346418594202987
 31
0.0
  0
LINE
  5
190C
  8
0
 10
150.089751797698
 20
49.346418594202987
 30
0.0
 11
150.089751797698
 21
29.646418594202999
 31
0.0
  0
LINE
  5
190D
  8
0
 10
176.339751797698
 20
29.346418594202991
 30
0.0
 11
176.339751797698
 21
29.646418594202999
 31
0.0
  0
LINE
  5
190E
  8
0
 10
160.839751797698
 20
29.646418594202999
 30
0.0
 11
160.839751797698
 21
29.346418594202991
 31
0.0
  0
LINE
  5
1936
  8
0
 10
176.12030937268511
 20
177.67983757601209
 30
0.0
 11
189.01677997827539
 21
168.2540566469863
 31
0.0
  0
LINE
  5
1937
  8
0
 10
193.58891436821139
 20
154.04561246619329
 30
0.0
 11
188.60969257907519
 21
138.86761356721351
 31
0.0
  0
LINE
  5
1938
  8
0
 10
176.49386998716551
 20
130.14164890969329
 30
0.0
 11
160.53572747277201
 21
130.17386637504251
 31
0.0
  0
LINE
  5
1939
  8
0
 10
148.48527910325649
 20
138.98130601502831
 30
0.0
 11
143.592150237298
 21
154.1872782004549
 31
0.0
  0
LINE
  5
193A
  8
0
 10
148.24472976276459
 20
168.36958417224781
 30
0.0
 11
161.19440872106949
 21
177.7221300865792
 31
0.0
  0
TEXT
  5
1AC7
  8
0
 62
     3
 10
0.0
 20
0.0
 30
0.0
 40
10.0
  1
EBG50-SOFT-OG
  7
STANDARD1
  0
ENDSEC
  0
EOF
