  0
SECTION
  2
HEADER
  9
$ACADVER
  1
AC1009
  9
$INSBASE
 10
0.0
 20
0.0
 30
0.0
  9
$EXTMIN
 10
0.0
 20
-2.960436562073669
 30
0.0
  9
$EXTMAX
 10
546.34318671786389
 20
377.5
 30
0.0
  9
$LIMMIN
 10
0.0
 20
0.0
  9
$LIMMAX
 10
375.0
 20
270.0
  9
$ORTHOMODE
 70
     1
  9
$REGENMODE
 70
     1
  9
$FILLMODE
 70
     1
  9
$QTEXTMODE
 70
     0
  9
$MIRRTEXT
 70
     0
  9
$DRAGMODE
 70
     2
  9
$LTSCALE
 40
10.0
  9
$OSMODE
 70
    37
  9
$ATTMODE
 70
     1
  9
$TEXTSIZE
 40
0.2
  9
$TRACEWID
 40
0.05
  9
$TEXTSTYLE
  7
STANDARD
  9
$CLAYER
  8
0
  9
$CELTYPE
  6
BYLAYER
  9
$CECOLOR
 62
   256
  9
$DIMSCALE
 40
1.0
  9
$DIMASZ
 40
3.0
  9
$DIMEXO
 40
1.0
  9
$DIMDLI
 40
0.38
  9
$DIMRND
 40
0.0
  9
$DIMDLE
 40
0.0
  9
$DIMEXE
 40
1.0
  9
$DIMTP
 40
0.0
  9
$DIMTM
 40
0.0
  9
$DIMTXT
 40
3.0
  9
$DIMCEN
 40
0.0
  9
$DIMTSZ
 40
0.0
  9
$DIMTOL
 70
     0
  9
$DIMLIM
 70
     0
  9
$DIMTIH
 70
     0
  9
$DIMTOH
 70
     0
  9
$DIMSE1
 70
     0
  9
$DIMSE2
 70
     0
  9
$DIMTAD
 70
     1
  9
$DIMZIN
 70
     0
  9
$DIMBLK
  1

  9
$DIMASO
 70
     1
  9
$DIMSHO
 70
     1
  9
$DIMPOST
  1

  9
$DIMAPOST
  1

  9
$DIMALT
 70
     0
  9
$DIMALTD
 70
     2
  9
$DIMALTF
 40
25.399999999999999
  9
$DIMLFAC
 40
1.0
  9
$DIMTOFL
 70
     0
  9
$DIMTVP
 40
0.0
  9
$DIMTIX
 70
     0
  9
$DIMSOXD
 70
     0
  9
$DIMSAH
 70
     0
  9
$DIMBLK1
  1

  9
$DIMBLK2
  1

  9
$DIMSTYLE
  2
STANDARD
  9
$DIMCLRD
 70
     0
  9
$DIMCLRE
 70
     0
  9
$DIMCLRT
 70
     0
  9
$DIMTFAC
 40
1.0
  9
$DIMGAP
 40
0.5
  9
$LUNITS
 70
     2
  9
$LUPREC
 70
     4
  9
$SKETCHINC
 40
0.1
  9
$FILLETRAD
 40
3.0
  9
$AUNITS
 70
     0
  9
$AUPREC
 70
     0
  9
$MENU
  1
E:\r13\win\SUPPORT\ACAD
  9
$ELEVATION
 40
0.0
  9
$PELEVATION
 40
0.0
  9
$THICKNESS
 40
0.0
  9
$LIMCHECK
 70
     0
  9
$BLIPMODE
 70
     0
  9
$CHAMFERA
 40
0.0
  9
$CHAMFERB
 40
0.0
  9
$SKPOLY
 70
     0
  9
$TDCREATE
 40
2450382.6131366901
  9
$TDUPDATE
 40
2456689.4365252429
  9
$TDINDWG
 40
0.1014113542
  9
$TDUSRTIMER
 40
2456688.2757700919
  9
$USRTIMER
 70
     1
  9
$ANGBASE
 50
0.0
  9
$ANGDIR
 70
     0
  9
$PDMODE
 70
     0
  9
$PDSIZE
 40
0.0
  9
$PLINEWID
 40
0.0
  9
$COORDS
 70
     1
  9
$SPLFRAME
 70
     0
  9
$SPLINETYPE
 70
     6
  9
$SPLINESEGS
 70
     8
  9
$ATTDIA
 70
     0
  9
$ATTREQ
 70
     1
  9
$HANDLING
 70
     1
  9
$HANDSEED
  5
BF4
  9
$SURFTAB1
 70
     6
  9
$SURFTAB2
 70
     6
  9
$SURFTYPE
 70
     6
  9
$SURFU
 70
     6
  9
$SURFV
 70
     6
  9
$UCSNAME
  2

  9
$UCSORG
 10
0.0
 20
0.0
 30
0.0
  9
$UCSXDIR
 10
1.0
 20
0.0
 30
0.0
  9
$UCSYDIR
 10
0.0
 20
1.0
 30
0.0
  9
$PUCSNAME
  2

  9
$PUCSORG
 10
0.0
 20
0.0
 30
0.0
  9
$PUCSXDIR
 10
1.0
 20
0.0
 30
0.0
  9
$PUCSYDIR
 10
0.0
 20
1.0
 30
0.0
  9
$USERI1
 70
     3
  9
$USERI2
 70
     1
  9
$USERI3
 70
     1
  9
$USERI4
 70
     0
  9
$USERI5
 70
     0
  9
$USERR1
 40
1.0
  9
$USERR2
 40
3.0
  9
$USERR3
 40
3.0
  9
$USERR4
 40
3.0
  9
$USERR5
 40
10.0
  9
$WORLDVIEW
 70
     1
  9
$SHADEDGE
 70
     3
  9
$SHADEDIF
 70
    70
  9
$TILEMODE
 70
     1
  9
$MAXACTVP
 70
    16
  9
$PLIMCHECK
 70
     0
  9
$PEXTMIN
 10
1.0000000000000000E+020
 20
1.0000000000000000E+020
 30
1.0000000000000000E+020
  9
$PEXTMAX
 10
-1.0000000000000000E+020
 20
-1.0000000000000000E+020
 30
-1.0000000000000000E+020
  9
$PLIMMIN
 10
0.0
 20
0.0
  9
$PLIMMAX
 10
12.0
 20
9.0
  9
$UNITMODE
 70
     0
  9
$VISRETAIN
 70
     0
  9
$PLINEGEN
 70
     0
  9
$PSLTSCALE
 70
     0
  0
ENDSEC
  0
SECTION
  2
TABLES
  0
TABLE
  2
VPORT
 70
     1
  0
VPORT
  2
*ACTIVE
 70
     0
 10
0.0
 20
0.0
 11
1.0
 21
1.0
 12
693.90574539582803
 22
291.48391812865498
 13
0.0
 23
0.0
 14
5.0
 24
5.0
 15
0.0
 25
0.0
 16
0.0
 26
0.0
 36
1.0
 17
0.0
 27
0.0
 37
0.0
 40
582.96783625730984
 41
2.3805970149253728
 42
50.0
 43
0.0
 44
0.0
 50
0.0
 51
0.0
 71
    16
 72
   100
 73
     1
 74
     0
 75
     0
 76
     0
 77
     0
 78
     0
  0
ENDTAB
  0
TABLE
  2
LTYPE
 70
     4
  0
LTYPE
  2
CONTINUOUS
 70
     0
  3
Solid Line
 72
    65
 73
     0
 40
0.0
  0
LTYPE
  2
CENTER
 70
     0
  3
____ _ ____ _ ____ _ ____ _ ____ _ ____ _ ____
 72
    65
 73
     4
 40
2.0
 49
1.25
 49
-0.25
 49
0.25
 49
-0.25
  0
LTYPE
  2
HIDDEN
 70
     0
  3
_ _ _ _ _ _ _ _ _ _ _ _ _ _ _ _ _ _ _ _ _ _ _
 72
    65
 73
     2
 40
0.375
 49
0.25
 49
-0.125
  0
LTYPE
  2
PHANTOM2
 70
     0
  3
___ _ _ ___ _ _ ___ _ _ ___ _ _
 72
    65
 73
     6
 40
1.25
 49
0.625
 49
-0.125
 49
0.125
 49
-0.125
 49
0.125
 49
-0.125
  0
ENDTAB
  0
TABLE
  2
LAYER
 70
     4
  0
LAYER
  2
0
 70
     0
 62
     7
  6
CONTINUOUS
  0
LAYER
  2
1
 70
     0
 62
     1
  6
CENTER
  0
LAYER
  2
2
 70
     0
 62
     2
  6
HIDDEN
  0
LAYER
  2
3
 70
     0
 62
     3
  6
CONTINUOUS
  0
ENDTAB
  0
TABLE
  2
STYLE
 70
     2
  0
STYLE
  2
STANDARD
 70
     0
 40
0.0
 41
1.0
 50
0.0
 71
     0
 42
0.2
  3
SIMPLEX
  4
BIGFONT
  0
STYLE
  2
STANDARD1
 70
     0
 40
0.0
 41
1.0
 50
0.0
 71
     0
 42
3.0
  3
txt
  4

  0
ENDTAB
  0
TABLE
  2
VIEW
 70
     0
  0
ENDTAB
  0
TABLE
  2
UCS
 70
     0
  0
ENDTAB
  0
TABLE
  2
APPID
 70
     6
  0
APPID
  2
ACAD
 70
     0
  0
APPID
  2
ACAD_EXEMPT_FROM_CAD_STANDARDS
 70
     0
  0
APPID
  2
ACAD_DSTYLE_DIMJAG
 70
     0
  0
APPID
  2
ACAD_DSTYLE_DIMTALN
 70
     0
  0
APPID
  2
ACAD_MLEADERVER
 70
     0
  0
APPID
  2
ACAD_NAV_VCDISPLAY
 70
     0
  0
ENDTAB
  0
TABLE
  2
DIMSTYLE
 70
     1
  0
DIMSTYLE
  2
STANDARD
 70
     0
  3

  4

  5

  6

  7

 40
1.0
 41
0.18
 42
0.0625
 43
0.38
 44
0.18
 45
0.0
 46
0.0
 47
0.0
 48
0.0
140
0.18
141
0.09
142
0.0
143
25.399999999999999
144
1.0
145
0.0
146
1.0
147
0.09
 71
     0
 72
     0
 73
     1
 74
     1
 75
     0
 76
     0
 77
     0
 78
     0
170
     0
171
     2
172
     0
173
     0
174
     0
175
     0
176
     0
177
     0
178
     0
  0
ENDTAB
  0
ENDSEC
  0
SECTION
  2
BLOCKS
  0
BLOCK
  8
0
  2
$MODEL_SPACE
 70
     0
 10
0.0
 20
0.0
 30
0.0
  3
$MODEL_SPACE
  1

  0
ENDBLK
  5
15A
  8
0
  0
BLOCK
 67
     1
  8
0
  2
$PAPER_SPACE
 70
     0
 10
0.0
 20
0.0
 30
0.0
  3
$PAPER_SPACE
  1

  0
ENDBLK
  5
158
 67
     1
  8
0
  0
ENDSEC
  0
SECTION
  2
ENTITIES
  0
LINE
  5
2B2
  8
1
 10
258.32595230419832
 20
355.0
 30
0.0
 11
429.82595230419798
 21
355.00000000000023
 31
0.0
  0
LINE
  5
2B3
  8
1
 10
280.82595230419832
 20
332.5
 30
0.0
 11
280.82595230419832
 21
377.5
 31
0.0
  0
LINE
  5
2B9
  8
0
 10
407.89829336857252
 20
337.5
 30
0.0
 11
280.82595230419832
 21
337.5
 31
0.0
  0
LINE
  5
2BF
  8
0
 10
407.89829336856849
 20
372.5
 30
0.0
 11
280.82595230419832
 21
372.5
 31
0.0
  0
CIRCLE
  5
2C1
  8
0
 10
280.82595230419832
 20
355.0
 30
0.0
 40
17.500000000000011
  0
LINE
  5
2D1
  8
1
 10
406.8259523041981
 20
332.49999999999989
 30
0.0
 11
406.8259523041981
 21
377.5
 31
0.0
  0
ARC
  5
35D
  8
0
 10
148.74916091571879
 20
144.5
 30
0.0
 40
17.500000000000011
 50
0.0
 51
180.0
  0
LINE
  5
35E
  8
0
 10
164.74916091571879
 20
143.69999999999999
 30
0.0
 11
164.74916091571879
 21
144.5
 31
0.0
  0
LINE
  5
35F
  8
0
 10
132.74916091571879
 20
144.5
 30
0.0
 11
132.74916091571879
 21
143.69999999999999
 31
0.0
  0
LINE
  5
360
  8
0
 10
162.74916091571879
 20
101.0
 30
0.0
 11
162.74916091571879
 21
114.0
 31
0.0
  0
LINE
  5
361
  8
0
 10
134.74916091571879
 20
114.0
 30
0.0
 11
134.74916091571879
 21
101.0
 31
0.0
  0
LINE
  5
362
  8
0
 10
161.74916091571879
 20
100.0
 30
0.0
 11
162.74916091571879
 21
101.0
 31
0.0
  0
LINE
  5
363
  8
0
 10
134.74916091571879
 20
101.0
 30
0.0
 11
135.74916091571879
 21
100.0
 31
0.0
  0
LINE
  5
365
  8
0
 10
166.2491609157189
 20
143.69999999999999
 30
0.0
 11
166.24916091571879
 21
115.5
 31
0.0
  0
LINE
  5
366
  8
0
 10
131.24916091571879
 20
143.6999999999999
 30
0.0
 11
131.24916091571879
 21
115.5
 31
0.0
  0
LINE
  5
367
  8
0
 10
164.74916091571879
 20
114.0
 30
0.0
 11
132.74916091571879
 21
114.0
 31
0.0
  0
LINE
  5
368
  8
0
 10
131.24916091571879
 20
144.5
 30
0.0
 11
166.24916091571879
 21
144.5
 31
0.0
  0
LINE
  5
369
  8
0
 10
134.74916091571879
 20
101.0
 30
0.0
 11
162.74916091571879
 21
101.0
 31
0.0
  0
LINE
  5
36A
  8
0
 10
135.74916091571879
 20
100.0
 30
0.0
 11
161.74916091571879
 21
100.0
 31
0.0
  0
LINE
  5
36B
  8
0
 10
131.2491609157189
 20
143.69999999999999
 30
0.0
 11
166.24916091571879
 21
143.69999999999999
 31
0.0
  0
ARC
  5
36C
  8
0
 10
132.74916091571879
 20
115.5
 30
0.0
 40
1.5000000000000031
 50
180.0
 51
270.0
  0
ARC
  5
36E
  8
0
 10
164.74916091571879
 20
115.5
 30
0.0
 40
1.5
 50
270.0
 51
0.0
  0
LINE
  5
389
  8
1
 10
148.74916091571879
 20
217.5
 30
0.0
 11
148.7491609157189
 21
95.0
 31
0.0
  0
LINE
  5
420
  8
0
 10
544.84318671786355
 20
143.69999999999999
 30
0.0
 11
544.84318671786355
 21
144.5
 31
0.0
  0
LINE
  5
421
  8
0
 10
512.84318671786389
 20
144.5
 30
0.0
 11
512.84318671786389
 21
143.69999999999999
 31
0.0
  0
LINE
  5
422
  8
0
 10
542.84318671786377
 20
101.0
 30
0.0
 11
542.84318671786377
 21
114.0
 31
0.0
  0
LINE
  5
423
  8
0
 10
514.84318671786355
 20
114.0
 30
0.0
 11
514.84318671786355
 21
101.0
 31
0.0
  0
LINE
  5
424
  8
0
 10
541.84318671786389
 20
100.0
 30
0.0
 11
542.84318671786377
 21
101.0
 31
0.0
  0
LINE
  5
425
  8
0
 10
514.84318671786355
 20
101.0
 30
0.0
 11
515.84318671786355
 21
100.0
 31
0.0
  0
LINE
  5
427
  8
0
 10
511.34318671786372
 20
143.6899999999992
 30
0.0
 11
519.59318671786377
 21
143.6899999999992
 31
0.0
  0
LINE
  5
42A
  8
0
 10
546.34318671786389
 20
115.0
 30
0.0
 11
546.34318671786389
 21
143.6899999999992
 31
0.0
  0
LINE
  5
42D
  8
0
 10
514.34318671786355
 20
132.5
 30
0.0
 11
543.34318671786366
 21
132.5
 31
0.0
  0
LINE
  5
42F
  8
0
 10
511.34318671786372
 20
115.0
 30
0.0
 11
511.343186717864
 21
143.6899999999992
 31
0.0
  0
LINE
  5
433
  8
0
 10
538.09318671786355
 20
143.6899999999992
 30
0.0
 11
546.34318671786389
 21
143.6899999999992
 31
0.0
  0
LINE
  5
434
  8
0
 10
545.34318671786355
 20
114.0
 30
0.0
 11
512.34318671786355
 21
114.0
 31
0.0
  0
LINE
  5
435
  8
0
 10
538.09318671786355
 20
144.5
 30
0.0
 11
546.34318671786389
 21
144.5
 31
0.0
  0
LINE
  5
436
  8
0
 10
511.34318671786372
 20
144.5
 30
0.0
 11
519.59318671786377
 21
144.5
 31
0.0
  0
LINE
  5
437
  8
0
 10
514.84318671786355
 20
101.0
 30
0.0
 11
542.84318671786377
 21
101.0
 31
0.0
  0
LINE
  5
438
  8
0
 10
515.84318671786355
 20
100.0
 30
0.0
 11
541.84318671786389
 21
100.0
 31
0.0
  0
LINE
  5
44C
  8
1
 10
528.84318671786355
 20
217.5
 30
0.0
 11
528.84318671786355
 21
95.0
 31
0.0
  0
ARC
  5
4BD
  8
2
 10
280.82595230419832
 20
144.75
 30
0.0
 40
13.25
 50
0.0
 51
180.0
  0
LINE
  5
4BE
  8
2
 10
294.07595230419821
 20
138.0999999999998
 30
0.0
 11
294.07595230419821
 21
144.75
 31
0.0
  0
LINE
  5
4BF
  8
2
 10
267.57595230419849
 20
144.75
 30
0.0
 11
267.5759523041981
 21
138.0999999999998
 31
0.0
  0
LINE
  5
4C2
  8
2
 10
287.82595230419821
 20
100.0
 30
0.0
 11
287.82595230419821
 21
140.0
 31
0.0
  0
LINE
  5
4C3
  8
2
 10
273.8259523041981
 20
140.0
 30
0.0
 11
273.82595230419832
 21
100.0
 31
0.0
  0
LINE
  5
4CD
  8
2
 10
266.57595230419832
 20
139.99999999999989
 30
0.0
 11
295.0759523041981
 21
140.0
 31
0.0
  0
LINE
  5
4D3
  8
1
 10
280.82595230419832
 20
167.0
 30
0.0
 11
280.82595230419821
 21
95.0
 31
0.0
  0
ARC
  5
4D6
  8
0
 10
280.82595230419832
 20
144.5
 30
0.0
 40
17.500000000000011
 50
0.0
 51
180.0
  0
LINE
  5
4D7
  8
0
 10
296.82595230419832
 20
143.69999999999999
 30
0.0
 11
296.82595230419832
 21
144.5
 31
0.0
  0
LINE
  5
4D8
  8
0
 10
264.82595230419821
 20
144.5
 30
0.0
 11
264.82595230419821
 21
143.69999999999999
 31
0.0
  0
LINE
  5
4D9
  8
0
 10
294.82595230419832
 20
101.0
 30
0.0
 11
294.82595230419832
 21
114.0
 31
0.0
  0
LINE
  5
4DA
  8
0
 10
266.82595230419821
 20
114.0
 30
0.0
 11
266.82595230419821
 21
101.0
 31
0.0
  0
LINE
  5
4DB
  8
0
 10
293.82595230419832
 20
100.0
 30
0.0
 11
294.82595230419832
 21
101.0
 31
0.0
  0
LINE
  5
4DC
  8
0
 10
266.82595230419821
 20
101.0
 30
0.0
 11
267.82595230419832
 21
100.0
 31
0.0
  0
LINE
  5
4DD
  8
0
 10
298.32595230419832
 20
142.96289199806051
 30
0.0
 11
298.32595230419832
 21
143.69999999999999
 31
0.0
  0
LINE
  5
4DE
  8
0
 10
263.32595230419832
 20
143.69999999999999
 30
0.0
 11
263.32595230419832
 21
115.5
 31
0.0
  0
ARC
  5
4DF
  8
0
 10
264.82595230419821
 20
115.5
 30
0.0
 40
1.5
 50
180.0
 51
270.0
  0
ARC
  5
4E2
  8
0
 10
405.34247596932278
 20
666.88392551088475
 30
0.0
 40
534.7389883807931
 50
258.45552522317519
 51
267.91193810341662
  0
LINE
  5
4E3
  8
0
 10
421.8259523041981
 20
132.5
 30
0.0
 11
385.85899963445843
 21
132.5
 31
0.0
  0
LINE
  5
4E6
  8
0
 10
424.82595230419832
 20
129.5
 30
0.0
 11
424.82595230419832
 21
115.0
 31
0.0
  0
LINE
  5
4E8
  8
0
 10
423.8259523041981
 20
114.0
 30
0.0
 11
264.82595230419821
 21
114.0
 31
0.0
  0
LINE
  5
4E9
  8
0
 10
263.32595230419832
 20
144.5
 30
0.0
 11
298.32595230419832
 21
144.5
 31
0.0
  0
LINE
  5
4EA
  8
0
 10
266.82595230419821
 20
101.0
 30
0.0
 11
294.82595230419832
 21
101.0
 31
0.0
  0
LINE
  5
4EB
  8
0
 10
267.82595230419832
 20
100.0
 30
0.0
 11
293.82595230419832
 21
100.0
 31
0.0
  0
LINE
  5
4EC
  8
0
 10
263.32595230419832
 20
143.69999999999999
 30
0.0
 11
298.32595230419832
 21
143.69999999999999
 31
0.0
  0
LINE
  5
501
  8
1
 10
406.8259523041981
 20
217.5
 30
0.0
 11
406.8259523041981
 21
127.5
 31
0.0
  0
CIRCLE
  5
67A
  8
0
 10
280.82595230419832
 20
355.0
 30
0.0
 40
1.5
  0
CIRCLE
  5
67B
  8
0
 10
285.82595230419832
 20
355.0
 30
0.0
 40
1.5
  0
CIRCLE
  5
67C
  8
0
 10
290.82595230419832
 20
355.0
 30
0.0
 40
1.5
  0
CIRCLE
  5
67D
  8
0
 10
270.82595230419832
 20
355.0
 30
0.0
 40
1.5
  0
CIRCLE
  5
67E
  8
0
 10
275.82595230419832
 20
355.0
 30
0.0
 40
1.5
  0
ARC
  5
688
  8
0
 10
407.31627659253547
 20
354.99999999999977
 30
0.0
 40
17.509675711662592
 50
271.90484673907707
 51
88.095153260935945
  0
ARC
  5
703
  8
0
 10
423.82547869430721
 20
115.0004736098912
 30
0.0
 40
1.0004737219911251
 50
269.97287702077767
 51
0.0271230048930864
  0
ARC
  5
704
  8
0
 10
421.82595230419798
 20
129.49999999999989
 30
0.0
 40
3.000000000000028
 50
0.0
 51
90.0
  0
ARC
  5
705
  8
0
 10
512.34318671786355
 20
115.0
 30
0.0
 40
1.0
 50
180.0
 51
270.0
  0
ARC
  5
706
  8
0
 10
545.34318671786355
 20
115.0
 30
0.0
 40
1.0
 50
270.0
 51
0.0
  0
ARC
  5
709
  8
0
 10
514.34318671786355
 20
129.5
 30
0.0
 40
3.0
 50
90.0
 51
180.0
  0
ARC
  5
70A
  8
0
 10
543.34318671786366
 20
129.5
 30
0.0
 40
3.0
 50
0.0
 51
90.0
  0
LINE
  5
770
  8
2
 10
295.07595230419838
 20
143.1999999999999
 30
0.0
 11
295.0759523041981
 21
139.99999999999989
 31
0.0
  0
LINE
  5
771
  8
2
 10
266.82595230419849
 20
138.0999999999998
 30
0.0
 11
266.82595230419838
 21
116.57735026918949
 31
0.0
  0
LINE
  5
772
  8
2
 10
266.82595230419838
 20
116.57735026918949
 30
0.0
 11
265.82595230419838
 21
115.9999999999999
 31
0.0
  0
LINE
  5
773
  8
2
 10
265.82595230419838
 20
115.9999999999999
 30
0.0
 11
265.82595230419838
 21
114.0
 31
0.0
  0
LINE
  5
774
  8
2
 10
267.57595230419832
 20
138.0999999999998
 30
0.0
 11
266.82595230419838
 21
138.0999999999998
 31
0.0
  0
LINE
  5
775
  8
2
 10
294.82595230419832
 20
138.0999999999998
 30
0.0
 11
294.82595230419832
 21
116.57735026918949
 31
0.0
  0
LINE
  5
776
  8
2
 10
294.82595230419832
 20
116.57735026918949
 30
0.0
 11
295.82595230419832
 21
115.9999999999999
 31
0.0
  0
LINE
  5
777
  8
2
 10
295.82595230419832
 20
115.9999999999999
 30
0.0
 11
295.82595230419832
 21
114.0
 31
0.0
  0
LINE
  5
778
  8
2
 10
294.07595230419821
 20
138.0999999999998
 30
0.0
 11
294.82595230419832
 21
138.0999999999998
 31
0.0
  0
ARC
  5
779
  8
2
 10
295.57595230419838
 20
143.1999999999999
 30
0.0
 40
0.5
 50
90.0
 51
180.0
  0
LINE
  5
77A
  8
2
 10
266.57595230419832
 20
143.1999999999999
 30
0.0
 11
266.57595230419832
 21
139.99999999999989
 31
0.0
  0
ARC
  5
77B
  8
2
 10
266.07595230419832
 20
143.1999999999999
 30
0.0
 40
0.5
 50
0.0
 51
90.0
  0
TEXT
  5
94D
  8
0
 62
     3
 10
0.0
 20
0.0
 30
0.0
 40
10.0
  1
EBCH125R-OG
  7
STANDARD1
  0
CIRCLE
  5
AE4
  8
0
  6
CONTINUOUS
 62
     0
 10
406.8259523041981
 20
355.00000000000023
 30
0.0
 40
12.0
  0
LINE
  5
B04
  8
0
  6
CONTINUOUS
 62
     0
 10
416.0759523041981
 20
132.80000000000001
 30
0.0
 11
416.0759523041981
 21
159.5
 31
0.0
  0
LINE
  5
B05
  8
0
  6
CONTINUOUS
 62
     0
 10
397.57595230419832
 20
159.5
 30
0.0
 11
397.57595230419832
 21
132.80000000000001
 31
0.0
  0
ARC
  5
B06
  8
0
  6
CONTINUOUS
 62
     0
 10
406.8259523041981
 20
200.5
 30
0.0
 40
12.0
 50
0.0
 51
180.0
  0
LINE
  5
B07
  8
0
  6
CONTINUOUS
 62
     0
 10
418.8259523041981
 20
162.25
 30
0.0
 11
418.8259523041981
 21
200.5
 31
0.0
  0
LINE
  5
B08
  8
0
  6
CONTINUOUS
 62
     0
 10
394.82595230419832
 20
200.5
 30
0.0
 11
394.82595230419832
 21
162.25
 31
0.0
  0
LINE
  5
B09
  8
0
  6
CONTINUOUS
 62
     0
 10
394.82595230419832
 20
200.5
 30
0.0
 11
418.8259523041981
 21
200.5
 31
0.0
  0
LINE
  5
B0A
  8
0
  6
CONTINUOUS
 62
     0
 10
397.57595230419832
 20
159.5
 30
0.0
 11
416.0759523041981
 21
159.5
 31
0.0
  0
ARC
  5
B0B
  8
0
  6
CONTINUOUS
 62
     0
 10
416.0759523041981
 20
162.25
 30
0.0
 40
2.7500000000000062
 50
270.0
 51
0.0
  0
ARC
  5
B0C
  8
0
  6
CONTINUOUS
 62
     0
 10
397.57595230419832
 20
162.25
 30
0.0
 40
2.750000000000008
 50
180.0
 51
270.0
  0
LINE
  5
B0D
  8
3
  6
CONTINUOUS
 10
394.82595230419832
 20
162.25
 30
0.0
 11
418.8259523041981
 21
162.25
 31
0.0
  0
LINE
  5
B0E
  8
0
  6
CENTER
 62
     0
 10
418.8259523041981
 20
200.50000000000011
 30
0.0
 11
394.82595230419832
 21
200.50000000000011
 31
0.0
  0
LINE
  5
B0F
  8
0
  6
CONTINUOUS
 62
     0
 10
413.7634523041981
 20
132.5
 30
0.0
 11
413.7634523041981
 21
132.80000000000001
 31
0.0
  0
LINE
  5
B10
  8
0
  6
CONTINUOUS
 62
     0
 10
399.88845230419832
 20
132.80000000000001
 30
0.0
 11
399.88845230419832
 21
132.5
 31
0.0
  0
LINE
  5
B11
  8
0
  6
CONTINUOUS
 62
     0
 10
397.57595230419832
 20
132.80000000000001
 30
0.0
 11
416.0759523041981
 21
132.80000000000001
 31
0.0
  0
LINE
  5
B12
  8
0
  6
CONTINUOUS
 62
     0
 10
538.09318671786355
 20
132.80000000000001
 30
0.0
 11
538.09318671786355
 21
159.5
 31
0.0
  0
LINE
  5
B13
  8
0
  6
CONTINUOUS
 62
     0
 10
519.59318671786377
 20
159.5
 30
0.0
 11
519.59318671786377
 21
132.80000000000001
 31
0.0
  0
ARC
  5
B14
  8
0
  6
CONTINUOUS
 62
     0
 10
528.84318671786355
 20
200.5
 30
0.0
 40
12.0
 50
0.0
 51
180.0
  0
LINE
  5
B15
  8
0
  6
CONTINUOUS
 62
     0
 10
540.84318671786355
 20
162.25
 30
0.0
 11
540.84318671786355
 21
200.5
 31
0.0
  0
LINE
  5
B16
  8
0
  6
CONTINUOUS
 62
     0
 10
516.84318671786389
 20
200.5
 30
0.0
 11
516.84318671786389
 21
162.25
 31
0.0
  0
LINE
  5
B17
  8
0
  6
CONTINUOUS
 62
     0
 10
516.84318671786389
 20
200.5
 30
0.0
 11
540.84318671786355
 21
200.5
 31
0.0
  0
LINE
  5
B18
  8
0
  6
CONTINUOUS
 62
     0
 10
519.59318671786377
 20
159.5
 30
0.0
 11
538.09318671786355
 21
159.5
 31
0.0
  0
ARC
  5
B19
  8
0
  6
CONTINUOUS
 62
     0
 10
538.09318671786355
 20
162.25
 30
0.0
 40
2.7500000000000062
 50
270.0
 51
0.0
  0
ARC
  5
B1A
  8
0
  6
CONTINUOUS
 62
     0
 10
519.59318671786377
 20
162.25
 30
0.0
 40
2.750000000000008
 50
180.0
 51
270.0
  0
LINE
  5
B1B
  8
3
  6
CONTINUOUS
 10
516.84318671786389
 20
162.25
 30
0.0
 11
540.84318671786355
 21
162.25
 31
0.0
  0
LINE
  5
B1C
  8
0
  6
CENTER
 62
     0
 10
540.84318671786355
 20
200.50000000000011
 30
0.0
 11
516.84318671786389
 21
200.50000000000011
 31
0.0
  0
LINE
  5
B1D
  8
0
  6
CONTINUOUS
 62
     0
 10
535.78068671786355
 20
132.5
 30
0.0
 11
535.78068671786355
 21
132.80000000000001
 31
0.0
  0
LINE
  5
B1E
  8
0
  6
CONTINUOUS
 62
     0
 10
521.90568671786355
 20
132.80000000000001
 30
0.0
 11
521.90568671786355
 21
132.5
 31
0.0
  0
LINE
  5
B1F
  8
0
  6
CONTINUOUS
 62
     0
 10
519.59318671786377
 20
132.80000000000001
 30
0.0
 11
538.09318671786355
 21
132.80000000000001
 31
0.0
  0
ARC
  5
B30
  8
0
  6
CONTINUOUS
 62
     0
 10
148.74916091571879
 20
200.5
 30
0.0
 40
12.0
 50
0.0
 51
180.0
  0
LINE
  5
B31
  8
0
  6
CONTINUOUS
 62
     0
 10
160.74916091571879
 20
162.25
 30
0.0
 11
160.74916091571879
 21
200.5
 31
0.0
  0
LINE
  5
B32
  8
0
  6
CONTINUOUS
 62
     0
 10
136.74916091571879
 20
200.5
 30
0.0
 11
136.74916091571879
 21
162.25
 31
0.0
  0
ARC
  5
B33
  8
0
  6
CONTINUOUS
 62
     0
 10
157.99916091571879
 20
162.25
 30
0.0
 40
2.7500000000000062
 50
270.0
 51
0.0
  0
ARC
  5
B34
  8
0
  6
CONTINUOUS
 62
     0
 10
139.49916091571879
 20
162.25
 30
0.0
 40
2.750000000000008
 50
180.0
 51
270.0
  0
LINE
  5
B35
  8
3
  6
CONTINUOUS
 10
136.74916091571879
 20
162.25
 30
0.0
 11
160.74916091571879
 21
162.25
 31
0.0
  0
LINE
  5
B36
  8
0
 10
160.74916091571879
 20
200.50000000000011
 30
0.0
 11
136.74916091571879
 21
200.50000000000011
 31
0.0
  0
LINE
  5
B37
  8
0
  6
CONTINUOUS
 62
     0
 10
139.49916091571879
 20
159.5
 30
0.0
 11
139.7352827270588
 21
159.5
 31
0.0
  0
LINE
  5
B38
  8
0
  6
CONTINUOUS
 62
     0
 10
157.76303910437881
 20
159.5
 30
0.0
 11
157.99916091571879
 21
159.5
 31
0.0
  0
LINE
  5
B39
  8
0
  6
CONTINUOUS
 62
     0
 10
139.49916091571879
 20
159.5
 30
0.0
 11
139.49916091571879
 21
159.3555545167456
 31
0.0
  0
LINE
  5
B3A
  8
0
  6
CONTINUOUS
 62
     0
 10
157.99916091571879
 20
159.3555545167456
 30
0.0
 11
157.99916091571879
 21
159.5
 31
0.0
  0
ARC
  5
B40
  8
0
 10
528.84318671786355
 20
144.5
 30
0.0
 40
17.500000000000011
 50
0.0
 51
58.091017264682449
  0
ARC
  5
B41
  8
0
 10
528.84318671786355
 20
144.5
 30
0.0
 40
17.500000000000011
 50
121.90898273531749
 51
180.0
  0
ENDSEC
  0
EOF
