  0
SECTION
  2
HEADER
  9
$ACADVER
  1
AC1009
  9
$INSBASE
 10
0.0
 20
0.0
 30
0.0
  9
$EXTMIN
 10
0.0
 20
-2.960436562073669
 30
0.0
  9
$EXTMAX
 10
324.4026398216771
 20
240.6835966829068
 30
0.0
  9
$LIMMIN
 10
0.0
 20
0.0
  9
$LIMMAX
 10
270.0
 20
175.0
  9
$ORTHOMODE
 70
     1
  9
$REGENMODE
 70
     1
  9
$FILLMODE
 70
     1
  9
$QTEXTMODE
 70
     0
  9
$MIRRTEXT
 70
     0
  9
$DRAGMODE
 70
     2
  9
$LTSCALE
 40
5.0
  9
$OSMODE
 70
    37
  9
$ATTMODE
 70
     1
  9
$TEXTSIZE
 40
0.2
  9
$TRACEWID
 40
0.05
  9
$TEXTSTYLE
  7
STANDARD
  9
$CLAYER
  8
0
  9
$CELTYPE
  6
BYLAYER
  9
$CECOLOR
 62
   256
  9
$DIMSCALE
 40
1.0
  9
$DIMASZ
 40
3.0
  9
$DIMEXO
 40
2.0
  9
$DIMDLI
 40
0.38
  9
$DIMRND
 40
0.0
  9
$DIMDLE
 40
0.0
  9
$DIMEXE
 40
2.0
  9
$DIMTP
 40
0.0
  9
$DIMTM
 40
0.0
  9
$DIMTXT
 40
3.0
  9
$DIMCEN
 40
0.0
  9
$DIMTSZ
 40
0.0
  9
$DIMTOL
 70
     0
  9
$DIMLIM
 70
     0
  9
$DIMTIH
 70
     0
  9
$DIMTOH
 70
     0
  9
$DIMSE1
 70
     0
  9
$DIMSE2
 70
     0
  9
$DIMTAD
 70
     1
  9
$DIMZIN
 70
     8
  9
$DIMBLK
  1

  9
$DIMASO
 70
     0
  9
$DIMSHO
 70
     0
  9
$DIMPOST
  1

  9
$DIMAPOST
  1

  9
$DIMALT
 70
     0
  9
$DIMALTD
 70
     2
  9
$DIMALTF
 40
25.399999999999999
  9
$DIMLFAC
 40
1.0
  9
$DIMTOFL
 70
     1
  9
$DIMTVP
 40
1.6000000000000001
  9
$DIMTIX
 70
     1
  9
$DIMSOXD
 70
     0
  9
$DIMSAH
 70
     0
  9
$DIMBLK1
  1

  9
$DIMBLK2
  1

  9
$DIMSTYLE
  2
STANDARD
  9
$DIMCLRD
 70
     0
  9
$DIMCLRE
 70
     0
  9
$DIMCLRT
 70
     0
  9
$DIMTFAC
 40
1.0
  9
$DIMGAP
 40
1.0
  9
$LUNITS
 70
     2
  9
$LUPREC
 70
     1
  9
$SKETCHINC
 40
0.1
  9
$FILLETRAD
 40
0.0
  9
$AUNITS
 70
     0
  9
$AUPREC
 70
     1
  9
$MENU
  1
E:\r13\win\SUPPORT\ACAD
  9
$ELEVATION
 40
0.0
  9
$PELEVATION
 40
0.0
  9
$THICKNESS
 40
0.0
  9
$LIMCHECK
 70
     0
  9
$BLIPMODE
 70
     0
  9
$CHAMFERA
 40
0.0
  9
$CHAMFERB
 40
0.0
  9
$SKPOLY
 70
     0
  9
$TDCREATE
 40
2449839.7803587969
  9
$TDUPDATE
 40
2458275.4589345022
  9
$TDINDWG
 40
0.1583823495
  9
$TDUSRTIMER
 40
0.1583823495
  9
$USRTIMER
 70
     1
  9
$ANGBASE
 50
0.0
  9
$ANGDIR
 70
     0
  9
$PDMODE
 70
     0
  9
$PDSIZE
 40
0.0
  9
$PLINEWID
 40
0.0
  9
$COORDS
 70
     1
  9
$SPLFRAME
 70
     0
  9
$SPLINETYPE
 70
     6
  9
$SPLINESEGS
 70
     8
  9
$ATTDIA
 70
     0
  9
$ATTREQ
 70
     1
  9
$HANDLING
 70
     1
  9
$HANDSEED
  5
1CBE
  9
$SURFTAB1
 70
     6
  9
$SURFTAB2
 70
     6
  9
$SURFTYPE
 70
     6
  9
$SURFU
 70
     6
  9
$SURFV
 70
     6
  9
$UCSNAME
  2

  9
$UCSORG
 10
0.0
 20
0.0
 30
0.0
  9
$UCSXDIR
 10
1.0
 20
0.0
 30
0.0
  9
$UCSYDIR
 10
0.0
 20
1.0
 30
0.0
  9
$PUCSNAME
  2

  9
$PUCSORG
 10
0.0
 20
0.0
 30
0.0
  9
$PUCSXDIR
 10
1.0
 20
0.0
 30
0.0
  9
$PUCSYDIR
 10
0.0
 20
1.0
 30
0.0
  9
$USERI1
 70
     0
  9
$USERI2
 70
     1
  9
$USERI3
 70
     1
  9
$USERI4
 70
     0
  9
$USERI5
 70
     0
  9
$USERR1
 40
0.0
  9
$USERR2
 40
0.0
  9
$USERR3
 40
0.0
  9
$USERR4
 40
0.0
  9
$USERR5
 40
0.0
  9
$WORLDVIEW
 70
     1
  9
$SHADEDGE
 70
     3
  9
$SHADEDIF
 70
    70
  9
$TILEMODE
 70
     1
  9
$MAXACTVP
 70
    16
  9
$PLIMCHECK
 70
     0
  9
$PEXTMIN
 10
1.0000000000000000E+020
 20
1.0000000000000000E+020
 30
1.0000000000000000E+020
  9
$PEXTMAX
 10
-1.0000000000000000E+020
 20
-1.0000000000000000E+020
 30
-1.0000000000000000E+020
  9
$PLIMMIN
 10
0.0
 20
0.0
  9
$PLIMMAX
 10
12.0
 20
9.0
  9
$UNITMODE
 70
     0
  9
$VISRETAIN
 70
     0
  9
$PLINEGEN
 70
     0
  9
$PSLTSCALE
 70
     0
  0
ENDSEC
  0
SECTION
  2
TABLES
  0
TABLE
  2
VPORT
 70
     1
  0
VPORT
  2
*ACTIVE
 70
     0
 10
0.0
 20
0.0
 11
1.0
 21
1.0
 12
272.44212170380382
 22
150.0
 13
0.0
 23
0.0
 14
10.0
 24
10.0
 15
10.0
 25
10.0
 16
0.0
 26
0.0
 36
1.0
 17
0.0
 27
0.0
 37
0.0
 40
300.05449283112989
 41
1.816239316239316
 42
50.0
 43
0.0
 44
0.0
 50
0.0
 51
0.0
 71
     0
 72
   500
 73
     1
 74
     0
 75
     0
 76
     0
 77
     0
 78
     2
  0
ENDTAB
  0
TABLE
  2
LTYPE
 70
     3
  0
LTYPE
  2
CONTINUOUS
 70
     0
  3
Solid Line
 72
    65
 73
     0
 40
0.0
  0
LTYPE
  2
CENTER
 70
     0
  3
____ _ ____ _ ____ _ ____ _ ____ _ ____ _ ____
 72
    65
 73
     4
 40
2.0
 49
1.25
 49
-0.25
 49
0.25
 49
-0.25
  0
LTYPE
  2
PHANTOM2
 70
     0
  3
___ _ _ ___ _ _ ___ _ _ ___ _ _
 72
    65
 73
     6
 40
1.25
 49
0.625
 49
-0.125
 49
0.125
 49
-0.125
 49
0.125
 49
-0.125
  0
ENDTAB
  0
TABLE
  2
LAYER
 70
     3
  0
LAYER
  2
0
 70
     0
 62
     7
  6
CONTINUOUS
  0
LAYER
  2
1
 70
     0
 62
     1
  6
CENTER
  0
LAYER
  2
3
 70
     0
 62
     3
  6
CONTINUOUS
  0
ENDTAB
  0
TABLE
  2
STYLE
 70
     2
  0
STYLE
  2
STANDARD
 70
     0
 40
0.0
 41
1.0
 50
0.0
 71
     0
 42
0.2
  3
TXT
  4
BIGFONT
  0
STYLE
  2
STANDARD1
 70
     0
 40
0.0
 41
1.0
 50
0.0
 71
     0
 42
3.0
  3
txt
  4

  0
ENDTAB
  0
TABLE
  2
VIEW
 70
     1
  0
VIEW
  2
ALL
 70
     0
 40
179.5384664489153
 10
135.0
 20
89.769233224457665
 41
0.0
 11
0.0
 21
0.0
 31
1.0
 12
0.0
 22
0.0
 32
0.0
 42
0.0
 43
0.0
 44
0.0
 50
0.0
 71
     0
  0
ENDTAB
  0
TABLE
  2
UCS
 70
     0
  0
ENDTAB
  0
TABLE
  2
APPID
 70
     9
  0
APPID
  2
ACAD
 70
     0
  0
APPID
  2
GENIUS_GENODEF_13
 70
     0
  0
APPID
  2
GENIUS_GENOBJ-N-FIL_13
 70
     0
  0
APPID
  2
GENIUS_GENOREF_13
 70
     0
  0
APPID
  2
ACAD_MLEADERVER
 70
     0
  0
APPID
  2
ACAD_NAV_VCDISPLAY
 70
     0
  0
APPID
  2
ACAD_EXEMPT_FROM_CAD_STANDARDS
 70
     0
  0
APPID
  2
ACAD_DSTYLE_DIMJAG
 70
     0
  0
APPID
  2
ACAD_DSTYLE_DIMTALN
 70
     0
  0
ENDTAB
  0
TABLE
  2
DIMSTYLE
 70
     1
  0
DIMSTYLE
  2
STANDARD
 70
     0
  3

  4

  5

  6

  7

 40
1.0
 41
0.18
 42
0.0625
 43
0.38
 44
0.18
 45
0.0
 46
0.0
 47
0.0
 48
0.0
140
0.18
141
0.09
142
0.0
143
25.399999999999999
144
1.0
145
0.0
146
1.0
147
0.09
 71
     0
 72
     0
 73
     1
 74
     1
 75
     0
 76
     0
 77
     0
 78
     0
170
     0
171
     2
172
     0
173
     0
174
     0
175
     0
176
     0
177
     0
178
     0
  0
ENDTAB
  0
ENDSEC
  0
SECTION
  2
BLOCKS
  0
BLOCK
  8
0
  2
$MODEL_SPACE
 70
     0
 10
0.0
 20
0.0
 30
0.0
  3
$MODEL_SPACE
  1

  0
ENDBLK
  5
522
  8
0
  0
BLOCK
 67
     1
  8
0
  2
$PAPER_SPACE
 70
     0
 10
0.0
 20
0.0
 30
0.0
  3
$PAPER_SPACE
  1

  0
ENDBLK
  5
520
 67
     1
  8
0
  0
ENDSEC
  0
SECTION
  2
ENTITIES
  0
ARC
  5
B1C
  8
0
 10
311.1526398216771
 20
160.33359668290689
 30
0.0
 40
9.1499999999998227
 50
190.38885781547151
 51
349.61114218454412
  0
LINE
  5
B1D
  8
0
 10
320.1526398216771
 20
143.58359668290669
 30
0.0
 11
321.9026398216771
 21
143.5835966829066
 31
0.0
  0
LINE
  5
B1E
  8
0
 10
306.40263982167733
 20
119.35313193066131
 30
0.0
 11
306.40263982167733
 21
152.5131107645002
 31
0.0
  0
LINE
  5
B1F
  8
0
 10
315.90263982167733
 20
119.35313193066131
 30
0.0
 11
315.90263982167733
 21
152.51311076450051
 31
0.0
  0
ARC
  5
B2D
  8
0
 10
324.10263982167709
 20
111.48359668290681
 30
0.0
 40
0.3
 50
270.0
 51
0.0
  0
LINE
  5
B2E
  8
0
 10
324.4026398216771
 20
141.08359668290689
 30
0.0
 11
324.4026398216771
 21
111.48359668290681
 31
0.0
  0
ARC
  5
B2F
  8
0
 10
298.20263982167751
 20
111.48359668290681
 30
0.0
 40
0.3
 50
180.0
 51
270.0
  0
ARC
  5
B30
  8
0
 10
300.40263982167761
 20
141.08359668290689
 30
0.0
 40
2.5
 50
90.0
 51
180.0
  0
LINE
  5
B31
  8
0
 10
297.90263982167761
 20
141.08359668290689
 30
0.0
 11
297.90263982167761
 21
111.48359668290681
 31
0.0
  0
LINE
  5
B32
  8
0
 10
302.15263982167733
 20
106.1835966829068
 30
0.0
 11
301.65263982167733
 21
106.6835966829068
 31
0.0
  0
LINE
  5
B33
  8
0
 10
301.65263982167733
 20
111.1835966829068
 30
0.0
 11
301.65263982167733
 21
106.6835966829068
 31
0.0
  0
LINE
  5
B34
  8
0
 10
320.65263982167733
 20
106.6835966829068
 30
0.0
 11
301.6526398216771
 21
106.6835966829068
 31
0.0
  0
LINE
  5
B35
  8
0
 10
320.15263982167733
 20
106.1835966829068
 30
0.0
 11
320.65263982167733
 21
106.6835966829068
 31
0.0
  0
LINE
  5
B36
  8
0
 10
320.15263982167733
 20
106.1835966829068
 30
0.0
 11
302.15263982167761
 21
106.1835966829067
 31
0.0
  0
LINE
  5
B37
  8
0
 10
320.65263982167733
 20
111.1835966829068
 30
0.0
 11
320.65263982167733
 21
106.6835966829068
 31
0.0
  0
LINE
  5
B38
  8
0
 10
300.40263982167761
 20
143.58359668290689
 30
0.0
 11
302.15263982167733
 21
143.58359668290689
 31
0.0
  0
LINE
  5
B39
  8
0
 10
298.20263982167751
 20
111.1835966829068
 30
0.0
 11
324.10263982167709
 21
111.1835966829068
 31
0.0
  0
LINE
  5
B3A
  8
1
 10
311.15263982167733
 20
51.18359668290676
 30
0.0
 11
311.15263982167733
 21
167.68359668290671
 31
0.0
  0
ARC
  5
B3B
  8
0
 10
321.9026398216771
 20
141.08359668290689
 30
0.0
 40
2.5
 50
0.0
 51
90.0
  0
LINE
  5
B3C
  8
0
 10
320.15263982167642
 20
119.35313193066131
 30
0.0
 11
320.15263982167733
 21
158.68359668290671
 31
0.0
  0
LINE
  5
B3D
  8
0
 10
302.15263982167733
 20
119.35313193066131
 30
0.0
 11
302.15263982167733
 21
158.68359668290671
 31
0.0
  0
LINE
  5
B3E
  8
0
 10
316.15263982167733
 20
162.68359668290671
 30
0.0
 11
306.15263982167733
 21
162.68359668290671
 31
0.0
  0
ARC
  5
B3F
  8
0
 10
306.15263982167733
 20
158.68359668290671
 30
0.0
 40
4.0
 50
90.0
 51
180.0
  0
ARC
  5
B40
  8
0
 10
316.15263982167733
 20
158.68359668290671
 30
0.0
 40
4.0
 50
0.0
 51
90.0
  0
ARC
  5
B41
  8
0
 10
76.152639821677212
 20
158.68359668290671
 30
0.0
 40
4.0
 50
0.0
 51
90.0
  0
ARC
  5
B42
  8
0
 10
66.152639821677212
 20
158.68359668290671
 30
0.0
 40
4.0
 50
90.0
 51
180.0
  0
LINE
  5
B43
  8
0
 10
76.152639821677212
 20
162.68359668290671
 30
0.0
 11
66.152639821677212
 21
162.68359668290671
 31
0.0
  0
LINE
  5
B44
  8
0
 10
64.663225043669399
 20
149.0418931571173
 30
0.0
 11
62.152639821677333
 21
149.0418931571173
 31
0.0
  0
LINE
  5
B45
  8
0
 10
62.152639821677212
 20
143.58359668290689
 30
0.0
 11
62.152639821677212
 21
158.68359668290671
 31
0.0
  0
LINE
  5
B46
  8
0
 10
80.152639821677084
 20
143.5835966829066
 30
0.0
 11
80.152639821677226
 21
158.68359668290671
 31
0.0
  0
LINE
  5
B47
  8
0
 10
80.152639821677326
 20
149.0418931571173
 30
0.0
 11
77.642054599685366
 21
149.0418931571173
 31
0.0
  0
ARC
  5
B48
  8
0
 10
81.902639821676985
 20
141.08359668290689
 30
0.0
 40
2.5
 50
0.0
 51
90.0
  0
LINE
  5
B49
  8
1
 10
71.152639821677354
 20
51.18359668290676
 30
0.0
 11
71.152639821677212
 21
167.68359668290671
 31
0.0
  0
LINE
  5
B4A
  8
0
 10
58.202639821677387
 20
111.1835966829068
 30
0.0
 11
84.102639821677045
 21
111.1835966829068
 31
0.0
  0
LINE
  5
B4B
  8
0
 10
60.402639821677433
 20
143.58359668290689
 30
0.0
 11
81.902639821676985
 21
143.5835966829066
 31
0.0
  0
LINE
  5
B4C
  8
0
 10
80.652639821677212
 20
111.1835966829068
 30
0.0
 11
80.652639821677212
 21
106.6835966829068
 31
0.0
  0
LINE
  5
B4D
  8
0
 10
80.152639821677226
 20
106.1835966829068
 30
0.0
 11
62.152639821677333
 21
106.1835966829067
 31
0.0
  0
LINE
  5
B4E
  8
0
 10
80.152639821677226
 20
106.1835966829068
 30
0.0
 11
80.652639821677212
 21
106.6835966829068
 31
0.0
  0
LINE
  5
B4F
  8
0
 10
80.652639821677212
 20
106.6835966829068
 30
0.0
 11
61.652639821677099
 21
106.6835966829068
 31
0.0
  0
LINE
  5
B50
  8
0
 10
61.652639821677212
 20
111.1835966829068
 30
0.0
 11
61.652639821677212
 21
106.6835966829068
 31
0.0
  0
LINE
  5
B51
  8
0
 10
62.152639821677212
 20
106.1835966829068
 30
0.0
 11
61.652639821677212
 21
106.6835966829068
 31
0.0
  0
LINE
  5
B52
  8
0
 10
65.402639821677425
 20
149.1835966829068
 30
0.0
 11
76.902639821677212
 21
149.1835966829068
 31
0.0
  0
LINE
  5
B53
  8
0
 10
57.902639821677433
 20
141.08359668290689
 30
0.0
 11
57.902639821677433
 21
111.48359668290681
 31
0.0
  0
ARC
  5
B54
  8
0
 10
60.402639821677433
 20
141.08359668290689
 30
0.0
 40
2.5
 50
90.0
 51
180.0
  0
ARC
  5
B55
  8
0
 10
58.202639821677387
 20
111.48359668290681
 30
0.0
 40
0.3
 50
180.0
 51
270.0
  0
LINE
  5
B56
  8
0
 10
84.402639821676985
 20
141.08359668290689
 30
0.0
 11
84.402639821676985
 21
111.48359668290681
 31
0.0
  0
ARC
  5
B57
  8
0
 10
84.102639821677045
 20
111.48359668290681
 30
0.0
 40
0.3
 50
270.0
 51
0.0
  0
LINE
  5
B58
  8
0
 10
63.40263982167744
 20
147.1835966829068
 30
0.0
 11
63.40263982167744
 21
143.58359668290689
 31
0.0
  0
LINE
  5
B59
  8
0
 10
78.902639821677212
 20
147.1835966829068
 30
0.0
 11
78.902639821677084
 21
143.58359668290669
 31
0.0
  0
ARC
  5
B5A
  8
0
 10
65.402639821677425
 20
147.1835966829068
 30
0.0
 40
2.0
 50
90.0
 51
180.0
  0
ARC
  5
B5B
  8
0
 10
76.902639821677212
 20
147.1835966829068
 30
0.0
 40
2.0
 50
0.0
 51
90.0
  0
LINE
  5
B76
  8
0
 10
242.61763982167739
 20
162.6835966829068
 30
0.0
 11
232.6176398216698
 21
162.6835966829068
 31
0.0
  0
ARC
  5
B77
  8
0
 10
156.9026398216773
 20
147.1835966829068
 30
0.0
 40
2.0
 50
0.0
 51
90.0
  0
ARC
  5
B78
  8
0
 10
145.4026398216775
 20
147.1835966829068
 30
0.0
 40
2.0
 50
90.0
 51
180.0
  0
LINE
  5
B79
  8
0
 10
158.9026398216773
 20
147.1835966829068
 30
0.0
 11
158.9026398216773
 21
146.0757392101093
 31
0.0
  0
LINE
  5
B7A
  8
0
 10
143.4026398216775
 20
147.1835966829068
 30
0.0
 11
143.4026398216775
 21
143.58359668290689
 31
0.0
  0
ARC
  5
B7B
  8
0
 10
164.10263982167709
 20
111.48359668290681
 30
0.0
 40
0.3
 50
270.0
 51
0.0
  0
LINE
  5
B7C
  8
0
 10
164.4026398216771
 20
119.35313193066131
 30
0.0
 11
164.4026398216771
 21
111.48359668290681
 31
0.0
  0
ARC
  5
B7D
  8
0
 10
138.20263982167751
 20
111.48359668290681
 30
0.0
 40
0.3
 50
180.0
 51
270.0
  0
ARC
  5
B7E
  8
0
 10
140.4026398216775
 20
141.08359668290689
 30
0.0
 40
2.5
 50
90.0
 51
180.0
  0
LINE
  5
B7F
  8
0
 10
137.9026398216775
 20
141.08359668290689
 30
0.0
 11
137.9026398216775
 21
111.48359668290681
 31
0.0
  0
ARC
  5
B80
  8
3
 10
237.1526398216773
 20
222.4335966829068
 30
0.0
 40
7.5
 50
270.0
 51
90.0
  0
ARC
  5
B81
  8
3
 10
166.8867587992371
 20
195.4335966829068
 30
0.0
 40
19.5
 50
90.0
 51
120.2312862551201
  0
ARC
  5
B82
  8
3
 10
166.8867587992371
 20
249.4335966829068
 30
0.0
 40
19.5
 50
239.76871374487979
 51
270.0
  0
ARC
  5
B83
  8
3
 10
151.1526398216775
 20
222.4335966829068
 30
0.0
 40
11.75
 50
59.768713744879818
 51
300.2312862551201
  0
LINE
  5
B84
  8
3
 10
166.8867587992371
 20
214.9335966829068
 30
0.0
 11
237.1526398216773
 21
214.9335966829068
 31
0.0
  0
LINE
  5
B85
  8
3
 10
166.8867587992371
 20
229.9335966829068
 30
0.0
 11
237.1526398216773
 21
229.9335966829068
 31
0.0
  0
CIRCLE
  5
B8C
  8
0
 10
151.1526398216773
 20
222.4335966829068
 30
0.0
 40
7.75
  0
ARC
  5
B8D
  8
0
 10
237.1526398216773
 20
222.4335966829068
 30
0.0
 40
9.0
 50
270.0
 51
90.0
  0
ARC
  5
B8E
  8
0
 10
166.8867587992371
 20
195.4335966829068
 30
0.0
 40
18.0
 50
90.0
 51
120.2312862551201
  0
ARC
  5
B8F
  8
0
 10
166.8867587992371
 20
249.4335966829068
 30
0.0
 40
18.0
 50
239.76871374487979
 51
270.0
  0
LINE
  5
B90
  8
0
 10
166.8867587992371
 20
213.4335966829068
 30
0.0
 11
237.1526398216773
 21
213.4335966829068
 31
0.0
  0
LINE
  5
B91
  8
0
 10
166.8867587992371
 20
231.4335966829068
 30
0.0
 11
237.1526398216773
 21
231.4335966829068
 31
0.0
  0
ARC
  5
B92
  8
0
 10
151.1526398216775
 20
222.4335966829068
 30
0.0
 40
13.25
 50
59.768713744879818
 51
300.2312862551201
  0
LINE
  5
B93
  8
0
 10
145.4026398216775
 20
149.1835966829068
 30
0.0
 11
156.9026398216773
 21
149.1835966829068
 31
0.0
  0
CIRCLE
  5
B94
  8
0
 10
183.69363836264401
 20
222.4335966829068
 30
0.0
 40
1.363499999999999
  0
CIRCLE
  5
B95
  8
0
 10
175.61743173513659
 20
222.4335966829068
 30
0.0
 40
1.363499999999999
  0
CIRCLE
  5
B96
  8
0
 10
179.6484181544223
 20
222.4335966829068
 30
0.0
 40
1.363499999999999
  0
CIRCLE
  5
B97
  8
0
 10
167.60136003461309
 20
222.4335966829068
 30
0.0
 40
1.363499999999999
  0
ARC
  5
B98
  8
3
 10
131.04432499306751
 20
222.4093059076844
 30
0.0
 40
31.675434209421791
 50
345.00708935510681
 51
15.09129996911124
  0
CIRCLE
  5
B99
  8
0
 10
171.60162219085319
 20
222.4335966829068
 30
0.0
 40
1.363499999999999
  0
LINE
  5
B9A
  8
1
 10
151.1526398216773
 20
204.1835966829068
 30
0.0
 11
151.1526398216773
 21
240.6835966829068
 31
0.0
  0
LINE
  5
B9B
  8
1
 10
132.9026398216775
 20
222.4335966829068
 30
0.0
 11
251.1526398216773
 21
222.4335966829068
 31
0.0
  0
LINE
  5
B9C
  8
0
 10
142.1526398216773
 20
106.1835966829068
 30
0.0
 11
141.6526398216773
 21
106.6835966829068
 31
0.0
  0
LINE
  5
B9D
  8
0
 10
141.6526398216773
 20
111.1835966829068
 30
0.0
 11
141.6526398216773
 21
106.6835966829068
 31
0.0
  0
LINE
  5
B9E
  8
0
 10
160.6526398216773
 20
106.6835966829068
 30
0.0
 11
141.6526398216771
 21
106.6835966829068
 31
0.0
  0
LINE
  5
B9F
  8
0
 10
160.1526398216773
 20
106.1835966829068
 30
0.0
 11
160.6526398216773
 21
106.6835966829068
 31
0.0
  0
LINE
  5
BA0
  8
0
 10
160.1526398216773
 20
106.1835966829068
 30
0.0
 11
142.1526398216775
 21
106.1835966829067
 31
0.0
  0
LINE
  5
BA1
  8
0
 10
160.6526398216773
 20
111.1835966829068
 30
0.0
 11
160.6526398216773
 21
106.6835966829068
 31
0.0
  0
ARC
  5
BA2
  8
0
 10
240.10708802069399
 20
154.71859668290691
 30
0.0
 40
3.5350000000000001
 50
222.11728552732501
 51
303.23371287585292
  0
ARC
  5
BA3
  8
0
 10
230.7421969944661
 20
146.25163494525401
 30
0.0
 40
9.0899999999999999
 50
42.117285527324952
 51
97.767625209389251
  0
ARC
  5
BA4
  8
0
 10
242.61763982167739
 20
159.14859668290671
 30
0.0
 40
3.5350000000000001
 50
0.0
 51
90.0
  0
ARC
  5
BA5
  8
0
 10
237.4337847493785
 20
159.1617907184654
 30
0.0
 40
8.7188650554029863
 50
301.92552296820162
 51
359.91329572874668
  0
ARC
  5
BA6
  8
0
 10
182.07733403376471
 20
119.249163141137
 30
0.0
 40
17.675000000000001
 50
119.6776086027424
 51
179.66296989014211
  0
LINE
  5
BA7
  8
0
 10
140.4026398216775
 20
143.58359668290689
 30
0.0
 11
151.1526398216773
 21
143.58359668290669
 31
0.0
  0
ARC
  5
BA8
  8
0
 10
151.22434801798281
 20
156.6570458580434
 30
0.0
 40
13.073645834284219
 50
269.68573436530772
 51
324.37475421994429
  0
LINE
  5
BA9
  8
0
 10
138.20263982167751
 20
111.1835966829068
 30
0.0
 11
164.10263982167709
 21
111.1835966829068
 31
0.0
  0
LINE
  5
BAA
  8
1
 10
151.1526398216773
 20
51.183596682908657
 30
0.0
 11
151.1526398216773
 21
154.1835966829068
 31
0.0
  0
ARC
  5
BAB
  8
0
 10
253.88064091934109
 20
2.206867162649274
 30
0.0
 40
154.97893516616759
 50
99.046028958572094
 51
121.3173168627825
  0
ARC
  5
BAC
  8
0
 10
247.18903752079689
 20
-103.27730399608031
 30
0.0
 40
266.35976858543057
 50
93.135971253987975
 51
108.6862500730855
  0
LINE
  5
C2D
  8
3
 10
64.235139821677251
 20
104.1835966829067
 30
0.0
 11
63.152639821677312
 21
106.0585416821
 31
0.0
  0
LINE
  5
C2E
  8
3
 10
78.070139821677316
 20
104.1835966829067
 30
0.0
 11
79.152639821677255
 21
106.0585416820999
 31
0.0
  0
LINE
  5
C2F
  8
0
 10
79.152639821677269
 20
104.1835966829067
 30
0.0
 11
63.152639821677248
 21
104.1835966829067
 31
0.0
  0
LINE
  5
C30
  8
0
 10
63.152639821677369
 20
58.183596682906838
 30
0.0
 11
79.152639821677354
 21
58.183596682906668
 31
0.0
  0
LINE
  5
C31
  8
0
 10
65.152639821677369
 20
56.183596682906838
 30
0.0
 11
63.152639821677369
 21
58.183596682906838
 31
0.0
  0
LINE
  5
C32
  8
0
 10
79.152639821677354
 20
58.183596682906668
 30
0.0
 11
77.152639821677354
 21
56.183596682906689
 31
0.0
  0
LINE
  5
C33
  8
0
 10
79.152639821677255
 20
106.1835966829068
 30
0.0
 11
79.152639821677354
 21
58.183596682906668
 31
0.0
  0
LINE
  5
C34
  8
3
 10
78.070139821677301
 20
104.1835966829067
 30
0.0
 11
78.070139821677429
 21
57.101096682906743
 31
0.0
  0
LINE
  5
C35
  8
3
 10
64.235139821677194
 20
104.1835966829068
 30
0.0
 11
64.235139821677322
 21
57.101096682906878
 31
0.0
  0
LINE
  5
C36
  8
0
 10
63.152639821677248
 20
106.1835966829068
 30
0.0
 11
63.152639821677369
 21
58.183596682906838
 31
0.0
  0
LINE
  5
C37
  8
0
 10
77.152639821677354
 20
56.183596682906689
 30
0.0
 11
65.152639821677369
 21
56.183596682906838
 31
0.0
  0
LINE
  5
C42
  8
3
 10
158.0701398216774
 20
104.1835966829067
 30
0.0
 11
158.0701398216776
 21
57.101096682906743
 31
0.0
  0
LINE
  5
C43
  8
0
 10
159.15263982167741
 20
106.1835966829068
 30
0.0
 11
159.1526398216775
 21
58.183596682906668
 31
0.0
  0
LINE
  5
C44
  8
0
 10
159.1526398216775
 20
58.183596682906668
 30
0.0
 11
157.1526398216775
 21
56.183596682906689
 31
0.0
  0
LINE
  5
C45
  8
0
 10
143.1526398216775
 20
58.183596682906838
 30
0.0
 11
159.1526398216775
 21
58.183596682906668
 31
0.0
  0
LINE
  5
C46
  8
0
 10
159.15263982167741
 20
104.1835966829067
 30
0.0
 11
143.15263982167741
 21
104.1835966829067
 31
0.0
  0
LINE
  5
C47
  8
3
 10
158.07013982167749
 20
104.1835966829067
 30
0.0
 11
159.15263982167741
 21
106.0585416820999
 31
0.0
  0
LINE
  5
C48
  8
0
 10
157.1526398216775
 20
56.183596682906689
 30
0.0
 11
145.1526398216775
 21
56.183596682906838
 31
0.0
  0
LINE
  5
C49
  8
0
 10
143.15263982167741
 20
106.1835966829068
 30
0.0
 11
143.1526398216775
 21
58.183596682906838
 31
0.0
  0
LINE
  5
C4A
  8
3
 10
144.23513982167731
 20
104.1835966829068
 30
0.0
 11
144.23513982167751
 21
57.101096682906878
 31
0.0
  0
LINE
  5
C4B
  8
0
 10
145.1526398216775
 20
56.183596682906838
 30
0.0
 11
143.1526398216775
 21
58.183596682906838
 31
0.0
  0
LINE
  5
C4C
  8
3
 10
144.23513982167739
 20
104.1835966829067
 30
0.0
 11
143.1526398216775
 21
106.0585416821
 31
0.0
  0
LINE
  5
C4D
  8
3
 10
318.07013982167751
 20
104.1835966829067
 30
0.0
 11
319.15263982167738
 21
106.0585416820999
 31
0.0
  0
LINE
  5
C4E
  8
0
 10
319.15263982167738
 20
104.1835966829067
 30
0.0
 11
303.1526398216775
 21
104.1835966829067
 31
0.0
  0
LINE
  5
C4F
  8
0
 10
303.1526398216775
 20
58.183596682906838
 30
0.0
 11
319.15263982167761
 21
58.183596682906668
 31
0.0
  0
LINE
  5
C50
  8
0
 10
319.15263982167761
 20
58.183596682906668
 30
0.0
 11
317.15263982167761
 21
56.183596682906689
 31
0.0
  0
LINE
  5
C51
  8
0
 10
319.15263982167738
 20
106.1835966829068
 30
0.0
 11
319.15263982167761
 21
58.183596682906668
 31
0.0
  0
LINE
  5
C52
  8
3
 10
318.07013982167751
 20
104.1835966829067
 30
0.0
 11
318.07013982167763
 21
57.101096682906743
 31
0.0
  0
LINE
  5
C53
  8
3
 10
304.23513982167742
 20
104.1835966829067
 30
0.0
 11
303.1526398216775
 21
106.0585416821
 31
0.0
  0
LINE
  5
C54
  8
0
 10
305.1526398216775
 20
56.183596682906838
 30
0.0
 11
303.1526398216775
 21
58.183596682906838
 31
0.0
  0
LINE
  5
C55
  8
3
 10
304.23513982167742
 20
104.1835966829068
 30
0.0
 11
304.23513982167748
 21
57.101096682906878
 31
0.0
  0
LINE
  5
C56
  8
0
 10
303.1526398216775
 20
106.1835966829068
 30
0.0
 11
303.1526398216775
 21
58.183596682906838
 31
0.0
  0
LINE
  5
C57
  8
0
 10
317.15263982167761
 20
56.183596682906689
 30
0.0
 11
305.1526398216775
 21
56.183596682906838
 31
0.0
  0
TEXT
  5
D78
  8
0
 62
     3
 10
0.0
 20
0.0
 30
0.0
 40
10.0
  1
EALA95CX50
  7
STANDARD1
  0
ARC
  5
1995
  8
0
 10
148.742924135647
 20
223.82484668290701
 30
0.0
 40
0.5300000000000238
 50
89.465006080397416
 51
210.53499164145791
  0
ARC
  5
1996
  8
0
 10
146.38434556329801
 20
222.43359668290699
 30
0.0
 40
2.2083333333333299
 50
329.46500662715118
 51
30.534994466358921
  0
ARC
  5
1997
  8
0
 10
148.742924135647
 20
221.0423466829069
 30
0.0
 40
0.5300000000000141
 50
149.46500380224879
 51
270.53499558007547
  0
ARC
  5
1998
  8
0
 10
148.7684926924876
 20
218.30413272243101
 30
0.0
 40
2.2083333333333441
 50
29.465006080397409
 51
90.534993521091948
  0
ARC
  5
1999
  8
0
 10
151.1526398216773
 20
219.651096682907
 30
0.0
 40
0.5300000000000138
 50
209.46500608039659
 51
330.53499164145518
  0
ARC
  5
199A
  8
0
 10
153.53678695086691
 20
218.30413272243101
 30
0.0
 40
2.2083333333333441
 50
89.465006080397416
 51
150.53499446636059
  0
ARC
  5
199B
  8
0
 10
153.56235550770751
 20
221.0423466829069
 30
0.0
 40
0.530000000000003
 50
269.46500608039742
 51
30.53499619775144
  0
ARC
  5
199C
  8
0
 10
155.92093408005661
 20
222.43359668290699
 30
0.0
 40
2.2083333333333419
 50
149.46500608039611
 51
210.5349933728499
  0
ARC
  5
199D
  8
0
 10
153.56235550770751
 20
223.82484668290701
 30
0.0
 40
0.5300000000000207
 50
329.46500608039452
 51
90.534993919602556
  0
ARC
  5
199E
  8
0
 10
153.53678695086691
 20
226.5630606433829
 30
0.0
 40
2.2083333333333299
 50
209.4650060803977
 51
270.53499391960258
  0
ARC
  5
199F
  8
0
 10
151.1526398216773
 20
225.21609668290699
 30
0.0
 40
0.5300000000000174
 50
29.465006080396829
 51
150.53499558007721
  0
ARC
  5
19A0
  8
0
 10
148.76849269248771
 20
226.5630606433829
 30
0.0
 40
2.2083333333333268
 50
269.46500608039742
 51
330.53499352109168
  0
ENDSEC
  0
EOF
