  0
SECTION
  2
HEADER
  9
$ACADVER
  1
AC1009
  9
$INSBASE
 10
0.0
 20
0.0
 30
0.0
  9
$EXTMIN
 10
0.0
 20
-2.960436562073669
 30
0.0
  9
$EXTMAX
 10
324.4026398216771
 20
250.6835966829068
 30
0.0
  9
$LIMMIN
 10
0.0
 20
0.0
  9
$LIMMAX
 10
270.0
 20
175.0
  9
$ORTHOMODE
 70
     1
  9
$REGENMODE
 70
     1
  9
$FILLMODE
 70
     1
  9
$QTEXTMODE
 70
     0
  9
$MIRRTEXT
 70
     0
  9
$DRAGMODE
 70
     2
  9
$LTSCALE
 40
5.0
  9
$OSMODE
 70
    37
  9
$ATTMODE
 70
     1
  9
$TEXTSIZE
 40
0.2
  9
$TRACEWID
 40
0.05
  9
$TEXTSTYLE
  7
STANDARD
  9
$CLAYER
  8
0
  9
$CELTYPE
  6
BYLAYER
  9
$CECOLOR
 62
   256
  9
$DIMSCALE
 40
1.0
  9
$DIMASZ
 40
3.0
  9
$DIMEXO
 40
2.0
  9
$DIMDLI
 40
0.38
  9
$DIMRND
 40
0.0
  9
$DIMDLE
 40
0.0
  9
$DIMEXE
 40
2.0
  9
$DIMTP
 40
0.0
  9
$DIMTM
 40
0.0
  9
$DIMTXT
 40
3.0
  9
$DIMCEN
 40
0.0
  9
$DIMTSZ
 40
0.0
  9
$DIMTOL
 70
     0
  9
$DIMLIM
 70
     0
  9
$DIMTIH
 70
     0
  9
$DIMTOH
 70
     0
  9
$DIMSE1
 70
     0
  9
$DIMSE2
 70
     0
  9
$DIMTAD
 70
     1
  9
$DIMZIN
 70
     8
  9
$DIMBLK
  1

  9
$DIMASO
 70
     0
  9
$DIMSHO
 70
     0
  9
$DIMPOST
  1

  9
$DIMAPOST
  1

  9
$DIMALT
 70
     0
  9
$DIMALTD
 70
     2
  9
$DIMALTF
 40
25.399999999999999
  9
$DIMLFAC
 40
1.0
  9
$DIMTOFL
 70
     1
  9
$DIMTVP
 40
1.6000000000000001
  9
$DIMTIX
 70
     1
  9
$DIMSOXD
 70
     0
  9
$DIMSAH
 70
     0
  9
$DIMBLK1
  1

  9
$DIMBLK2
  1

  9
$DIMSTYLE
  2
STANDARD
  9
$DIMCLRD
 70
     0
  9
$DIMCLRE
 70
     0
  9
$DIMCLRT
 70
     0
  9
$DIMTFAC
 40
1.0
  9
$DIMGAP
 40
1.0
  9
$LUNITS
 70
     2
  9
$LUPREC
 70
     1
  9
$SKETCHINC
 40
0.1
  9
$FILLETRAD
 40
0.0
  9
$AUNITS
 70
     0
  9
$AUPREC
 70
     1
  9
$MENU
  1
E:\r13\win\SUPPORT\ACAD
  9
$ELEVATION
 40
0.0
  9
$PELEVATION
 40
0.0
  9
$THICKNESS
 40
0.0
  9
$LIMCHECK
 70
     0
  9
$BLIPMODE
 70
     0
  9
$CHAMFERA
 40
0.0
  9
$CHAMFERB
 40
0.0
  9
$SKPOLY
 70
     0
  9
$TDCREATE
 40
2449839.7803587969
  9
$TDUPDATE
 40
2458275.4501327672
  9
$TDINDWG
 40
0.1252865162
  9
$TDUSRTIMER
 40
0.1252865162
  9
$USRTIMER
 70
     1
  9
$ANGBASE
 50
0.0
  9
$ANGDIR
 70
     0
  9
$PDMODE
 70
     0
  9
$PDSIZE
 40
0.0
  9
$PLINEWID
 40
0.0
  9
$COORDS
 70
     1
  9
$SPLFRAME
 70
     0
  9
$SPLINETYPE
 70
     6
  9
$SPLINESEGS
 70
     8
  9
$ATTDIA
 70
     0
  9
$ATTREQ
 70
     1
  9
$HANDLING
 70
     1
  9
$HANDSEED
  5
1BDC
  9
$SURFTAB1
 70
     6
  9
$SURFTAB2
 70
     6
  9
$SURFTYPE
 70
     6
  9
$SURFU
 70
     6
  9
$SURFV
 70
     6
  9
$UCSNAME
  2

  9
$UCSORG
 10
0.0
 20
0.0
 30
0.0
  9
$UCSXDIR
 10
1.0
 20
0.0
 30
0.0
  9
$UCSYDIR
 10
0.0
 20
1.0
 30
0.0
  9
$PUCSNAME
  2

  9
$PUCSORG
 10
0.0
 20
0.0
 30
0.0
  9
$PUCSXDIR
 10
1.0
 20
0.0
 30
0.0
  9
$PUCSYDIR
 10
0.0
 20
1.0
 30
0.0
  9
$USERI1
 70
     0
  9
$USERI2
 70
     1
  9
$USERI3
 70
     1
  9
$USERI4
 70
     0
  9
$USERI5
 70
     0
  9
$USERR1
 40
0.0
  9
$USERR2
 40
0.0
  9
$USERR3
 40
0.0
  9
$USERR4
 40
0.0
  9
$USERR5
 40
0.0
  9
$WORLDVIEW
 70
     1
  9
$SHADEDGE
 70
     3
  9
$SHADEDIF
 70
    70
  9
$TILEMODE
 70
     1
  9
$MAXACTVP
 70
    16
  9
$PLIMCHECK
 70
     0
  9
$PEXTMIN
 10
1.0000000000000000E+020
 20
1.0000000000000000E+020
 30
1.0000000000000000E+020
  9
$PEXTMAX
 10
-1.0000000000000000E+020
 20
-1.0000000000000000E+020
 30
-1.0000000000000000E+020
  9
$PLIMMIN
 10
0.0
 20
0.0
  9
$PLIMMAX
 10
12.0
 20
9.0
  9
$UNITMODE
 70
     0
  9
$VISRETAIN
 70
     0
  9
$PLINEGEN
 70
     0
  9
$PSLTSCALE
 70
     0
  0
ENDSEC
  0
SECTION
  2
TABLES
  0
TABLE
  2
VPORT
 70
     1
  0
VPORT
  2
*ACTIVE
 70
     0
 10
0.0
 20
0.0
 11
1.0
 21
1.0
 12
272.4358974358974
 22
150.0
 13
0.0
 23
0.0
 14
10.0
 24
10.0
 15
10.0
 25
10.0
 16
0.0
 26
0.0
 36
1.0
 17
0.0
 27
0.0
 37
0.0
 40
300.0
 41
1.816239316239316
 42
50.0
 43
0.0
 44
0.0
 50
0.0
 51
0.0
 71
     0
 72
   500
 73
     1
 74
     0
 75
     0
 76
     0
 77
     0
 78
     2
  0
ENDTAB
  0
TABLE
  2
LTYPE
 70
     4
  0
LTYPE
  2
CONTINUOUS
 70
     0
  3
Solid Line
 72
    65
 73
     0
 40
0.0
  0
LTYPE
  2
CENTER
 70
     0
  3
____ _ ____ _ ____ _ ____ _ ____ _ ____ _ ____
 72
    65
 73
     4
 40
2.0
 49
1.25
 49
-0.25
 49
0.25
 49
-0.25
  0
LTYPE
  2
HIDDEN
 70
     0
  3
Hidden __ __ __ __ __ __ __ __ __ __ __ __ __ _
 72
    65
 73
     2
 40
0.375
 49
0.25
 49
-0.125
  0
LTYPE
  2
PHANTOM2
 70
     0
  3
___ _ _ ___ _ _ ___ _ _ ___ _ _
 72
    65
 73
     6
 40
1.25
 49
0.625
 49
-0.125
 49
0.125
 49
-0.125
 49
0.125
 49
-0.125
  0
ENDTAB
  0
TABLE
  2
LAYER
 70
     4
  0
LAYER
  2
0
 70
     0
 62
     7
  6
CONTINUOUS
  0
LAYER
  2
1
 70
     0
 62
     1
  6
CENTER
  0
LAYER
  2
3
 70
     0
 62
     3
  6
CONTINUOUS
  0
LAYER
  2
2
 70
     0
 62
     2
  6
HIDDEN
  0
ENDTAB
  0
TABLE
  2
STYLE
 70
     2
  0
STYLE
  2
STANDARD
 70
     0
 40
0.0
 41
1.0
 50
0.0
 71
     0
 42
0.2
  3
TXT
  4
BIGFONT
  0
STYLE
  2
STANDARD1
 70
     0
 40
0.0
 41
1.0
 50
0.0
 71
     0
 42
3.0
  3
txt
  4

  0
ENDTAB
  0
TABLE
  2
VIEW
 70
     1
  0
VIEW
  2
ALL
 70
     0
 40
179.5384664489153
 10
135.0
 20
89.769233224457665
 41
0.0
 11
0.0
 21
0.0
 31
1.0
 12
0.0
 22
0.0
 32
0.0
 42
0.0
 43
0.0
 44
0.0
 50
0.0
 71
     0
  0
ENDTAB
  0
TABLE
  2
UCS
 70
     0
  0
ENDTAB
  0
TABLE
  2
APPID
 70
     9
  0
APPID
  2
ACAD
 70
     0
  0
APPID
  2
GENIUS_GENODEF_13
 70
     0
  0
APPID
  2
GENIUS_GENOBJ-N-FIL_13
 70
     0
  0
APPID
  2
GENIUS_GENOREF_13
 70
     0
  0
APPID
  2
ACAD_MLEADERVER
 70
     0
  0
APPID
  2
ACAD_DSTYLE_DIMJAG
 70
     0
  0
APPID
  2
ACAD_DSTYLE_DIMTALN
 70
     0
  0
APPID
  2
ACAD_NAV_VCDISPLAY
 70
     0
  0
APPID
  2
ACAD_EXEMPT_FROM_CAD_STANDARDS
 70
     0
  0
ENDTAB
  0
TABLE
  2
DIMSTYLE
 70
     1
  0
DIMSTYLE
  2
STANDARD
 70
     0
  3

  4

  5

  6

  7

 40
1.0
 41
0.18
 42
0.0625
 43
0.38
 44
0.18
 45
0.0
 46
0.0
 47
0.0
 48
0.0
140
0.18
141
0.09
142
0.0
143
25.399999999999999
144
1.0
145
0.0
146
1.0
147
0.09
 71
     0
 72
     0
 73
     1
 74
     1
 75
     0
 76
     0
 77
     0
 78
     0
170
     0
171
     2
172
     0
173
     0
174
     0
175
     0
176
     0
177
     0
178
     0
  0
ENDTAB
  0
ENDSEC
  0
SECTION
  2
BLOCKS
  0
BLOCK
  8
0
  2
$MODEL_SPACE
 70
     0
 10
0.0
 20
0.0
 30
0.0
  3
$MODEL_SPACE
  1

  0
ENDBLK
  5
522
  8
0
  0
BLOCK
 67
     1
  8
0
  2
$PAPER_SPACE
 70
     0
 10
0.0
 20
0.0
 30
0.0
  3
$PAPER_SPACE
  1

  0
ENDBLK
  5
520
 67
     1
  8
0
  0
ENDSEC
  0
SECTION
  2
ENTITIES
  0
ARC
  5
B1C
  8
0
 10
311.1526398216771
 20
170.33359668290689
 30
0.0
 40
9.1499999999998227
 50
190.38885781547151
 51
349.61114218454412
  0
LINE
  5
B1D
  8
0
 10
320.1526398216771
 20
153.58359668290669
 30
0.0
 11
321.9026398216771
 21
153.5835966829066
 31
0.0
  0
LINE
  5
B1E
  8
0
 10
306.40263982167733
 20
129.35313193066131
 30
0.0
 11
306.40263982167733
 21
162.5131107645002
 31
0.0
  0
LINE
  5
B1F
  8
0
 10
315.90263982167733
 20
129.35313193066131
 30
0.0
 11
315.90263982167733
 21
162.51311076450051
 31
0.0
  0
ARC
  5
B2D
  8
0
 10
324.10263982167709
 20
121.48359668290681
 30
0.0
 40
0.3
 50
270.0
 51
0.0
  0
LINE
  5
B2E
  8
0
 10
324.4026398216771
 20
151.08359668290689
 30
0.0
 11
324.4026398216771
 21
121.48359668290681
 31
0.0
  0
ARC
  5
B2F
  8
0
 10
298.20263982167751
 20
121.48359668290681
 30
0.0
 40
0.3
 50
180.0
 51
270.0
  0
ARC
  5
B30
  8
0
 10
300.40263982167761
 20
151.08359668290689
 30
0.0
 40
2.5
 50
90.0
 51
180.0
  0
LINE
  5
B31
  8
0
 10
297.90263982167761
 20
151.08359668290689
 30
0.0
 11
297.90263982167761
 21
121.48359668290681
 31
0.0
  0
LINE
  5
B32
  8
0
 10
302.15263982167733
 20
116.1835966829068
 30
0.0
 11
301.65263982167733
 21
116.6835966829068
 31
0.0
  0
LINE
  5
B33
  8
0
 10
301.65263982167733
 20
121.1835966829068
 30
0.0
 11
301.65263982167733
 21
116.6835966829068
 31
0.0
  0
LINE
  5
B34
  8
0
 10
320.65263982167733
 20
116.6835966829068
 30
0.0
 11
301.6526398216771
 21
116.6835966829068
 31
0.0
  0
LINE
  5
B35
  8
0
 10
320.15263982167733
 20
116.1835966829068
 30
0.0
 11
320.65263982167733
 21
116.6835966829068
 31
0.0
  0
LINE
  5
B36
  8
0
 10
320.15263982167733
 20
116.1835966829068
 30
0.0
 11
302.15263982167761
 21
116.1835966829067
 31
0.0
  0
LINE
  5
B37
  8
0
 10
320.65263982167733
 20
121.1835966829068
 30
0.0
 11
320.65263982167733
 21
116.6835966829068
 31
0.0
  0
LINE
  5
B38
  8
0
 10
300.40263982167761
 20
153.58359668290689
 30
0.0
 11
302.15263982167733
 21
153.58359668290689
 31
0.0
  0
LINE
  5
B39
  8
0
 10
298.20263982167751
 20
121.1835966829068
 30
0.0
 11
324.10263982167709
 21
121.1835966829068
 31
0.0
  0
LINE
  5
B3A
  8
1
 10
311.15263982167733
 20
111.1835966829067
 30
0.0
 11
311.15263982167733
 21
177.68359668290671
 31
0.0
  0
ARC
  5
B3B
  8
0
 10
321.9026398216771
 20
151.08359668290689
 30
0.0
 40
2.5
 50
0.0
 51
90.0
  0
LINE
  5
B3C
  8
0
 10
320.15263982167642
 20
129.35313193066131
 30
0.0
 11
320.15263982167733
 21
168.68359668290671
 31
0.0
  0
LINE
  5
B3D
  8
0
 10
302.15263982167733
 20
129.35313193066119
 30
0.0
 11
302.15263982167733
 21
168.68359668290671
 31
0.0
  0
LINE
  5
B3E
  8
0
 10
316.15263982167733
 20
172.68359668290671
 30
0.0
 11
306.15263982167733
 21
172.68359668290671
 31
0.0
  0
ARC
  5
B3F
  8
0
 10
306.15263982167733
 20
168.68359668290671
 30
0.0
 40
4.0
 50
90.0
 51
180.0
  0
ARC
  5
B40
  8
0
 10
316.15263982167733
 20
168.68359668290671
 30
0.0
 40
4.0
 50
0.0
 51
90.0
  0
ARC
  5
B41
  8
0
 10
76.152639821677212
 20
168.68359668290671
 30
0.0
 40
4.0
 50
0.0
 51
90.0
  0
ARC
  5
B42
  8
0
 10
66.152639821677212
 20
168.68359668290671
 30
0.0
 40
4.0
 50
90.0
 51
180.0
  0
LINE
  5
B43
  8
0
 10
76.152639821677212
 20
172.68359668290671
 30
0.0
 11
66.152639821677212
 21
172.68359668290671
 31
0.0
  0
LINE
  5
B44
  8
0
 10
64.663225043669399
 20
159.0418931571173
 30
0.0
 11
62.152639821677333
 21
159.0418931571173
 31
0.0
  0
LINE
  5
B45
  8
0
 10
62.152639821677212
 20
153.58359668290689
 30
0.0
 11
62.152639821677212
 21
168.68359668290671
 31
0.0
  0
LINE
  5
B46
  8
0
 10
80.152639821677084
 20
153.5835966829066
 30
0.0
 11
80.152639821677226
 21
168.68359668290671
 31
0.0
  0
LINE
  5
B47
  8
0
 10
80.152639821677326
 20
159.0418931571173
 30
0.0
 11
77.642054599685366
 21
159.0418931571173
 31
0.0
  0
ARC
  5
B48
  8
0
 10
81.902639821676985
 20
151.08359668290689
 30
0.0
 40
2.5
 50
0.0
 51
90.0
  0
LINE
  5
B49
  8
1
 10
71.152639821677212
 20
111.183596682906
 30
0.0
 11
71.152639821677212
 21
177.68359668290671
 31
0.0
  0
LINE
  5
B4A
  8
0
 10
58.202639821677387
 20
121.1835966829068
 30
0.0
 11
84.102639821677045
 21
121.1835966829068
 31
0.0
  0
LINE
  5
B4B
  8
0
 10
60.402639821677433
 20
153.58359668290689
 30
0.0
 11
81.902639821676985
 21
153.5835966829066
 31
0.0
  0
LINE
  5
B4C
  8
0
 10
80.652639821677212
 20
121.1835966829068
 30
0.0
 11
80.652639821677212
 21
116.6835966829068
 31
0.0
  0
LINE
  5
B4D
  8
0
 10
80.152639821677226
 20
116.1835966829068
 30
0.0
 11
62.152639821677333
 21
116.1835966829067
 31
0.0
  0
LINE
  5
B4E
  8
0
 10
80.152639821677226
 20
116.1835966829068
 30
0.0
 11
80.652639821677212
 21
116.6835966829068
 31
0.0
  0
LINE
  5
B4F
  8
0
 10
80.652639821677212
 20
116.6835966829068
 30
0.0
 11
61.652639821677099
 21
116.6835966829068
 31
0.0
  0
LINE
  5
B50
  8
0
 10
61.652639821677212
 20
121.1835966829068
 30
0.0
 11
61.652639821677212
 21
116.6835966829068
 31
0.0
  0
LINE
  5
B51
  8
0
 10
62.152639821677212
 20
116.1835966829068
 30
0.0
 11
61.652639821677212
 21
116.6835966829068
 31
0.0
  0
LINE
  5
B52
  8
0
 10
65.402639821677425
 20
159.1835966829068
 30
0.0
 11
76.902639821677212
 21
159.1835966829068
 31
0.0
  0
LINE
  5
B53
  8
0
 10
57.902639821677433
 20
151.08359668290689
 30
0.0
 11
57.902639821677433
 21
121.48359668290681
 31
0.0
  0
ARC
  5
B54
  8
0
 10
60.402639821677433
 20
151.08359668290689
 30
0.0
 40
2.5
 50
90.0
 51
180.0
  0
ARC
  5
B55
  8
0
 10
58.202639821677387
 20
121.48359668290681
 30
0.0
 40
0.3
 50
180.0
 51
270.0
  0
LINE
  5
B56
  8
0
 10
84.402639821676985
 20
151.08359668290689
 30
0.0
 11
84.402639821676985
 21
121.48359668290681
 31
0.0
  0
ARC
  5
B57
  8
0
 10
84.102639821677045
 20
121.48359668290681
 30
0.0
 40
0.3
 50
270.0
 51
0.0
  0
LINE
  5
B58
  8
0
 10
63.40263982167744
 20
157.1835966829068
 30
0.0
 11
63.40263982167744
 21
153.58359668290689
 31
0.0
  0
LINE
  5
B59
  8
0
 10
78.902639821677212
 20
157.1835966829068
 30
0.0
 11
78.902639821677084
 21
153.58359668290669
 31
0.0
  0
ARC
  5
B5A
  8
0
 10
65.402639821677425
 20
157.1835966829068
 30
0.0
 40
2.0
 50
90.0
 51
180.0
  0
ARC
  5
B5B
  8
0
 10
76.902639821677212
 20
157.1835966829068
 30
0.0
 40
2.0
 50
0.0
 51
90.0
  0
LINE
  5
B76
  8
0
 10
242.61763982167739
 20
172.6835966829068
 30
0.0
 11
232.6176398216698
 21
172.6835966829068
 31
0.0
  0
ARC
  5
B77
  8
0
 10
156.9026398216773
 20
157.1835966829068
 30
0.0
 40
2.0
 50
0.0
 51
90.0
  0
ARC
  5
B78
  8
0
 10
145.4026398216775
 20
157.1835966829068
 30
0.0
 40
2.0
 50
90.0
 51
180.0
  0
LINE
  5
B79
  8
0
 10
158.9026398216773
 20
157.1835966829068
 30
0.0
 11
158.9026398216773
 21
156.0757392101093
 31
0.0
  0
LINE
  5
B7A
  8
0
 10
143.4026398216775
 20
157.1835966829068
 30
0.0
 11
143.4026398216775
 21
153.58359668290689
 31
0.0
  0
ARC
  5
B7B
  8
0
 10
164.10263982167709
 20
121.48359668290681
 30
0.0
 40
0.3
 50
270.0
 51
0.0
  0
LINE
  5
B7C
  8
0
 10
164.4026398216771
 20
129.35313193066131
 30
0.0
 11
164.4026398216771
 21
121.48359668290681
 31
0.0
  0
ARC
  5
B7D
  8
0
 10
138.20263982167751
 20
121.48359668290681
 30
0.0
 40
0.3
 50
180.0
 51
270.0
  0
ARC
  5
B7E
  8
0
 10
140.4026398216775
 20
151.08359668290689
 30
0.0
 40
2.5
 50
90.0
 51
180.0
  0
LINE
  5
B7F
  8
0
 10
137.9026398216775
 20
151.08359668290689
 30
0.0
 11
137.9026398216775
 21
121.48359668290681
 31
0.0
  0
ARC
  5
B80
  8
3
 10
237.1526398216773
 20
232.4335966829068
 30
0.0
 40
7.5
 50
270.0
 51
90.0
  0
ARC
  5
B81
  8
3
 10
166.8867587992371
 20
205.4335966829068
 30
0.0
 40
19.5
 50
90.0
 51
120.2312862551202
  0
ARC
  5
B82
  8
3
 10
166.8867587992371
 20
259.4335966829068
 30
0.0
 40
19.5
 50
239.76871374487979
 51
270.0
  0
ARC
  5
B83
  8
3
 10
151.1526398216775
 20
232.4335966829068
 30
0.0
 40
11.75
 50
59.768713744879811
 51
300.2312862551201
  0
LINE
  5
B84
  8
3
 10
166.8867587992371
 20
224.9335966829068
 30
0.0
 11
237.1526398216773
 21
224.9335966829068
 31
0.0
  0
LINE
  5
B85
  8
3
 10
166.8867587992371
 20
239.9335966829068
 30
0.0
 11
237.1526398216773
 21
239.9335966829068
 31
0.0
  0
CIRCLE
  5
B8C
  8
0
 10
151.1526398216773
 20
232.4335966829068
 30
0.0
 40
7.75
  0
ARC
  5
B8D
  8
0
 10
237.1526398216773
 20
232.4335966829068
 30
0.0
 40
9.0
 50
270.0
 51
90.0
  0
ARC
  5
B8E
  8
0
 10
166.8867587992371
 20
205.4335966829068
 30
0.0
 40
18.0
 50
90.0
 51
120.2312862551202
  0
ARC
  5
B8F
  8
0
 10
166.8867587992371
 20
259.4335966829068
 30
0.0
 40
18.0
 50
239.76871374487979
 51
270.0
  0
LINE
  5
B90
  8
0
 10
166.8867587992371
 20
223.4335966829068
 30
0.0
 11
237.1526398216773
 21
223.4335966829068
 31
0.0
  0
LINE
  5
B91
  8
0
 10
166.8867587992371
 20
241.4335966829068
 30
0.0
 11
237.1526398216773
 21
241.4335966829068
 31
0.0
  0
ARC
  5
B92
  8
0
 10
151.1526398216775
 20
232.4335966829068
 30
0.0
 40
13.25
 50
59.768713744879811
 51
300.2312862551201
  0
LINE
  5
B93
  8
0
 10
145.4026398216775
 20
159.1835966829068
 30
0.0
 11
156.9026398216773
 21
159.1835966829068
 31
0.0
  0
CIRCLE
  5
B94
  8
0
 10
183.69363836264401
 20
232.4335966829068
 30
0.0
 40
1.363499999999999
  0
CIRCLE
  5
B95
  8
0
 10
175.61743173513659
 20
232.4335966829068
 30
0.0
 40
1.363499999999999
  0
CIRCLE
  5
B96
  8
0
 10
179.6484181544223
 20
232.4335966829068
 30
0.0
 40
1.363499999999999
  0
CIRCLE
  5
B97
  8
0
 10
167.60136003461309
 20
232.4335966829068
 30
0.0
 40
1.363499999999999
  0
ARC
  5
B98
  8
3
 10
131.04432499306751
 20
232.4093059076844
 30
0.0
 40
31.675434209421791
 50
345.00708935510693
 51
15.09129996911124
  0
CIRCLE
  5
B99
  8
0
 10
171.60162219085319
 20
232.4335966829068
 30
0.0
 40
1.363499999999999
  0
LINE
  5
B9A
  8
1
 10
151.1526398216773
 20
214.1835966829068
 30
0.0
 11
151.1526398216773
 21
250.6835966829068
 31
0.0
  0
LINE
  5
B9B
  8
1
 10
132.9026398216775
 20
232.4335966829068
 30
0.0
 11
251.1526398216773
 21
232.4335966829068
 31
0.0
  0
LINE
  5
B9C
  8
0
 10
142.1526398216773
 20
116.1835966829068
 30
0.0
 11
141.6526398216773
 21
116.6835966829068
 31
0.0
  0
LINE
  5
B9D
  8
0
 10
141.6526398216773
 20
121.1835966829068
 30
0.0
 11
141.6526398216773
 21
116.6835966829068
 31
0.0
  0
LINE
  5
B9E
  8
0
 10
160.6526398216773
 20
116.6835966829068
 30
0.0
 11
141.6526398216771
 21
116.6835966829068
 31
0.0
  0
LINE
  5
B9F
  8
0
 10
160.1526398216773
 20
116.1835966829068
 30
0.0
 11
160.6526398216773
 21
116.6835966829068
 31
0.0
  0
LINE
  5
BA0
  8
0
 10
160.1526398216773
 20
116.1835966829068
 30
0.0
 11
142.1526398216775
 21
116.1835966829067
 31
0.0
  0
LINE
  5
BA1
  8
0
 10
160.6526398216773
 20
121.1835966829068
 30
0.0
 11
160.6526398216773
 21
116.6835966829068
 31
0.0
  0
ARC
  5
BA2
  8
0
 10
240.10708802069399
 20
164.71859668290679
 30
0.0
 40
3.5350000000000001
 50
222.1172855273249
 51
303.23371287585292
  0
ARC
  5
BA3
  8
0
 10
230.7421969944661
 20
156.25163494525401
 30
0.0
 40
9.0899999999999999
 50
42.117285527324917
 51
97.767625209389251
  0
ARC
  5
BA4
  8
0
 10
242.61763982167739
 20
169.1485966829068
 30
0.0
 40
3.5350000000000001
 50
0.0
 51
90.0
  0
ARC
  5
BA5
  8
0
 10
237.4337847493785
 20
169.1617907184654
 30
0.0
 40
8.7188650554029863
 50
301.92552296820162
 51
359.91329572874668
  0
ARC
  5
BA6
  8
0
 10
182.07733403376471
 20
129.24916314113699
 30
0.0
 40
17.675000000000001
 50
119.6776086027424
 51
179.66296989014211
  0
LINE
  5
BA7
  8
0
 10
140.4026398216775
 20
153.58359668290689
 30
0.0
 11
151.1526398216773
 21
153.58359668290669
 31
0.0
  0
ARC
  5
BA8
  8
0
 10
151.22434801798281
 20
166.65704585804329
 30
0.0
 40
13.073645834284219
 50
269.68573436530772
 51
324.37475421994429
  0
LINE
  5
BA9
  8
0
 10
138.20263982167751
 20
121.1835966829068
 30
0.0
 11
164.10263982167709
 21
121.1835966829068
 31
0.0
  0
LINE
  5
BAA
  8
1
 10
151.1526398216773
 20
111.1835966829062
 30
0.0
 11
151.1526398216773
 21
164.1835966829068
 31
0.0
  0
ARC
  5
BAB
  8
0
 10
253.88064091934109
 20
12.206867162649271
 30
0.0
 40
154.97893516616759
 50
99.046028958572094
 51
121.3173168627825
  0
ARC
  5
BAC
  8
0
 10
247.18903752079689
 20
-93.277303996080377
 30
0.0
 40
266.35976858543057
 50
93.135971253988004
 51
108.6862500730855
  0
LINE
  5
BB2
  8
2
 10
145.1526398216773
 20
117.23659668290669
 30
0.0
 11
145.1526398216773
 21
133.1835966829068
 31
0.0
  0
LINE
  5
BB3
  8
2
 10
146.0996398216773
 20
118.1835966829067
 30
0.0
 11
146.0996398216773
 21
136.18359668290671
 31
0.0
  0
LINE
  5
BB4
  8
2
 10
156.20563982167741
 20
118.1835966829067
 30
0.0
 11
156.20563982167729
 21
136.18359668290671
 31
0.0
  0
LINE
  5
BB5
  8
2
 10
157.1526398216773
 20
117.23659668290669
 30
0.0
 11
157.1526398216773
 21
133.1835966829068
 31
0.0
  0
LINE
  5
BB6
  8
2
 10
145.1526398216773
 20
133.1835966829068
 30
0.0
 11
157.1526398216773
 21
133.1835966829068
 31
0.0
  0
LINE
  5
BB7
  8
2
 10
146.0996398216773
 20
136.18359668290671
 30
0.0
 11
156.20563982167729
 21
136.18359668290671
 31
0.0
  0
LINE
  5
BB8
  8
2
 10
146.0996398216771
 20
136.18359668290671
 30
0.0
 11
151.1526398216771
 21
139.21974539085309
 31
0.0
  0
LINE
  5
BB9
  8
2
 10
156.20563982167741
 20
136.18359668290671
 30
0.0
 11
151.1526398216771
 21
139.21974539085309
 31
0.0
  0
LINE
  5
BBA
  8
2
 10
157.1526398216773
 20
133.1835966829068
 30
0.0
 11
156.20563982167741
 21
134.8238487976744
 31
0.0
  0
LINE
  5
BBB
  8
2
 10
145.15263982167701
 20
133.1835966829068
 30
0.0
 11
146.0996398216769
 21
134.8238487976744
 31
0.0
  0
LINE
  5
BBC
  8
2
 10
158.20563982167741
 20
116.1835966829067
 30
0.0
 11
156.20563982167729
 21
118.1835966829067
 31
0.0
  0
LINE
  5
BBD
  8
2
 10
156.20563982167729
 20
118.1835966829067
 30
0.0
 11
146.0996398216773
 21
118.1835966829067
 31
0.0
  0
LINE
  5
BBE
  8
2
 10
144.0996398216773
 20
116.1835966829067
 30
0.0
 11
146.0996398216773
 21
118.1835966829067
 31
0.0
  0
LINE
  5
BC2
  8
2
 10
76.205639821677266
 20
118.1835966829067
 30
0.0
 11
66.099639821677272
 21
118.1835966829067
 31
0.0
  0
LINE
  5
BC3
  8
2
 10
78.205639821677323
 20
116.1835966829067
 30
0.0
 11
76.205639821677266
 21
118.1835966829067
 31
0.0
  0
LINE
  5
BC4
  8
2
 10
65.152639821676914
 20
133.1835966829068
 30
0.0
 11
66.099639821676874
 21
134.8238487976744
 31
0.0
  0
LINE
  5
BC5
  8
2
 10
77.152639821677255
 20
133.1835966829068
 30
0.0
 11
76.205639821677323
 21
134.8238487976744
 31
0.0
  0
LINE
  5
BC6
  8
2
 10
76.205639821677352
 20
136.18359668290671
 30
0.0
 11
71.15263982167707
 21
139.21974539085309
 31
0.0
  0
LINE
  5
BC7
  8
2
 10
66.099639821677016
 20
136.18359668290671
 30
0.0
 11
71.15263982167707
 21
139.21974539085309
 31
0.0
  0
LINE
  5
BC8
  8
2
 10
66.099639821677243
 20
136.18359668290671
 30
0.0
 11
76.205639821677295
 21
136.18359668290671
 31
0.0
  0
LINE
  5
BC9
  8
2
 10
65.152639821677269
 20
133.1835966829068
 30
0.0
 11
77.152639821677255
 21
133.1835966829068
 31
0.0
  0
LINE
  5
BCA
  8
2
 10
77.152639821677255
 20
117.23659668290669
 30
0.0
 11
77.152639821677255
 21
133.1835966829068
 31
0.0
  0
LINE
  5
BCB
  8
2
 10
76.205639821677323
 20
118.1835966829067
 30
0.0
 11
76.205639821677295
 21
136.18359668290671
 31
0.0
  0
LINE
  5
BCC
  8
2
 10
66.099639821677272
 20
118.1835966829067
 30
0.0
 11
66.099639821677243
 21
136.18359668290671
 31
0.0
  0
LINE
  5
BCD
  8
2
 10
65.152639821677269
 20
117.23659668290669
 30
0.0
 11
65.152639821677269
 21
133.1835966829068
 31
0.0
  0
LINE
  5
BCE
  8
2
 10
64.099639821677215
 20
116.1835966829067
 30
0.0
 11
66.099639821677272
 21
118.1835966829067
 31
0.0
  0
LINE
  5
BCF
  8
2
 10
304.09963982167727
 20
116.1835966829067
 30
0.0
 11
306.09963982167727
 21
118.1835966829067
 31
0.0
  0
LINE
  5
BD0
  8
2
 10
316.20563982167732
 20
118.1835966829067
 30
0.0
 11
306.09963982167727
 21
118.1835966829067
 31
0.0
  0
LINE
  5
BD1
  8
2
 10
318.20563982167738
 20
116.1835966829067
 30
0.0
 11
316.20563982167732
 21
118.1835966829067
 31
0.0
  0
LINE
  5
BD2
  8
2
 10
305.15263982167698
 20
133.1835966829068
 30
0.0
 11
306.09963982167687
 21
134.8238487976744
 31
0.0
  0
LINE
  5
BD3
  8
2
 10
317.15263982167733
 20
133.1835966829068
 30
0.0
 11
316.20563982167738
 21
134.8238487976744
 31
0.0
  0
LINE
  5
BD4
  8
2
 10
316.20563982167738
 20
136.18359668290671
 30
0.0
 11
311.1526398216771
 21
139.21974539085309
 31
0.0
  0
LINE
  5
BD5
  8
2
 10
306.0996398216771
 20
136.18359668290671
 30
0.0
 11
311.1526398216771
 21
139.21974539085309
 31
0.0
  0
LINE
  5
BD6
  8
2
 10
306.09963982167727
 20
136.18359668290671
 30
0.0
 11
316.20563982167732
 21
136.18359668290671
 31
0.0
  0
LINE
  5
BD7
  8
2
 10
305.15263982167733
 20
133.1835966829068
 30
0.0
 11
317.15263982167733
 21
133.1835966829068
 31
0.0
  0
LINE
  5
BD8
  8
2
 10
317.15263982167733
 20
117.23659668290669
 30
0.0
 11
317.15263982167733
 21
133.1835966829068
 31
0.0
  0
LINE
  5
BD9
  8
2
 10
316.20563982167738
 20
118.1835966829067
 30
0.0
 11
316.20563982167732
 21
136.18359668290671
 31
0.0
  0
LINE
  5
BDA
  8
2
 10
306.09963982167727
 20
118.1835966829067
 30
0.0
 11
306.09963982167727
 21
136.18359668290671
 31
0.0
  0
LINE
  5
BDB
  8
2
 10
305.15263982167733
 20
117.23659668290669
 30
0.0
 11
305.15263982167733
 21
133.1835966829068
 31
0.0
  0
TEXT
  5
CF9
  8
0
 62
     3
 10
0.0
 20
0.0
 30
0.0
 40
10.0
  1
EALA95B-SUS
  7
STANDARD1
  0
ARC
  5
1822
  8
0
 10
148.7429241356472
 20
233.82484668290689
 30
0.0
 40
0.5300000000000031
 50
89.465006080394161
 51
210.53499164145509
  0
ARC
  5
1823
  8
0
 10
146.3843455632981
 20
232.43359668290691
 30
0.0
 40
2.2083333333333468
 50
329.46500662715152
 51
30.53499446635935
  0
ARC
  5
1824
  8
0
 10
148.7429241356472
 20
231.04234668290701
 30
0.0
 40
0.5300000000000056
 50
149.46500380224859
 51
270.53499558007547
  0
ARC
  5
1825
  8
0
 10
148.76849269248771
 20
228.30413272243101
 30
0.0
 40
2.208333333333353
 50
29.465006080394261
 51
90.534993521091948
  0
ARC
  5
1826
  8
0
 10
151.1526398216773
 20
229.65109668290691
 30
0.0
 40
0.5300000000000154
 50
209.46500608039869
 51
330.534991641457
  0
ARC
  5
1827
  8
0
 10
153.536786950867
 20
228.30413272243101
 30
0.0
 40
2.2083333333333308
 50
89.465006080394161
 51
150.53499446636019
  0
ARC
  5
1828
  8
0
 10
153.56235550770759
 20
231.04234668290701
 30
0.0
 40
0.5300000000000316
 50
269.46500608039742
 51
30.53499619774998
  0
ARC
  5
1829
  8
0
 10
155.92093408005661
 20
232.43359668290691
 30
0.0
 40
2.2083333333333282
 50
149.46500608039511
 51
210.53499337284961
  0
ARC
  5
182A
  8
0
 10
153.56235550770759
 20
233.82484668290689
 30
0.0
 40
0.5300000000000031
 50
329.46500608039719
 51
90.534993919605824
  0
ARC
  5
182B
  8
0
 10
153.536786950867
 20
236.5630606433829
 30
0.0
 40
2.2083333333333548
 50
209.46500608039801
 51
270.53499391960582
  0
ARC
  5
182C
  8
0
 10
151.1526398216773
 20
235.21609668290691
 30
0.0
 40
0.5300000000000014
 50
29.465006080393909
 51
150.5349955800734
  0
ARC
  5
182D
  8
0
 10
148.76849269248771
 20
236.5630606433829
 30
0.0
 40
2.2083333333333548
 50
269.46500608039742
 51
330.5349935210927
  0
ENDSEC
  0
EOF
