  0
SECTION
  2
HEADER
  9
$ACADVER
  1
AC1009
  9
$INSBASE
 10
0.0
 20
0.0
 30
0.0
  9
$EXTMIN
 10
0.0
 20
-2.960436562073669
 30
0.0
  9
$EXTMAX
 10
277.52354044478841
 20
226.2166885943661
 30
0.0
  9
$LIMMIN
 10
0.0
 20
0.0
  9
$LIMMAX
 10
270.0
 20
175.0
  9
$ORTHOMODE
 70
     1
  9
$REGENMODE
 70
     1
  9
$FILLMODE
 70
     1
  9
$QTEXTMODE
 70
     0
  9
$MIRRTEXT
 70
     0
  9
$DRAGMODE
 70
     2
  9
$LTSCALE
 40
5.0
  9
$OSMODE
 70
    37
  9
$ATTMODE
 70
     1
  9
$TEXTSIZE
 40
0.2
  9
$TRACEWID
 40
0.05
  9
$TEXTSTYLE
  7
STANDARD
  9
$CLAYER
  8
0
  9
$CELTYPE
  6
BYLAYER
  9
$CECOLOR
 62
   256
  9
$DIMSCALE
 40
1.0
  9
$DIMASZ
 40
3.0
  9
$DIMEXO
 40
2.0
  9
$DIMDLI
 40
0.38
  9
$DIMRND
 40
0.0
  9
$DIMDLE
 40
0.0
  9
$DIMEXE
 40
2.0
  9
$DIMTP
 40
0.0
  9
$DIMTM
 40
0.0
  9
$DIMTXT
 40
3.0
  9
$DIMCEN
 40
0.0
  9
$DIMTSZ
 40
0.0
  9
$DIMTOL
 70
     0
  9
$DIMLIM
 70
     0
  9
$DIMTIH
 70
     0
  9
$DIMTOH
 70
     0
  9
$DIMSE1
 70
     0
  9
$DIMSE2
 70
     0
  9
$DIMTAD
 70
     1
  9
$DIMZIN
 70
     8
  9
$DIMBLK
  1

  9
$DIMASO
 70
     0
  9
$DIMSHO
 70
     0
  9
$DIMPOST
  1

  9
$DIMAPOST
  1

  9
$DIMALT
 70
     0
  9
$DIMALTD
 70
     2
  9
$DIMALTF
 40
25.399999999999999
  9
$DIMLFAC
 40
1.0
  9
$DIMTOFL
 70
     1
  9
$DIMTVP
 40
1.6000000000000001
  9
$DIMTIX
 70
     1
  9
$DIMSOXD
 70
     0
  9
$DIMSAH
 70
     0
  9
$DIMBLK1
  1

  9
$DIMBLK2
  1

  9
$DIMSTYLE
  2
STANDARD
  9
$DIMCLRD
 70
     0
  9
$DIMCLRE
 70
     0
  9
$DIMCLRT
 70
     0
  9
$DIMTFAC
 40
1.0
  9
$DIMGAP
 40
1.0
  9
$LUNITS
 70
     2
  9
$LUPREC
 70
     1
  9
$SKETCHINC
 40
0.1
  9
$FILLETRAD
 40
0.0
  9
$AUNITS
 70
     0
  9
$AUPREC
 70
     1
  9
$MENU
  1
E:\r13\win\SUPPORT\ACAD
  9
$ELEVATION
 40
0.0
  9
$PELEVATION
 40
0.0
  9
$THICKNESS
 40
0.0
  9
$LIMCHECK
 70
     0
  9
$BLIPMODE
 70
     0
  9
$CHAMFERA
 40
0.0
  9
$CHAMFERB
 40
0.0
  9
$SKPOLY
 70
     0
  9
$TDCREATE
 40
2449839.7803587969
  9
$TDUPDATE
 40
2458275.4587517818
  9
$TDINDWG
 40
0.164470787
  9
$TDUSRTIMER
 40
0.164470787
  9
$USRTIMER
 70
     1
  9
$ANGBASE
 50
0.0
  9
$ANGDIR
 70
     0
  9
$PDMODE
 70
     0
  9
$PDSIZE
 40
0.0
  9
$PLINEWID
 40
0.0
  9
$COORDS
 70
     1
  9
$SPLFRAME
 70
     0
  9
$SPLINETYPE
 70
     6
  9
$SPLINESEGS
 70
     8
  9
$ATTDIA
 70
     0
  9
$ATTREQ
 70
     1
  9
$HANDLING
 70
     1
  9
$HANDSEED
  5
1011
  9
$SURFTAB1
 70
     6
  9
$SURFTAB2
 70
     6
  9
$SURFTYPE
 70
     6
  9
$SURFU
 70
     6
  9
$SURFV
 70
     6
  9
$UCSNAME
  2

  9
$UCSORG
 10
0.0
 20
0.0
 30
0.0
  9
$UCSXDIR
 10
1.0
 20
0.0
 30
0.0
  9
$UCSYDIR
 10
0.0
 20
1.0
 30
0.0
  9
$PUCSNAME
  2

  9
$PUCSORG
 10
0.0
 20
0.0
 30
0.0
  9
$PUCSXDIR
 10
1.0
 20
0.0
 30
0.0
  9
$PUCSYDIR
 10
0.0
 20
1.0
 30
0.0
  9
$USERI1
 70
     0
  9
$USERI2
 70
     1
  9
$USERI3
 70
     1
  9
$USERI4
 70
     0
  9
$USERI5
 70
     0
  9
$USERR1
 40
0.0
  9
$USERR2
 40
0.0
  9
$USERR3
 40
0.0
  9
$USERR4
 40
0.0
  9
$USERR5
 40
0.0
  9
$WORLDVIEW
 70
     1
  9
$SHADEDGE
 70
     3
  9
$SHADEDIF
 70
    70
  9
$TILEMODE
 70
     1
  9
$MAXACTVP
 70
    16
  9
$PLIMCHECK
 70
     0
  9
$PEXTMIN
 10
1.0000000000000000E+020
 20
1.0000000000000000E+020
 30
1.0000000000000000E+020
  9
$PEXTMAX
 10
-1.0000000000000000E+020
 20
-1.0000000000000000E+020
 30
-1.0000000000000000E+020
  9
$PLIMMIN
 10
0.0
 20
0.0
  9
$PLIMMAX
 10
12.0
 20
9.0
  9
$UNITMODE
 70
     0
  9
$VISRETAIN
 70
     0
  9
$PLINEGEN
 70
     0
  9
$PSLTSCALE
 70
     0
  0
ENDSEC
  0
SECTION
  2
TABLES
  0
TABLE
  2
VPORT
 70
     1
  0
VPORT
  2
*ACTIVE
 70
     0
 10
0.0
 20
0.0
 11
1.0
 21
1.0
 12
272.4358974358974
 22
150.0
 13
0.0
 23
0.0
 14
10.0
 24
10.0
 15
10.0
 25
10.0
 16
0.0
 26
0.0
 36
1.0
 17
0.0
 27
0.0
 37
0.0
 40
300.0
 41
1.816239316239316
 42
50.0
 43
0.0
 44
0.0
 50
0.0
 51
0.0
 71
     0
 72
   500
 73
     1
 74
     0
 75
     0
 76
     0
 77
     0
 78
     2
  0
ENDTAB
  0
TABLE
  2
LTYPE
 70
     4
  0
LTYPE
  2
CONTINUOUS
 70
     0
  3
Solid Line
 72
    65
 73
     0
 40
0.0
  0
LTYPE
  2
CENTER
 70
     0
  3
____ _ ____ _ ____ _ ____ _ ____ _ ____ _ ____
 72
    65
 73
     4
 40
2.0
 49
1.25
 49
-0.25
 49
0.25
 49
-0.25
  0
LTYPE
  2
PHANTOM2
 70
     0
  3
___ _ _ ___ _ _ ___ _ _ ___ _ _
 72
    65
 73
     6
 40
1.25
 49
0.625
 49
-0.125
 49
0.125
 49
-0.125
 49
0.125
 49
-0.125
  0
LTYPE
  2
HIDDEN
 70
     0
  3
Hidden __ __ __ __ __ __ __ __ __ __ __ __ __ _
 72
    65
 73
     2
 40
0.375
 49
0.25
 49
-0.125
  0
ENDTAB
  0
TABLE
  2
LAYER
 70
     4
  0
LAYER
  2
0
 70
     0
 62
     7
  6
CONTINUOUS
  0
LAYER
  2
1
 70
     0
 62
     1
  6
CENTER
  0
LAYER
  2
3
 70
     0
 62
     3
  6
CONTINUOUS
  0
LAYER
  2
2
 70
     0
 62
     2
  6
HIDDEN
  0
ENDTAB
  0
TABLE
  2
STYLE
 70
     2
  0
STYLE
  2
STANDARD
 70
     0
 40
0.0
 41
1.0
 50
0.0
 71
     0
 42
0.2
  3
TXT
  4
BIGFONT
  0
STYLE
  2
STANDARD1
 70
     0
 40
0.0
 41
1.0
 50
0.0
 71
     0
 42
3.0
  3
txt
  4

  0
ENDTAB
  0
TABLE
  2
VIEW
 70
     1
  0
VIEW
  2
ALL
 70
     0
 40
179.5384664489153
 10
135.0
 20
89.769233224457665
 41
0.0
 11
0.0
 21
0.0
 31
1.0
 12
0.0
 22
0.0
 32
0.0
 42
0.0
 43
0.0
 44
0.0
 50
0.0
 71
     0
  0
ENDTAB
  0
TABLE
  2
UCS
 70
     0
  0
ENDTAB
  0
TABLE
  2
APPID
 70
     9
  0
APPID
  2
ACAD
 70
     0
  0
APPID
  2
GENIUS_GENODEF_13
 70
     0
  0
APPID
  2
GENIUS_GENOBJ-N-FIL_13
 70
     0
  0
APPID
  2
GENIUS_GENOREF_13
 70
     0
  0
APPID
  2
ACAD_MLEADERVER
 70
     0
  0
APPID
  2
ACAD_NAV_VCDISPLAY
 70
     0
  0
APPID
  2
ACAD_EXEMPT_FROM_CAD_STANDARDS
 70
     0
  0
APPID
  2
ACAD_DSTYLE_DIMJAG
 70
     0
  0
APPID
  2
ACAD_DSTYLE_DIMTALN
 70
     0
  0
ENDTAB
  0
TABLE
  2
DIMSTYLE
 70
     1
  0
DIMSTYLE
  2
STANDARD
 70
     0
  3

  4

  5

  6

  7

 40
1.0
 41
0.18
 42
0.0625
 43
0.38
 44
0.18
 45
0.0
 46
0.0
 47
0.0
 48
0.0
140
0.18
141
0.09
142
0.0
143
25.399999999999999
144
1.0
145
0.0
146
1.0
147
0.09
 71
     0
 72
     0
 73
     1
 74
     1
 75
     0
 76
     0
 77
     0
 78
     0
170
     0
171
     2
172
     0
173
     0
174
     0
175
     0
176
     0
177
     0
178
     0
  0
ENDTAB
  0
ENDSEC
  0
SECTION
  2
BLOCKS
  0
BLOCK
  8
0
  2
$MODEL_SPACE
 70
     0
 10
0.0
 20
0.0
 30
0.0
  3
$MODEL_SPACE
  1

  0
ENDBLK
  5
522
  8
0
  0
BLOCK
 67
     1
  8
0
  2
$PAPER_SPACE
 70
     0
 10
0.0
 20
0.0
 30
0.0
  3
$PAPER_SPACE
  1

  0
ENDBLK
  5
520
 67
     1
  8
0
  0
ENDSEC
  0
SECTION
  2
ENTITIES
  0
LINE
  5
A9A
  8
1
 10
266.02354044478813
 20
160.6978792978509
 30
0.0
 11
266.02354044478813
 21
85.697879297850903
 31
0.0
  0
LINE
  5
AA9
  8
1
 10
66.023540444788068
 20
160.69787929784979
 30
0.0
 11
66.023540444788068
 21
85.697879297850903
 31
0.0
  0
LINE
  5
B05
  8
1
 10
136.02354044478801
 20
151.6978792978509
 30
0.0
 11
136.02354044478801
 21
85.697879297850903
 31
0.0
  0
LINE
  5
B51
  8
0
 10
141.02354044478801
 20
92.197879297850818
 30
0.0
 11
131.02354044478801
 21
92.197879297850946
 31
0.0
  0
LINE
  5
B52
  8
3
 10
131.83554044478799
 20
108.6978792978508
 30
0.0
 11
131.0235404447881
 21
110.10430455359661
 31
0.0
  0
LINE
  5
B53
  8
3
 10
140.21154044478811
 20
108.6978792978508
 30
0.0
 11
141.02354044478801
 21
110.10430455359661
 31
0.0
  0
LINE
  5
B54
  8
0
 10
141.02354044478801
 20
108.6978792978508
 30
0.0
 11
131.02354044478801
 21
108.6978792978509
 31
0.0
  0
LINE
  5
B55
  8
0
 10
132.52354044478801
 20
90.697879297850946
 30
0.0
 11
131.02354044478801
 21
92.197879297850946
 31
0.0
  0
LINE
  5
B56
  8
0
 10
141.02354044478801
 20
92.197879297850818
 30
0.0
 11
139.52354044478801
 21
90.697879297850861
 31
0.0
  0
LINE
  5
B57
  8
0
 10
141.02354044478801
 20
110.6978792978509
 30
0.0
 11
141.02354044478801
 21
92.197879297850818
 31
0.0
  0
LINE
  5
B58
  8
3
 10
140.21154044478811
 20
108.6978792978508
 30
0.0
 11
140.21154044478811
 21
91.385879297850934
 31
0.0
  0
LINE
  5
B59
  8
3
 10
131.83554044478791
 20
108.6978792978509
 30
0.0
 11
131.83554044478799
 21
91.385879297851005
 31
0.0
  0
LINE
  5
B5A
  8
0
 10
131.02354044478801
 20
110.6978792978509
 30
0.0
 11
131.02354044478801
 21
92.197879297850946
 31
0.0
  0
LINE
  5
B5B
  8
0
 10
139.52354044478801
 20
90.697879297850861
 30
0.0
 11
132.52354044478801
 21
90.697879297850946
 31
0.0
  0
LINE
  5
B65
  8
0
 10
69.52354044478804
 20
90.697879297850861
 30
0.0
 11
62.52354044478804
 21
90.697879297850946
 31
0.0
  0
LINE
  5
B66
  8
3
 10
70.211540444788142
 20
108.6978792978508
 30
0.0
 11
70.211540444788142
 21
91.385879297850934
 31
0.0
  0
LINE
  5
B67
  8
0
 10
71.02354044478804
 20
110.6978792978509
 30
0.0
 11
71.02354044478804
 21
92.197879297850818
 31
0.0
  0
LINE
  5
B68
  8
0
 10
71.02354044478804
 20
92.197879297850818
 30
0.0
 11
69.52354044478804
 21
90.697879297850861
 31
0.0
  0
LINE
  5
B69
  8
0
 10
71.02354044478804
 20
108.6978792978508
 30
0.0
 11
61.02354044478804
 21
108.6978792978509
 31
0.0
  0
LINE
  5
B6A
  8
3
 10
70.211540444788142
 20
108.6978792978508
 30
0.0
 11
71.023540444788068
 21
110.10430455359661
 31
0.0
  0
LINE
  5
B6B
  8
0
 10
71.02354044478804
 20
92.197879297850818
 30
0.0
 11
61.02354044478804
 21
92.197879297850946
 31
0.0
  0
LINE
  5
B6C
  8
0
 10
61.02354044478804
 20
110.6978792978509
 30
0.0
 11
61.02354044478804
 21
92.197879297850946
 31
0.0
  0
LINE
  5
B6D
  8
3
 10
61.835540444787931
 20
108.6978792978509
 30
0.0
 11
61.835540444787959
 21
91.385879297851005
 31
0.0
  0
LINE
  5
B6E
  8
0
 10
62.52354044478804
 20
90.697879297850946
 30
0.0
 11
61.02354044478804
 21
92.197879297850946
 31
0.0
  0
LINE
  5
B6F
  8
3
 10
61.835540444787959
 20
108.6978792978508
 30
0.0
 11
61.023540444788068
 21
110.10430455359661
 31
0.0
  0
LINE
  5
B70
  8
0
 10
271.02354044478818
 20
92.197879297850818
 30
0.0
 11
261.02354044478818
 21
92.197879297850946
 31
0.0
  0
LINE
  5
B71
  8
3
 10
270.21154044478828
 20
108.6978792978508
 30
0.0
 11
271.02354044478818
 21
110.10430455359661
 31
0.0
  0
LINE
  5
B72
  8
0
 10
271.02354044478818
 20
108.6978792978508
 30
0.0
 11
261.02354044478818
 21
108.6978792978509
 31
0.0
  0
LINE
  5
B73
  8
0
 10
271.02354044478818
 20
92.197879297850818
 30
0.0
 11
269.52354044478818
 21
90.697879297850861
 31
0.0
  0
LINE
  5
B74
  8
0
 10
271.02354044478818
 20
110.6978792978509
 30
0.0
 11
271.02354044478818
 21
92.197879297850818
 31
0.0
  0
LINE
  5
B75
  8
3
 10
270.21154044478828
 20
108.6978792978508
 30
0.0
 11
270.21154044478828
 21
91.385879297850934
 31
0.0
  0
LINE
  5
B76
  8
0
 10
269.52354044478818
 20
90.697879297850861
 30
0.0
 11
262.52354044478818
 21
90.697879297850946
 31
0.0
  0
LINE
  5
B77
  8
3
 10
261.83554044478808
 20
108.6978792978508
 30
0.0
 11
261.02354044478818
 21
110.10430455359661
 31
0.0
  0
LINE
  5
B78
  8
0
 10
262.52354044478818
 20
90.697879297850946
 30
0.0
 11
261.02354044478818
 21
92.197879297850946
 31
0.0
  0
LINE
  5
B79
  8
3
 10
261.83554044478808
 20
108.6978792978509
 30
0.0
 11
261.83554044478808
 21
91.385879297851005
 31
0.0
  0
LINE
  5
B7A
  8
0
 10
261.02354044478818
 20
110.6978792978509
 30
0.0
 11
261.02354044478818
 21
92.197879297850946
 31
0.0
  0
TEXT
  5
C99
  8
0
 62
     3
 10
0.0
 20
0.0
 30
0.0
 40
10.0
  1
EALA78BX20
  7
STANDARD1
  0
ARC
  5
E39
  8
0
 10
60.523540444788182
 20
145.69787929785099
 30
0.0
 40
1.0
 50
90.0
 51
180.0
  0
LINE
  5
E3A
  8
0
 10
59.523540444788068
 20
141.99787929785089
 30
0.0
 11
59.523540444788068
 21
145.69787929785099
 31
0.0
  0
LINE
  5
E3B
  8
0
 10
71.523540444788068
 20
146.6978792978509
 30
0.0
 11
60.523540444788182
 21
146.69787929785079
 31
0.0
  0
ARC
  5
E3C
  8
0
 10
71.523540444788068
 20
145.69787929785099
 30
0.0
 40
1.0
 50
0.0
 51
90.0
  0
LINE
  5
E3D
  8
0
 10
72.523540444788054
 20
145.69787929785099
 30
0.0
 11
72.523540444788054
 21
141.9978792978508
 31
0.0
  0
LINE
  5
E3E
  8
0
 10
262.02354044478813
 20
146.75874732224241
 30
0.0
 11
262.02354044478813
 21
118.95298128480751
 31
0.0
  0
LINE
  5
E3F
  8
0
 10
270.02354044478818
 20
146.7587473222423
 30
0.0
 11
270.02354044478818
 21
118.95298128480751
 31
0.0
  0
LINE
  5
E40
  8
0
 10
258.02354044478801
 20
141.9919773706784
 30
0.0
 11
256.52354044478813
 21
141.9919773706784
 31
0.0
  0
LINE
  5
E41
  8
0
 10
277.52354044478841
 20
139.99197737067831
 30
0.0
 11
277.5235404447879
 21
114.497879297851
 31
0.0
  0
ARC
  5
E42
  8
0
 10
277.22354044478789
 20
114.497879297851
 30
0.0
 40
0.3
 50
270.0
 51
0.0
  0
ARC
  5
E43
  8
0
 10
254.82354044478799
 20
114.497879297851
 30
0.0
 40
0.3
 50
180.0
 51
270.0
  0
ARC
  5
E44
  8
0
 10
256.52354044478813
 20
139.9919773706784
 30
0.0
 40
2.0
 50
90.0
 51
180.0
  0
LINE
  5
E45
  8
0
 10
254.5235404447881
 20
139.9919773706784
 30
0.0
 11
254.5235404447881
 21
114.497879297851
 31
0.0
  0
LINE
  5
E46
  8
0
 10
258.52354044478801
 20
110.6978792978509
 30
0.0
 11
258.02354044478801
 21
111.1978792978509
 31
0.0
  0
LINE
  5
E47
  8
0
 10
258.02354044478801
 20
114.1978792978509
 30
0.0
 11
258.02354044478801
 21
111.1978792978509
 31
0.0
  0
LINE
  5
E48
  8
0
 10
258.52354044478801
 20
110.6978792978509
 30
0.0
 11
273.5235404447879
 21
110.6978792978509
 31
0.0
  0
LINE
  5
E49
  8
0
 10
258.02354044478801
 20
111.1978792978509
 30
0.0
 11
274.0235404447879
 21
111.1978792978509
 31
0.0
  0
LINE
  5
E4A
  8
0
 10
273.5235404447879
 20
110.6978792978509
 30
0.0
 11
274.0235404447879
 21
111.1978792978509
 31
0.0
  0
LINE
  5
E4B
  8
0
 10
274.0235404447879
 20
114.1978792978509
 30
0.0
 11
274.0235404447879
 21
111.1978792978509
 31
0.0
  0
LINE
  5
E4C
  8
0
 10
275.52354044478813
 20
141.99197737067831
 30
0.0
 11
274.02354044478818
 21
141.99197737067831
 31
0.0
  0
LINE
  5
E4D
  8
0
 10
254.82354044478799
 20
114.1978792978509
 30
0.0
 11
277.22354044478789
 21
114.1978792978508
 31
0.0
  0
ARC
  5
E4F
  8
0
 10
275.52354044478813
 20
139.9919773706784
 30
0.0
 40
2.0
 50
0.0
 51
90.0
  0
LINE
  5
E50
  8
0
 10
274.0235404447883
 20
152.69787929785099
 30
0.0
 11
274.02354044478773
 21
118.95298128480751
 31
0.0
  0
LINE
  5
E51
  8
0
 10
258.02354044478818
 20
152.6978792978509
 30
0.0
 11
258.02354044478801
 21
118.95298128480761
 31
0.0
  0
LINE
  5
E52
  8
0
 10
261.02354044478818
 20
155.6978792978509
 30
0.0
 11
271.0235404447883
 21
155.69787929785099
 31
0.0
  0
ARC
  5
E53
  8
0
 10
261.02354044478818
 20
152.6978792978509
 30
0.0
 40
3.0
 50
90.0
 51
180.0
  0
ARC
  5
E54
  8
0
 10
271.0235404447883
 20
152.69787929785099
 30
0.0
 40
3.0
 50
0.0
 51
90.0
  0
LINE
  5
E55
  8
0
 10
74.023540444788296
 20
146.38260871662061
 30
0.0
 11
72.252337826144128
 21
146.38260871662061
 31
0.0
  0
LINE
  5
E56
  8
0
 10
59.794743063432243
 20
146.38260871662069
 30
0.0
 11
58.023540444788068
 21
146.38260871662081
 31
0.0
  0
ARC
  5
E57
  8
0
 10
71.023540444788296
 20
152.69787929785099
 30
0.0
 40
3.0
 50
0.0
 51
90.0
  0
ARC
  5
E58
  8
0
 10
61.023540444788182
 20
152.6978792978509
 30
0.0
 40
3.0
 50
90.0
 51
180.0
  0
LINE
  5
E59
  8
0
 10
203.4185404448022
 20
155.6978792978509
 30
0.0
 11
211.02354044472511
 21
155.6978792978509
 31
0.0
  0
LINE
  5
E5A
  8
0
 10
61.023540444788182
 20
155.6978792978509
 30
0.0
 11
71.023540444788296
 21
155.69787929785099
 31
0.0
  0
LINE
  5
E5B
  8
0
 10
58.023540444788182
 20
152.6978792978509
 30
0.0
 11
58.023540444788068
 21
141.99787929785089
 31
0.0
  0
LINE
  5
E5C
  8
0
 10
74.023540444788296
 20
152.69787929785099
 30
0.0
 11
74.023540444788068
 21
141.99787929785089
 31
0.0
  0
ARC
  5
E5D
  8
0
 10
75.523540444788068
 20
139.99787929785089
 30
0.0
 40
2.0
 50
0.0
 51
90.0
  0
LINE
  5
E5F
  8
0
 10
54.823540444788023
 20
114.1978792978509
 30
0.0
 11
77.223540444787886
 21
114.1978792978508
 31
0.0
  0
LINE
  5
E60
  8
0
 10
75.523540444788068
 20
141.9978792978508
 30
0.0
 11
56.523540444788068
 21
141.99787929785089
 31
0.0
  0
LINE
  5
E61
  8
0
 10
74.023540444787955
 20
114.1978792978509
 30
0.0
 11
74.023540444787955
 21
111.1978792978509
 31
0.0
  0
LINE
  5
E62
  8
0
 10
73.523540444787955
 20
110.6978792978509
 30
0.0
 11
74.023540444787955
 21
111.1978792978509
 31
0.0
  0
LINE
  5
E63
  8
0
 10
58.023540444787947
 20
111.1978792978509
 30
0.0
 11
74.023540444787955
 21
111.1978792978509
 31
0.0
  0
LINE
  5
E64
  8
0
 10
58.523540444787947
 20
110.6978792978509
 30
0.0
 11
73.523540444787955
 21
110.6978792978509
 31
0.0
  0
LINE
  5
E65
  8
0
 10
58.023540444787947
 20
114.1978792978509
 30
0.0
 11
58.023540444787947
 21
111.1978792978509
 31
0.0
  0
LINE
  5
E66
  8
0
 10
58.523540444787947
 20
110.6978792978509
 30
0.0
 11
58.023540444787947
 21
111.1978792978509
 31
0.0
  0
LINE
  5
E67
  8
0
 10
54.523540444788068
 20
139.99787929785089
 30
0.0
 11
54.523540444788068
 21
114.497879297851
 31
0.0
  0
ARC
  5
E68
  8
0
 10
56.523540444788068
 20
139.99787929785089
 30
0.0
 40
2.0
 50
90.0
 51
180.0
  0
ARC
  5
E69
  8
0
 10
54.823540444788023
 20
114.497879297851
 30
0.0
 40
0.3
 50
180.0
 51
270.0
  0
ARC
  5
E6A
  8
0
 10
77.223540444787886
 20
114.497879297851
 30
0.0
 40
0.3
 50
270.0
 51
0.0
  0
LINE
  5
E6B
  8
0
 10
77.523540444788409
 20
139.99787929785089
 30
0.0
 11
77.523540444787841
 21
114.497879297851
 31
0.0
  0
LINE
  5
E6C
  8
0
 10
147.5235404447879
 20
118.9529812847923
 30
0.0
 11
147.52354044478781
 21
114.497879297851
 31
0.0
  0
ARC
  5
E6D
  8
0
 10
147.22354044478789
 20
114.497879297851
 30
0.0
 40
0.3
 50
270.0
 51
0.0
  0
ARC
  5
E6E
  8
0
 10
124.82354044478799
 20
114.497879297851
 30
0.0
 40
0.3
 50
180.0
 51
270.0
  0
ARC
  5
E6F
  8
0
 10
126.523540444788
 20
139.99787929785089
 30
0.0
 40
2.0
 50
90.0
 51
180.0
  0
LINE
  5
E70
  8
0
 10
124.523540444788
 20
139.99787929785089
 30
0.0
 11
124.523540444788
 21
114.497879297851
 31
0.0
  0
ARC
  5
E71
  8
3
 10
149.18598702587619
 20
232.7166885943661
 30
0.0
 40
17.0
 50
240.2183447657103
 51
270.0
  0
ARC
  5
E72
  8
3
 10
149.18598702587619
 20
186.71668859436619
 30
0.0
 40
17.0
 50
90.0
 51
119.7816552342897
  0
ARC
  5
E73
  8
3
 10
136.02354044478801
 20
209.7166885943661
 30
0.0
 40
9.5
 50
60.218344765710292
 51
299.7816552342897
  0
ARC
  5
E74
  8
0
 10
149.18598702587619
 20
186.71668859436619
 30
0.0
 40
15.0
 50
90.0
 51
119.7816552342897
  0
ARC
  5
E75
  8
0
 10
149.18598702587619
 20
232.7166885943661
 30
0.0
 40
15.0
 50
240.2183447657103
 51
270.0
  0
LINE
  5
E76
  8
3
 10
149.18598702587619
 20
203.71668859436619
 30
0.0
 11
206.0235404447881
 21
203.71668859436619
 31
0.0
  0
ARC
  5
E77
  8
3
 10
206.0235404447881
 20
209.71668859436619
 30
0.0
 40
6.0
 50
270.0
 51
90.0
  0
LINE
  5
E78
  8
3
 10
149.18598702587619
 20
215.7166885943661
 30
0.0
 11
206.0235404447881
 21
215.7166885943661
 31
0.0
  0
ARC
  5
E79
  8
0
 10
206.0235404447881
 20
209.71668859436619
 30
0.0
 40
8.0
 50
270.0
 51
90.0
  0
LINE
  5
E7A
  8
0
 10
149.18598702587619
 20
201.71668859436619
 30
0.0
 11
206.0235404447881
 21
201.71668859436619
 31
0.0
  0
LINE
  5
E7B
  8
0
 10
149.18598702587619
 20
217.71668859436619
 30
0.0
 11
206.0235404447881
 21
217.7166885943661
 31
0.0
  0
ARC
  5
E7C
  8
0
 10
136.02354044478801
 20
209.7166885943661
 30
0.0
 40
11.5
 50
60.218344765710292
 51
299.7816552342897
  0
CIRCLE
  5
E7D
  8
0
 10
136.02354044478801
 20
209.71668859436619
 30
0.0
 40
6.5
  0
LINE
  5
E7E
  8
0
 10
142.5235404447881
 20
145.69787929785099
 30
0.0
 11
142.5235404447881
 21
143.6513585684641
 31
0.0
  0
ARC
  5
E7F
  8
0
 10
141.52354044478801
 20
145.69787929785099
 30
0.0
 40
1.0
 50
0.0
 51
90.0
  0
LINE
  5
E80
  8
0
 10
141.52354044478801
 20
146.6978792978509
 30
0.0
 11
130.5235404447881
 21
146.69787929785079
 31
0.0
  0
LINE
  5
E81
  8
0
 10
129.52354044478801
 20
141.99787929785089
 30
0.0
 11
129.52354044478801
 21
145.69787929785099
 31
0.0
  0
ARC
  5
E82
  8
0
 10
130.5235404447881
 20
145.69787929785099
 30
0.0
 40
1.0
 50
90.0
 51
180.0
  0
CIRCLE
  5
E83
  8
0
 10
163.3939146600577
 20
209.7166885943661
 30
0.0
 40
1.125
  0
CIRCLE
  5
E84
  8
0
 10
160.10361617915851
 20
209.7166885943661
 30
0.0
 40
1.125
  0
CIRCLE
  5
E85
  8
0
 10
153.4468156982972
 20
209.7166885943661
 30
0.0
 40
1.125
  0
CIRCLE
  5
E86
  8
0
 10
150.1541050246521
 20
209.7166885943661
 30
0.0
 40
1.125
  0
ARC
  5
E87
  8
3
 10
124.5763756201646
 20
209.7166885943661
 30
0.0
 40
20.848630204285762
 50
341.21723732605432
 51
18.782762673945609
  0
LINE
  5
E88
  8
1
 10
136.02354044478821
 20
193.2166885943661
 30
0.0
 11
136.0235404447879
 21
226.2166885943661
 31
0.0
  0
CIRCLE
  5
E89
  8
0
 10
156.74958932257829
 20
209.7166885943661
 30
0.0
 40
1.125
  0
LINE
  5
E8A
  8
1
 10
119.5235404447881
 20
209.7166885943661
 30
0.0
 11
219.0235404447881
 21
209.71668859436619
 31
0.0
  0
LINE
  5
E8B
  8
0
 10
128.5235404447879
 20
110.6978792978509
 30
0.0
 11
128.0235404447879
 21
111.1978792978509
 31
0.0
  0
LINE
  5
E8C
  8
0
 10
128.0235404447879
 20
114.1978792978509
 30
0.0
 11
128.0235404447879
 21
111.1978792978509
 31
0.0
  0
LINE
  5
E8D
  8
0
 10
128.5235404447879
 20
110.6978792978509
 30
0.0
 11
143.5235404447879
 21
110.6978792978509
 31
0.0
  0
LINE
  5
E8E
  8
0
 10
128.0235404447879
 20
111.1978792978509
 30
0.0
 11
144.0235404447879
 21
111.1978792978509
 31
0.0
  0
LINE
  5
E8F
  8
0
 10
143.5235404447879
 20
110.6978792978509
 30
0.0
 11
144.0235404447879
 21
111.1978792978509
 31
0.0
  0
LINE
  5
E90
  8
0
 10
144.0235404447879
 20
114.1978792978509
 30
0.0
 11
144.0235404447879
 21
111.1978792978509
 31
0.0
  0
LINE
  5
E91
  8
0
 10
214.02354044478821
 20
152.6719773706788
 30
0.0
 11
214.02354044478821
 21
152.70197737067849
 31
0.0
  0
ARC
  5
E92
  8
0
 10
211.0270360397906
 20
152.7013768715905
 30
0.0
 40
2.9965044651675772
 50
0.0114820665128464
 51
90.066838841147487
  0
ARC
  5
E93
  8
0
 10
201.0753404447882
 20
141.05187929785049
 30
0.0
 40
8.0800000000000001
 50
43.692219267372757
 51
99.329079674815915
  0
ARC
  5
E94
  8
0
 10
209.10530382084801
 20
148.7233929584304
 30
0.0
 40
3.0255136605795592
 50
223.69221926737271
 51
308.72154229019827
  0
ARC
  5
E95
  8
0
 10
205.9334374670515
 20
152.67172648311501
 30
0.0
 40
8.0901029816269432
 50
308.7558924550965
 51
0.0017768375216658
  0
ARC
  5
E96
  8
0
 10
136.83865628535679
 20
152.5973018585963
 30
0.0
 40
10.599424949326931
 50
269.96153492619959
 51
324.10344759518102
  0
LINE
  5
E97
  8
0
 10
136.83154044478789
 20
141.99787929785089
 30
0.0
 11
126.523540444788
 21
141.99787929785089
 31
0.0
  0
LINE
  5
E98
  8
0
 10
124.82354044478799
 20
114.1978792978509
 30
0.0
 11
147.22354044478789
 21
114.1978792978508
 31
0.0
  0
ARC
  5
E99
  8
0
 10
162.67328405918281
 20
118.8648426547793
 30
0.0
 40
15.15
 50
120.5971720838545
 51
179.6666666666666
  0
ARC
  5
E9B
  8
0
 10
222.4777343138374
 20
22.397346312609759
 30
0.0
 40
128.64839351510309
 50
100.16856605116421
 51
121.6553596025997
  0
ARC
  5
E9C
  8
0
 10
205.38111778745011
 20
-41.701535234749137
 30
0.0
 40
197.40917042437309
 50
90.569625265471544
 51
107.68086759152089
  0
ARC
  5
E9D
  8
0
 10
266.0235404447883
 20
153.76930786927949
 30
0.0
 40
8.0714285714286298
 50
187.6281496685807
 51
352.37185033141913
  0
ARC
  5
EC6
  8
0
 10
133.9320890946486
 20
210.92418859436631
 30
0.0
 40
0.4600000000000142
 50
89.465006080397416
 51
210.53499391960469
  0
ARC
  5
EC7
  8
0
 10
131.88502089977951
 20
209.7166885943663
 30
0.0
 40
1.9166666666666741
 50
329.46500608039588
 51
30.53499391960414
  0
ARC
  5
EC8
  8
0
 10
133.9320890946486
 20
208.50918859436629
 30
0.0
 40
0.4600000000000101
 50
149.46500608039639
 51
270.53499391960582
  0
ARC
  5
EC9
  8
0
 10
133.95428067228369
 20
206.13262553433049
 30
0.0
 40
1.916666666666661
 50
29.46500608039349
 51
90.534993919602584
  0
ARC
  5
ECA
  8
0
 10
136.02354044478801
 20
207.30168859436631
 30
0.0
 40
0.4600000000000141
 50
209.46500608039909
 51
330.53499391960128
  0
ARC
  5
ECB
  8
0
 10
138.09280021729231
 20
206.13262553433049
 30
0.0
 40
1.9166666666666801
 50
89.465006080397416
 51
150.5349939196017
  0
ARC
  5
ECC
  8
0
 10
138.11499179492739
 20
208.50918859436629
 30
0.0
 40
0.4600000000000101
 50
269.46500608039742
 51
30.534993919603561
  0
ARC
  5
ECD
  8
0
 10
140.16205998979649
 20
209.71668859436619
 30
0.0
 40
1.916666666666698
 50
149.4650060803958
 51
210.53499391960429
  0
ARC
  5
ECE
  8
0
 10
138.11499179492739
 20
210.92418859436631
 30
0.0
 40
0.4600000000000142
 50
329.4650060803956
 51
90.534993919602584
  0
ARC
  5
ECF
  8
0
 10
138.09280021729231
 20
213.30075165440201
 30
0.0
 40
1.9166666666666801
 50
209.46500608039821
 51
270.53499391960582
  0
ARC
  5
ED0
  8
0
 10
136.02354044478801
 20
212.1316885943663
 30
0.0
 40
0.4600000000000002
 50
29.46500608039328
 51
150.53499391960671
  0
ARC
  5
ED1
  8
0
 10
133.95428067228369
 20
213.30075165440201
 30
0.0
 40
1.9166666666667089
 50
269.46500608039742
 51
330.53499391960651
  0
ENDSEC
  0
EOF
