  0
SECTION
  2
HEADER
  9
$ACADVER
  1
AC1009
  9
$INSBASE
 10
0.0
 20
0.0
 30
0.0
  9
$EXTMIN
 10
0.0
 20
-2.960436562073669
 30
0.0
  9
$EXTMAX
 10
220.08374415281
 20
181.21409427516289
 30
0.0
  9
$LIMMIN
 10
0.0
 20
0.0
  9
$LIMMAX
 10
270.0
 20
175.0
  9
$ORTHOMODE
 70
     1
  9
$REGENMODE
 70
     1
  9
$FILLMODE
 70
     1
  9
$QTEXTMODE
 70
     0
  9
$MIRRTEXT
 70
     0
  9
$DRAGMODE
 70
     2
  9
$LTSCALE
 40
5.0
  9
$OSMODE
 70
    37
  9
$ATTMODE
 70
     1
  9
$TEXTSIZE
 40
0.2
  9
$TRACEWID
 40
0.05
  9
$TEXTSTYLE
  7
STANDARD
  9
$CLAYER
  8
0
  9
$CELTYPE
  6
BYLAYER
  9
$CECOLOR
 62
   256
  9
$DIMSCALE
 40
1.0
  9
$DIMASZ
 40
3.0
  9
$DIMEXO
 40
2.0
  9
$DIMDLI
 40
0.38
  9
$DIMRND
 40
0.0
  9
$DIMDLE
 40
0.0
  9
$DIMEXE
 40
2.0
  9
$DIMTP
 40
0.0
  9
$DIMTM
 40
0.0
  9
$DIMTXT
 40
3.0
  9
$DIMCEN
 40
0.0
  9
$DIMTSZ
 40
0.0
  9
$DIMTOL
 70
     0
  9
$DIMLIM
 70
     0
  9
$DIMTIH
 70
     0
  9
$DIMTOH
 70
     0
  9
$DIMSE1
 70
     0
  9
$DIMSE2
 70
     0
  9
$DIMTAD
 70
     1
  9
$DIMZIN
 70
     8
  9
$DIMBLK
  1

  9
$DIMASO
 70
     0
  9
$DIMSHO
 70
     0
  9
$DIMPOST
  1

  9
$DIMAPOST
  1

  9
$DIMALT
 70
     0
  9
$DIMALTD
 70
     2
  9
$DIMALTF
 40
25.399999999999999
  9
$DIMLFAC
 40
1.0
  9
$DIMTOFL
 70
     1
  9
$DIMTVP
 40
1.6000000000000001
  9
$DIMTIX
 70
     1
  9
$DIMSOXD
 70
     0
  9
$DIMSAH
 70
     0
  9
$DIMBLK1
  1

  9
$DIMBLK2
  1

  9
$DIMSTYLE
  2
STANDARD
  9
$DIMCLRD
 70
     0
  9
$DIMCLRE
 70
     0
  9
$DIMCLRT
 70
     0
  9
$DIMTFAC
 40
1.0
  9
$DIMGAP
 40
1.0
  9
$LUNITS
 70
     2
  9
$LUPREC
 70
     1
  9
$SKETCHINC
 40
0.1
  9
$FILLETRAD
 40
0.0
  9
$AUNITS
 70
     0
  9
$AUPREC
 70
     1
  9
$MENU
  1
E:\r13\win\SUPPORT\ACAD
  9
$ELEVATION
 40
0.0
  9
$PELEVATION
 40
0.0
  9
$THICKNESS
 40
0.0
  9
$LIMCHECK
 70
     0
  9
$BLIPMODE
 70
     0
  9
$CHAMFERA
 40
0.0
  9
$CHAMFERB
 40
0.0
  9
$SKPOLY
 70
     0
  9
$TDCREATE
 40
2449839.7803587969
  9
$TDUPDATE
 40
2458275.4559782059
  9
$TDINDWG
 40
0.1231201736
  9
$TDUSRTIMER
 40
0.1231201736
  9
$USRTIMER
 70
     1
  9
$ANGBASE
 50
0.0
  9
$ANGDIR
 70
     0
  9
$PDMODE
 70
     0
  9
$PDSIZE
 40
0.0
  9
$PLINEWID
 40
0.0
  9
$COORDS
 70
     1
  9
$SPLFRAME
 70
     0
  9
$SPLINETYPE
 70
     6
  9
$SPLINESEGS
 70
     8
  9
$ATTDIA
 70
     0
  9
$ATTREQ
 70
     1
  9
$HANDLING
 70
     1
  9
$HANDSEED
  5
F0C
  9
$SURFTAB1
 70
     6
  9
$SURFTAB2
 70
     6
  9
$SURFTYPE
 70
     6
  9
$SURFU
 70
     6
  9
$SURFV
 70
     6
  9
$UCSNAME
  2

  9
$UCSORG
 10
0.0
 20
0.0
 30
0.0
  9
$UCSXDIR
 10
1.0
 20
0.0
 30
0.0
  9
$UCSYDIR
 10
0.0
 20
1.0
 30
0.0
  9
$PUCSNAME
  2

  9
$PUCSORG
 10
0.0
 20
0.0
 30
0.0
  9
$PUCSXDIR
 10
1.0
 20
0.0
 30
0.0
  9
$PUCSYDIR
 10
0.0
 20
1.0
 30
0.0
  9
$USERI1
 70
     0
  9
$USERI2
 70
     1
  9
$USERI3
 70
     1
  9
$USERI4
 70
     0
  9
$USERI5
 70
     0
  9
$USERR1
 40
0.0
  9
$USERR2
 40
0.0
  9
$USERR3
 40
0.0
  9
$USERR4
 40
0.0
  9
$USERR5
 40
0.0
  9
$WORLDVIEW
 70
     1
  9
$SHADEDGE
 70
     3
  9
$SHADEDIF
 70
    70
  9
$TILEMODE
 70
     1
  9
$MAXACTVP
 70
    16
  9
$PLIMCHECK
 70
     0
  9
$PEXTMIN
 10
1.0000000000000000E+020
 20
1.0000000000000000E+020
 30
1.0000000000000000E+020
  9
$PEXTMAX
 10
-1.0000000000000000E+020
 20
-1.0000000000000000E+020
 30
-1.0000000000000000E+020
  9
$PLIMMIN
 10
0.0
 20
0.0
  9
$PLIMMAX
 10
12.0
 20
9.0
  9
$UNITMODE
 70
     0
  9
$VISRETAIN
 70
     0
  9
$PLINEGEN
 70
     0
  9
$PSLTSCALE
 70
     0
  0
ENDSEC
  0
SECTION
  2
TABLES
  0
TABLE
  2
VPORT
 70
     1
  0
VPORT
  2
*ACTIVE
 70
     0
 10
0.0
 20
0.0
 11
1.0
 21
1.0
 12
181.62808113586911
 22
100.0
 13
0.0
 23
0.0
 14
10.0
 24
10.0
 15
10.0
 25
10.0
 16
0.0
 26
0.0
 36
1.0
 17
0.0
 27
0.0
 37
0.0
 40
200.03632855408659
 41
1.816239316239316
 42
50.0
 43
0.0
 44
0.0
 50
0.0
 51
0.0
 71
     0
 72
   500
 73
     1
 74
     0
 75
     0
 76
     0
 77
     0
 78
     2
  0
ENDTAB
  0
TABLE
  2
LTYPE
 70
     4
  0
LTYPE
  2
CONTINUOUS
 70
     0
  3
Solid Line
 72
    65
 73
     0
 40
0.0
  0
LTYPE
  2
CENTER
 70
     0
  3
____ _ ____ _ ____ _ ____ _ ____ _ ____ _ ____
 72
    65
 73
     4
 40
2.0
 49
1.25
 49
-0.25
 49
0.25
 49
-0.25
  0
LTYPE
  2
PHANTOM2
 70
     0
  3
___ _ _ ___ _ _ ___ _ _ ___ _ _
 72
    65
 73
     6
 40
1.25
 49
0.625
 49
-0.125
 49
0.125
 49
-0.125
 49
0.125
 49
-0.125
  0
LTYPE
  2
HIDDEN
 70
     0
  3
Hidden __ __ __ __ __ __ __ __ __ __ __ __ __ _
 72
    65
 73
     2
 40
0.375
 49
0.25
 49
-0.125
  0
ENDTAB
  0
TABLE
  2
LAYER
 70
     4
  0
LAYER
  2
0
 70
     0
 62
     7
  6
CONTINUOUS
  0
LAYER
  2
1
 70
     0
 62
     1
  6
CENTER
  0
LAYER
  2
3
 70
     0
 62
     3
  6
CONTINUOUS
  0
LAYER
  2
2
 70
     0
 62
     2
  6
HIDDEN
  0
ENDTAB
  0
TABLE
  2
STYLE
 70
     2
  0
STYLE
  2
STANDARD
 70
     0
 40
0.0
 41
1.0
 50
0.0
 71
     0
 42
0.2
  3
TXT
  4
BIGFONT
  0
STYLE
  2
STANDARD1
 70
     0
 40
0.0
 41
1.0
 50
0.0
 71
     0
 42
3.0
  3
txt
  4

  0
ENDTAB
  0
TABLE
  2
VIEW
 70
     1
  0
VIEW
  2
ALL
 70
     0
 40
179.5384664489153
 10
135.0
 20
89.769233224457665
 41
0.0
 11
0.0
 21
0.0
 31
1.0
 12
0.0
 22
0.0
 32
0.0
 42
0.0
 43
0.0
 44
0.0
 50
0.0
 71
     0
  0
ENDTAB
  0
TABLE
  2
UCS
 70
     0
  0
ENDTAB
  0
TABLE
  2
APPID
 70
     9
  0
APPID
  2
ACAD
 70
     0
  0
APPID
  2
GENIUS_GENODEF_13
 70
     0
  0
APPID
  2
GENIUS_GENOBJ-N-FIL_13
 70
     0
  0
APPID
  2
GENIUS_GENOREF_13
 70
     0
  0
APPID
  2
ACAD_MLEADERVER
 70
     0
  0
APPID
  2
ACAD_NAV_VCDISPLAY
 70
     0
  0
APPID
  2
ACAD_DSTYLE_DIMJAG
 70
     0
  0
APPID
  2
ACAD_DSTYLE_DIMTALN
 70
     0
  0
APPID
  2
ACAD_EXEMPT_FROM_CAD_STANDARDS
 70
     0
  0
ENDTAB
  0
TABLE
  2
DIMSTYLE
 70
     1
  0
DIMSTYLE
  2
STANDARD
 70
     0
  3

  4

  5

  6

  7

 40
1.0
 41
0.18
 42
0.0625
 43
0.38
 44
0.18
 45
0.0
 46
0.0
 47
0.0
 48
0.0
140
0.18
141
0.09
142
0.0
143
25.399999999999999
144
1.0
145
0.0
146
1.0
147
0.09
 71
     0
 72
     0
 73
     1
 74
     1
 75
     0
 76
     0
 77
     0
 78
     0
170
     0
171
     2
172
     0
173
     0
174
     0
175
     0
176
     0
177
     0
178
     0
  0
ENDTAB
  0
ENDSEC
  0
SECTION
  2
BLOCKS
  0
BLOCK
  8
0
  2
$MODEL_SPACE
 70
     0
 10
0.0
 20
0.0
 30
0.0
  3
$MODEL_SPACE
  1

  0
ENDBLK
  5
522
  8
0
  0
BLOCK
 67
     1
  8
0
  2
$PAPER_SPACE
 70
     0
 10
0.0
 20
0.0
 30
0.0
  3
$PAPER_SPACE
  1

  0
ENDBLK
  5
520
 67
     1
  8
0
  0
ENDSEC
  0
SECTION
  2
ENTITIES
  0
LINE
  5
9B1
  8
0
 10
217.3337441528098
 20
114.3516598156766
 30
0.0
 11
218.0837441528098
 21
114.3516598156766
 31
0.0
  0
LINE
  5
9B2
  8
0
 10
214.0837441528098
 20
117.4220856598331
 30
0.0
 11
214.0837441528098
 21
95.718882920107674
 31
0.0
  0
LINE
  5
9B3
  8
0
 10
207.0837441528098
 20
117.4220856598331
 30
0.0
 11
207.0837441528098
 21
95.718882920107674
 31
0.0
  0
ARC
  5
9B4
  8
0
 10
210.5837441528098
 20
123.24853481567651
 30
0.0
 40
6.7968750000002247
 50
186.73292132686109
 51
353.26707867313888
  0
LINE
  5
9B5
  8
0
 10
220.08374415281
 20
112.3516598156764
 30
0.0
 11
220.0837441528096
 21
90.251659815676533
 31
0.0
  0
ARC
  5
9B6
  8
0
 10
203.0837441528098
 20
112.3516598156764
 30
0.0
 40
2.0
 50
90.0
 51
180.0
  0
LINE
  5
9B7
  8
0
 10
201.0837441528098
 20
112.3516598156764
 30
0.0
 11
201.08374415281
 21
90.251659815676646
 31
0.0
  0
LINE
  5
9B8
  8
0
 10
203.0837441528098
 20
114.3516598156764
 30
0.0
 11
203.8337441528098
 21
114.3516598156765
 31
0.0
  0
LINE
  5
9B9
  8
0
 10
201.38374415281001
 20
89.951659815676635
 30
0.0
 11
219.78374415280959
 21
89.951659815676521
 31
0.0
  0
LINE
  5
9C7
  8
0
 10
203.8337441528096
 20
89.951659815676564
 30
0.0
 11
203.8337441528098
 21
86.951659815676535
 31
0.0
  0
LINE
  5
9C8
  8
0
 10
204.3337441528098
 20
86.451659815676521
 30
0.0
 11
203.8337441528098
 21
86.951659815676535
 31
0.0
  0
LINE
  5
9C9
  8
0
 10
204.3337441528098
 20
86.451659815676521
 30
0.0
 11
216.8337441528098
 21
86.451659815676521
 31
0.0
  0
LINE
  5
9CA
  8
0
 10
203.8337441528098
 20
86.951659815676535
 30
0.0
 11
217.3337441528098
 21
86.951659815676535
 31
0.0
  0
LINE
  5
9CB
  8
0
 10
216.8337441528098
 20
86.451659815676521
 30
0.0
 11
217.3337441528098
 21
86.951659815676535
 31
0.0
  0
LINE
  5
9CC
  8
0
 10
217.3337441528098
 20
89.951659815676521
 30
0.0
 11
217.3337441528098
 21
86.951659815676535
 31
0.0
  0
LINE
  5
9CD
  8
1
 10
210.5837441528098
 20
129.95165981567649
 30
0.0
 11
210.5837441528098
 21
61.451659815676521
 31
0.0
  0
ARC
  5
9CE
  8
0
 10
218.0837441528098
 20
112.3516598156764
 30
0.0
 40
2.0
 50
0.0
 51
90.0
  0
ARC
  5
9CF
  8
0
 10
219.78374415280959
 20
90.251659815676533
 30
0.0
 40
0.3
 50
270.0
 51
0.0
  0
ARC
  5
9D0
  8
0
 10
201.38374415281001
 20
90.251659815676646
 30
0.0
 40
0.3
 50
180.0
 51
270.0
  0
LINE
  5
9D1
  8
0
 10
214.8337441528098
 20
124.95165981567651
 30
0.0
 11
206.3337441528096
 21
124.95165981567651
 31
0.0
  0
LINE
  5
9D2
  8
0
 10
217.3337441528098
 20
122.45165981567651
 30
0.0
 11
217.3337441528098
 21
95.718882920107589
 31
0.0
  0
LINE
  5
9D3
  8
0
 10
203.8337441528096
 20
122.45165981567651
 30
0.0
 11
203.83374415281051
 21
95.718882920107717
 31
0.0
  0
ARC
  5
9D4
  8
0
 10
206.3337441528096
 20
122.45165981567651
 30
0.0
 40
2.5
 50
90.0
 51
180.0
  0
ARC
  5
9D5
  8
0
 10
214.8337441528098
 20
122.45165981567651
 30
0.0
 40
2.5
 50
0.0
 51
90.0
  0
LINE
  5
9D6
  8
0
 10
67.333744152809459
 20
117.85694122517791
 30
0.0
 11
53.833744152809338
 21
117.85694122517749
 31
0.0
  0
ARC
  5
9D7
  8
0
 10
64.833744152809459
 20
122.45165981567639
 30
0.0
 40
2.5
 50
0.0
 51
90.0
  0
ARC
  5
9D8
  8
0
 10
56.333744152809338
 20
122.45165981567639
 30
0.0
 40
2.5
 50
90.0
 51
180.0
  0
LINE
  5
9D9
  8
0
 10
53.833744152809338
 20
122.45165981567639
 30
0.0
 11
53.833744152809572
 21
114.3516598156763
 31
0.0
  0
LINE
  5
9DA
  8
0
 10
67.333744152809459
 20
122.45165981567639
 30
0.0
 11
67.333744152809572
 21
114.3516598156765
 31
0.0
  0
LINE
  5
9DB
  8
0
 10
64.833744152809459
 20
124.95165981567639
 30
0.0
 11
56.333744152809338
 21
124.95165981567639
 31
0.0
  0
ARC
  5
9DC
  8
0
 10
51.383744152809747
 20
90.251659815676533
 30
0.0
 40
0.3
 50
180.0
 51
270.0
  0
ARC
  5
9DD
  8
0
 10
69.78374415280939
 20
90.251659815676419
 30
0.0
 40
0.3
 50
270.0
 51
0.0
  0
ARC
  5
9DE
  8
0
 10
101.3837441528095
 20
90.251659815676476
 30
0.0
 40
0.3
 50
180.0
 51
270.0
  0
ARC
  5
9DF
  8
0
 10
119.7837441528095
 20
90.251659815676419
 30
0.0
 40
0.3
 50
270.0
 51
0.0
  0
ARC
  5
9E0
  8
0
 10
68.083744152809686
 20
112.3516598156763
 30
0.0
 40
2.0
 50
0.0
 51
90.0
  0
LINE
  5
9E1
  8
1
 10
60.583744152809459
 20
129.95165981567641
 30
0.0
 11
60.583744152809729
 21
61.451659815676521
 31
0.0
  0
LINE
  5
9E2
  8
0
 10
67.333744152809572
 20
89.951659815676408
 30
0.0
 11
67.333744152809459
 21
86.951659815676393
 31
0.0
  0
LINE
  5
9E3
  8
0
 10
66.833744152809459
 20
86.451659815676408
 30
0.0
 11
67.333744152809459
 21
86.951659815676393
 31
0.0
  0
LINE
  5
9E4
  8
0
 10
53.833744152809459
 20
86.951659815676393
 30
0.0
 11
67.333744152809459
 21
86.951659815676393
 31
0.0
  0
LINE
  5
9E5
  8
0
 10
54.333744152809459
 20
86.451659815676408
 30
0.0
 11
66.833744152809459
 21
86.451659815676408
 31
0.0
  0
LINE
  5
9E6
  8
0
 10
54.333744152809459
 20
86.451659815676408
 30
0.0
 11
53.833744152809459
 21
86.951659815676393
 31
0.0
  0
LINE
  5
9E7
  8
0
 10
53.833744152809338
 20
89.951659815676464
 30
0.0
 11
53.833744152809459
 21
86.951659815676393
 31
0.0
  0
LINE
  5
9E8
  8
0
 10
55.183744152809368
 20
114.3516598156764
 30
0.0
 11
55.183744152809368
 21
116.45165981567639
 31
0.0
  0
LINE
  5
9E9
  8
0
 10
56.183744152809361
 20
117.45165981567639
 30
0.0
 11
64.983744152809322
 21
117.45165981567639
 31
0.0
  0
ARC
  5
9EA
  8
0
 10
56.183744152809361
 20
116.45165981567639
 30
0.0
 40
1.0
 50
90.0
 51
180.0
  0
LINE
  5
9EB
  8
0
 10
65.983744152809436
 20
114.3516598156765
 30
0.0
 11
65.983744152809322
 21
116.45165981567639
 31
0.0
  0
ARC
  5
9EC
  8
0
 10
64.983744152809322
 20
116.45165981567639
 30
0.0
 40
1.0
 50
0.0
 51
90.0
  0
LINE
  5
9FA
  8
0
 10
51.383744152809747
 20
89.951659815676521
 30
0.0
 11
69.78374415280939
 21
89.951659815676408
 31
0.0
  0
LINE
  5
9FB
  8
0
 10
53.083744152809459
 20
114.3516598156763
 30
0.0
 11
68.083744152809686
 21
114.3516598156765
 31
0.0
  0
LINE
  5
9FC
  8
0
 10
51.083744152809459
 20
112.3516598156763
 30
0.0
 11
51.0837441528098
 21
90.251659815676533
 31
0.0
  0
ARC
  5
9FD
  8
0
 10
53.083744152809459
 20
112.3516598156763
 30
0.0
 40
2.0
 50
90.0
 51
180.0
  0
LINE
  5
9FE
  8
0
 10
70.0837441528098
 20
112.3516598156762
 30
0.0
 11
70.083744152809345
 21
90.251659815676419
 31
0.0
  0
LINE
  5
9FF
  8
0
 10
120.0837441528094
 20
95.718882920123875
 30
0.0
 11
120.0837441528094
 21
90.251659815676419
 31
0.0
  0
ARC
  5
A00
  8
0
 10
103.0837441528094
 20
112.3516598156763
 30
0.0
 40
2.0
 50
90.0
 51
180.0
  0
LINE
  5
A01
  8
0
 10
101.0837441528094
 20
112.3516598156763
 30
0.0
 11
101.0837441528096
 21
90.251659815676476
 31
0.0
  0
LINE
  5
A02
  8
0
 10
103.0837441528094
 20
114.3516598156763
 30
0.0
 11
111.39174415280939
 21
114.3516598156764
 31
0.0
  0
LINE
  5
A03
  8
0
 10
101.3837441528095
 20
89.951659815676464
 30
0.0
 11
119.7837441528095
 21
89.951659815676408
 31
0.0
  0
ARC
  5
A17
  8
3
 10
121.23444835488
 20
147.46409427516289
 30
0.0
 40
14.0
 50
90.0
 51
118.9550243718606
  0
ARC
  5
A18
  8
3
 10
121.23444835488
 20
185.96409427516289
 30
0.0
 40
14.0
 50
241.0449756281393
 51
270.0
  0
ARC
  5
A19
  8
3
 10
110.5837441528096
 20
166.71409427516289
 30
0.0
 40
8.0
 50
61.044975628139333
 51
298.9550243718607
  0
ARC
  5
A1A
  8
0
 10
121.23444835488
 20
185.96409427516289
 30
0.0
 40
12.5
 50
241.0449756281393
 51
270.0
  0
ARC
  5
A1B
  8
0
 10
121.23444835488
 20
147.46409427516289
 30
0.0
 40
12.5
 50
90.0
 51
118.9550243718606
  0
LINE
  5
A1C
  8
3
 10
121.23444835488
 20
161.46409427516289
 30
0.0
 11
166.8337441528098
 21
161.46409427516289
 31
0.0
  0
ARC
  5
A1D
  8
3
 10
166.8337441528098
 20
166.71409427516289
 30
0.0
 40
5.25
 50
270.0
 51
90.0
  0
LINE
  5
A1E
  8
3
 10
121.23444835488
 20
171.96409427516289
 30
0.0
 11
166.8337441528098
 21
171.96409427516289
 31
0.0
  0
ARC
  5
A1F
  8
0
 10
166.8337441528098
 20
166.71409427516289
 30
0.0
 40
6.75
 50
270.0
 51
90.0
  0
LINE
  5
A20
  8
0
 10
121.23444835488
 20
159.96409427516289
 30
0.0
 11
166.8337441528098
 21
159.96409427516289
 31
0.0
  0
LINE
  5
A21
  8
0
 10
121.23444835488
 20
173.46409427516289
 30
0.0
 11
166.8337441528098
 21
173.46409427516289
 31
0.0
  0
ARC
  5
A22
  8
0
 10
110.5837441528096
 20
166.71409427516289
 30
0.0
 40
9.5
 50
61.044975628139333
 51
298.9550243718607
  0
ARC
  5
A23
  8
0
 10
114.98374415280929
 20
116.45165981567639
 30
0.0
 40
1.0
 50
0.0
 51
90.0
  0
LINE
  5
A24
  8
0
 10
115.98374415280929
 20
115.6829875732877
 30
0.0
 11
115.98374415280929
 21
116.45165981567639
 31
0.0
  0
ARC
  5
A25
  8
0
 10
106.1837441528094
 20
116.45165981567639
 30
0.0
 40
1.0
 50
90.0
 51
180.0
  0
LINE
  5
A26
  8
0
 10
106.1837441528094
 20
117.45165981567639
 30
0.0
 11
114.98374415280929
 21
117.45165981567639
 31
0.0
  0
LINE
  5
A27
  8
0
 10
105.1837441528093
 20
114.3516598156764
 30
0.0
 11
105.1837441528093
 21
116.45165981567639
 31
0.0
  0
CIRCLE
  5
A28
  8
0
 10
110.5837441528096
 20
166.71409427516289
 30
0.0
 40
5.4000000000000004
  0
CIRCLE
  5
A29
  8
0
 10
132.65001331272819
 20
166.71409427516289
 30
0.0
 40
0.9
  0
CIRCLE
  5
A2A
  8
0
 10
127.36466687597461
 20
166.71409427516301
 30
0.0
 40
0.9
  0
CIRCLE
  5
A2B
  8
0
 10
129.99336280052219
 20
166.71409427516289
 30
0.0
 40
0.9
  0
CIRCLE
  5
A2C
  8
0
 10
122.1285831025062
 20
166.71409427516301
 30
0.0
 40
0.9
  0
ARC
  5
A2D
  8
3
 10
86.377088395718943
 20
166.71409427516301
 30
0.0
 40
31.93554327541894
 50
349.7608348925508
 51
10.23916510744926
  0
LINE
  5
A2E
  8
1
 10
110.5837441528096
 20
181.21409427516289
 30
0.0
 11
110.5837441528096
 21
152.21409427516289
 31
0.0
  0
CIRCLE
  5
A2F
  8
0
 10
124.7357137359721
 20
166.71409427516301
 30
0.0
 40
0.9
  0
LINE
  5
A30
  8
1
 10
96.083744152809572
 20
166.71409427516289
 30
0.0
 11
178.5837441528098
 21
166.71409427516289
 31
0.0
  0
LINE
  5
A31
  8
0
 10
103.8337441528093
 20
89.951659815676464
 30
0.0
 11
103.8337441528094
 21
86.951659815676393
 31
0.0
  0
LINE
  5
A32
  8
0
 10
104.3337441528094
 20
86.451659815676408
 30
0.0
 11
103.8337441528094
 21
86.951659815676393
 31
0.0
  0
LINE
  5
A33
  8
0
 10
104.3337441528094
 20
86.451659815676408
 30
0.0
 11
116.8337441528094
 21
86.451659815676408
 31
0.0
  0
LINE
  5
A34
  8
0
 10
103.8337441528094
 20
86.951659815676393
 30
0.0
 11
117.3337441528094
 21
86.951659815676393
 31
0.0
  0
LINE
  5
A35
  8
0
 10
116.8337441528094
 20
86.451659815676408
 30
0.0
 11
117.3337441528094
 21
86.951659815676393
 31
0.0
  0
LINE
  5
A36
  8
0
 10
117.3337441528095
 20
89.951659815676408
 30
0.0
 11
117.3337441528094
 21
86.951659815676393
 31
0.0
  0
ARC
  5
A37
  8
0
 10
171.0837441528098
 20
122.45165981567629
 30
0.0
 40
2.5
 50
0.0
 51
90.0
  0
ARC
  5
A38
  8
0
 10
166.68916830522679
 20
122.4471383837281
 30
0.0
 40
6.89457733014995
 50
309.33727975716079
 51
0.0375743100936259
  0
ARC
  5
A39
  8
0
 10
162.23714352014539
 20
111.6220016544313
 30
0.0
 40
7.5750000000000002
 50
47.636674913813913
 51
98.308486102639378
  0
ARC
  5
A3A
  8
0
 10
176.45982711960701
 20
21.31538558589369
 30
0.0
 40
98.994305504199076
 50
98.901080714748701
 51
120.2171998840638
  0
LINE
  5
A3B
  8
0
 10
171.0837441528098
 20
124.95165981567639
 30
0.0
 11
165.80706242807639
 21
124.95165981567639
 31
0.0
  0
ARC
  5
A3C
  8
0
 10
169.25838174590589
 20
119.2296598156764
 30
0.0
 40
2.778
 50
226.3653527118347
 51
310.4182400542353
  0
ARC
  5
A3D
  8
0
 10
111.39174415280939
 20
122.93665981567641
 30
0.0
 40
8.5850000000000009
 50
270.0
 51
323.72247610970879
  0
LINE
  5
A3E
  8
1
 10
110.5837441528096
 20
122.45165981567639
 30
0.0
 11
110.5837441528097
 21
61.451659815676422
 31
0.0
  0
ARC
  5
A3F
  8
0
 10
165.79336036420369
 20
-37.475814365133317
 30
0.0
 40
162.4274747587495
 50
89.995166640171504
 51
106.99687611432969
  0
ARC
  5
A40
  8
0
 10
132.96349618359019
 20
95.638960297543505
 30
0.0
 40
12.880000000000001
 50
119.41338313224161
 51
179.6444675194725
  0
LINE
  5
A8D
  8
3
 10
107.26024415280931
 20
84.451659815676379
 30
0.0
 11
106.5837441528094
 21
85.623392186996497
 31
0.0
  0
LINE
  5
A8E
  8
3
 10
113.9072441528095
 20
84.451659815676379
 30
0.0
 11
114.5837441528094
 21
85.623392186996497
 31
0.0
  0
LINE
  5
A8F
  8
0
 10
114.5837441528094
 20
84.451659815676365
 30
0.0
 11
106.5837441528094
 21
84.451659815676464
 31
0.0
  0
LINE
  5
A90
  8
0
 10
114.5837441528094
 20
67.651659815676325
 30
0.0
 11
106.5837441528094
 21
67.651659815676425
 31
0.0
  0
LINE
  5
A91
  8
0
 10
107.7837441528094
 20
66.451659815676422
 30
0.0
 11
106.5837441528094
 21
67.651659815676425
 31
0.0
  0
LINE
  5
A92
  8
0
 10
114.5837441528094
 20
67.651659815676368
 30
0.0
 11
113.3837441528094
 21
66.451659815676379
 31
0.0
  0
LINE
  5
A93
  8
0
 10
114.5837441528094
 20
86.451659815676408
 30
0.0
 11
114.5837441528094
 21
67.651659815676368
 31
0.0
  0
LINE
  5
A94
  8
3
 10
113.9072441528095
 20
84.451659815676379
 30
0.0
 11
113.9072441528095
 21
66.975159815676491
 31
0.0
  0
LINE
  5
A95
  8
3
 10
107.26024415280931
 20
84.451659815676436
 30
0.0
 11
107.26024415280931
 21
66.97515981567652
 31
0.0
  0
LINE
  5
A96
  8
0
 10
106.5837441528094
 20
86.451659815676408
 30
0.0
 11
106.5837441528094
 21
67.651659815676425
 31
0.0
  0
LINE
  5
A97
  8
0
 10
113.3837441528094
 20
66.451659815676379
 30
0.0
 11
107.7837441528094
 21
66.451659815676422
 31
0.0
  0
LINE
  5
AA2
  8
0
 10
63.3837441528092
 20
66.451659815676379
 30
0.0
 11
57.783744152809227
 21
66.451659815676422
 31
0.0
  0
LINE
  5
AA3
  8
0
 10
56.583744152809238
 20
86.451659815676408
 30
0.0
 11
56.58374415280921
 21
67.651659815676425
 31
0.0
  0
LINE
  5
AA4
  8
3
 10
57.260244152809101
 20
84.451659815676436
 30
0.0
 11
57.260244152809101
 21
66.97515981567652
 31
0.0
  0
LINE
  5
AA5
  8
3
 10
63.907244152809348
 20
84.451659815676379
 30
0.0
 11
63.907244152809319
 21
66.975159815676491
 31
0.0
  0
LINE
  5
AA6
  8
0
 10
64.583744152809246
 20
86.451659815676408
 30
0.0
 11
64.583744152809217
 21
67.651659815676368
 31
0.0
  0
LINE
  5
AA7
  8
0
 10
64.583744152809217
 20
67.651659815676368
 30
0.0
 11
63.3837441528092
 21
66.451659815676379
 31
0.0
  0
LINE
  5
AA8
  8
0
 10
57.783744152809227
 20
66.451659815676422
 30
0.0
 11
56.58374415280921
 21
67.651659815676425
 31
0.0
  0
LINE
  5
AA9
  8
0
 10
64.583744152809246
 20
67.651659815676325
 30
0.0
 11
56.583744152809189
 21
67.651659815676425
 31
0.0
  0
LINE
  5
AAA
  8
0
 10
64.583744152809246
 20
84.451659815676365
 30
0.0
 11
56.583744152809189
 21
84.451659815676464
 31
0.0
  0
LINE
  5
AAB
  8
3
 10
63.907244152809348
 20
84.451659815676379
 30
0.0
 11
64.583744152809246
 21
85.623392186996497
 31
0.0
  0
LINE
  5
AAC
  8
3
 10
57.260244152809143
 20
84.451659815676379
 30
0.0
 11
56.583744152809238
 21
85.623392186996497
 31
0.0
  0
LINE
  5
AAD
  8
0
 10
213.3837441528095
 20
66.451659815676379
 30
0.0
 11
207.78374415280959
 21
66.451659815676422
 31
0.0
  0
LINE
  5
AAE
  8
0
 10
206.5837441528096
 20
86.451659815676408
 30
0.0
 11
206.5837441528096
 21
67.651659815676425
 31
0.0
  0
LINE
  5
AAF
  8
3
 10
207.26024415280941
 20
84.451659815676436
 30
0.0
 11
207.26024415280941
 21
66.97515981567652
 31
0.0
  0
LINE
  5
AB0
  8
3
 10
213.90724415280971
 20
84.451659815676379
 30
0.0
 11
213.9072441528096
 21
66.975159815676491
 31
0.0
  0
LINE
  5
AB1
  8
0
 10
214.5837441528096
 20
86.451659815676408
 30
0.0
 11
214.5837441528096
 21
67.651659815676368
 31
0.0
  0
LINE
  5
AB2
  8
0
 10
214.5837441528096
 20
67.651659815676368
 30
0.0
 11
213.3837441528095
 21
66.451659815676379
 31
0.0
  0
LINE
  5
AB3
  8
0
 10
207.78374415280959
 20
66.451659815676422
 30
0.0
 11
206.5837441528096
 21
67.651659815676425
 31
0.0
  0
LINE
  5
AB4
  8
0
 10
214.5837441528096
 20
67.651659815676325
 30
0.0
 11
206.58374415280949
 21
67.651659815676425
 31
0.0
  0
LINE
  5
AB5
  8
0
 10
214.5837441528096
 20
84.451659815676365
 30
0.0
 11
206.58374415280949
 21
84.451659815676464
 31
0.0
  0
LINE
  5
AB6
  8
3
 10
213.90724415280971
 20
84.451659815676379
 30
0.0
 11
214.5837441528096
 21
85.623392186996497
 31
0.0
  0
LINE
  5
AB7
  8
3
 10
207.26024415280949
 20
84.451659815676379
 30
0.0
 11
206.5837441528096
 21
85.623392186996497
 31
0.0
  0
TEXT
  5
BD7
  8
0
 62
     3
 10
0.0
 20
0.0
 30
0.0
 40
10.0
  1
EALA63BX20-SUS
  7
STANDARD1
  0
ARC
  5
D58
  8
0
 10
108.85602347225959
 20
167.71159427516301
 30
0.0
 40
0.3800000000000092
 50
89.465003833626497
 51
210.53499529546519
  0
ARC
  5
D59
  8
0
 10
107.1649671373677
 20
166.71409427516289
 30
0.0
 40
1.5833333333333399
 50
329.46500608039599
 51
30.5349935893984
  0
ARC
  5
D5A
  8
0
 10
108.85602347225959
 20
165.716594275163
 30
0.0
 40
0.3800000000000056
 50
149.46500608039619
 51
270.53499254374202
  0
ARC
  5
D5B
  8
0
 10
108.8743556450886
 20
163.753346529916
 30
0.0
 40
1.5833333333333279
 50
29.465006619619398
 51
90.534994249810026
  0
ARC
  5
D5C
  8
0
 10
110.5837441528096
 20
164.71909427516289
 30
0.0
 40
0.3800000000000375
 50
209.46500383362471
 51
330.53499460753198
  0
ARC
  5
D5D
  8
0
 10
112.2931326605304
 20
163.753346529916
 30
0.0
 40
1.583333333333325
 50
89.465006080394161
 51
150.53499375450221
  0
ARC
  5
D5E
  8
0
 10
112.31146483335949
 20
165.716594275163
 30
0.0
 40
0.3800000000000183
 50
269.46500608039742
 51
30.53499460753493
  0
ARC
  5
D5F
  8
0
 10
114.00252116825131
 20
166.71409427516289
 30
0.0
 40
1.5833333333333379
 50
149.46500661962369
 51
210.53499375449911
  0
ARC
  5
D60
  8
0
 10
112.31146483335949
 20
167.71159427516301
 30
0.0
 40
0.380000000000008
 50
329.46500383362098
 51
90.534993919602584
  0
ARC
  5
D61
  8
0
 10
112.2931326605304
 20
169.6748420204099
 30
0.0
 40
1.583333333333333
 50
209.4650055411723
 51
270.53499391960582
  0
ARC
  5
D62
  8
0
 10
110.5837441528096
 20
168.70909427516301
 30
0.0
 40
0.380000000000013
 50
29.465008327171429
 51
150.5349925437406
  0
ARC
  5
D63
  8
0
 10
108.8743556450886
 20
169.6748420204099
 30
0.0
 40
1.5833333333333499
 50
269.46500661962148
 51
330.53499424981129
  0
ENDSEC
  0
EOF
