  0
SECTION
  2
HEADER
  9
$ACADVER
  1
AC1009
  9
$INSBASE
 10
0.0
 20
0.0
 30
0.0
  9
$EXTMIN
 10
0.0
 20
-2.960436562073669
 30
0.0
  9
$EXTMAX
 10
189.4260645512052
 20
144.5555630704394
 30
0.0
  9
$LIMMIN
 10
0.0
 20
0.0
  9
$LIMMAX
 10
270.0
 20
175.0
  9
$ORTHOMODE
 70
     1
  9
$REGENMODE
 70
     1
  9
$FILLMODE
 70
     1
  9
$QTEXTMODE
 70
     0
  9
$MIRRTEXT
 70
     0
  9
$DRAGMODE
 70
     2
  9
$LTSCALE
 40
5.0
  9
$OSMODE
 70
    37
  9
$ATTMODE
 70
     1
  9
$TEXTSIZE
 40
0.2
  9
$TRACEWID
 40
0.05
  9
$TEXTSTYLE
  7
STANDARD
  9
$CLAYER
  8
0
  9
$CELTYPE
  6
BYLAYER
  9
$CECOLOR
 62
   256
  9
$DIMSCALE
 40
1.0
  9
$DIMASZ
 40
3.0
  9
$DIMEXO
 40
2.0
  9
$DIMDLI
 40
0.38
  9
$DIMRND
 40
0.0
  9
$DIMDLE
 40
0.0
  9
$DIMEXE
 40
2.0
  9
$DIMTP
 40
0.0
  9
$DIMTM
 40
0.0
  9
$DIMTXT
 40
3.0
  9
$DIMCEN
 40
0.0
  9
$DIMTSZ
 40
0.0
  9
$DIMTOL
 70
     0
  9
$DIMLIM
 70
     0
  9
$DIMTIH
 70
     0
  9
$DIMTOH
 70
     0
  9
$DIMSE1
 70
     0
  9
$DIMSE2
 70
     0
  9
$DIMTAD
 70
     1
  9
$DIMZIN
 70
     8
  9
$DIMBLK
  1

  9
$DIMASO
 70
     0
  9
$DIMSHO
 70
     0
  9
$DIMPOST
  1

  9
$DIMAPOST
  1

  9
$DIMALT
 70
     0
  9
$DIMALTD
 70
     2
  9
$DIMALTF
 40
25.399999999999999
  9
$DIMLFAC
 40
1.0
  9
$DIMTOFL
 70
     1
  9
$DIMTVP
 40
1.6000000000000001
  9
$DIMTIX
 70
     1
  9
$DIMSOXD
 70
     0
  9
$DIMSAH
 70
     0
  9
$DIMBLK1
  1

  9
$DIMBLK2
  1

  9
$DIMSTYLE
  2
STANDARD
  9
$DIMCLRD
 70
     0
  9
$DIMCLRE
 70
     0
  9
$DIMCLRT
 70
     0
  9
$DIMTFAC
 40
1.0
  9
$DIMGAP
 40
1.0
  9
$LUNITS
 70
     2
  9
$LUPREC
 70
     1
  9
$SKETCHINC
 40
0.1
  9
$FILLETRAD
 40
0.0
  9
$AUNITS
 70
     0
  9
$AUPREC
 70
     1
  9
$MENU
  1
E:\r13\win\SUPPORT\ACAD
  9
$ELEVATION
 40
0.0
  9
$PELEVATION
 40
0.0
  9
$THICKNESS
 40
0.0
  9
$LIMCHECK
 70
     0
  9
$BLIPMODE
 70
     0
  9
$CHAMFERA
 40
0.0
  9
$CHAMFERB
 40
0.0
  9
$SKPOLY
 70
     0
  9
$TDCREATE
 40
2449839.7803587969
  9
$TDUPDATE
 40
2458275.4500552779
  9
$TDINDWG
 40
0.0980717014
  9
$TDUSRTIMER
 40
0.0980717014
  9
$USRTIMER
 70
     1
  9
$ANGBASE
 50
0.0
  9
$ANGDIR
 70
     0
  9
$PDMODE
 70
     0
  9
$PDSIZE
 40
0.0
  9
$PLINEWID
 40
0.0
  9
$COORDS
 70
     1
  9
$SPLFRAME
 70
     0
  9
$SPLINETYPE
 70
     6
  9
$SPLINESEGS
 70
     8
  9
$ATTDIA
 70
     0
  9
$ATTREQ
 70
     1
  9
$HANDLING
 70
     1
  9
$HANDSEED
  5
DB9
  9
$SURFTAB1
 70
     6
  9
$SURFTAB2
 70
     6
  9
$SURFTYPE
 70
     6
  9
$SURFU
 70
     6
  9
$SURFV
 70
     6
  9
$UCSNAME
  2

  9
$UCSORG
 10
0.0
 20
0.0
 30
0.0
  9
$UCSXDIR
 10
1.0
 20
0.0
 30
0.0
  9
$UCSYDIR
 10
0.0
 20
1.0
 30
0.0
  9
$PUCSNAME
  2

  9
$PUCSORG
 10
0.0
 20
0.0
 30
0.0
  9
$PUCSXDIR
 10
1.0
 20
0.0
 30
0.0
  9
$PUCSYDIR
 10
0.0
 20
1.0
 30
0.0
  9
$USERI1
 70
     0
  9
$USERI2
 70
     1
  9
$USERI3
 70
     1
  9
$USERI4
 70
     0
  9
$USERI5
 70
     0
  9
$USERR1
 40
0.0
  9
$USERR2
 40
0.0
  9
$USERR3
 40
0.0
  9
$USERR4
 40
0.0
  9
$USERR5
 40
0.0
  9
$WORLDVIEW
 70
     1
  9
$SHADEDGE
 70
     3
  9
$SHADEDIF
 70
    70
  9
$TILEMODE
 70
     1
  9
$MAXACTVP
 70
    16
  9
$PLIMCHECK
 70
     0
  9
$PEXTMIN
 10
1.0000000000000000E+020
 20
1.0000000000000000E+020
 30
1.0000000000000000E+020
  9
$PEXTMAX
 10
-1.0000000000000000E+020
 20
-1.0000000000000000E+020
 30
-1.0000000000000000E+020
  9
$PLIMMIN
 10
0.0
 20
0.0
  9
$PLIMMAX
 10
12.0
 20
9.0
  9
$UNITMODE
 70
     0
  9
$VISRETAIN
 70
     0
  9
$PLINEGEN
 70
     0
  9
$PSLTSCALE
 70
     0
  0
ENDSEC
  0
SECTION
  2
TABLES
  0
TABLE
  2
VPORT
 70
     1
  0
VPORT
  2
*ACTIVE
 70
     0
 10
0.0
 20
0.0
 11
1.0
 21
1.0
 12
181.62393162393161
 22
100.0
 13
0.0
 23
0.0
 14
10.0
 24
10.0
 15
10.0
 25
10.0
 16
0.0
 26
0.0
 36
1.0
 17
0.0
 27
0.0
 37
0.0
 40
200.0
 41
1.816239316239316
 42
50.0
 43
0.0
 44
0.0
 50
0.0
 51
0.0
 71
     0
 72
   500
 73
     1
 74
     0
 75
     0
 76
     0
 77
     0
 78
     2
  0
ENDTAB
  0
TABLE
  2
LTYPE
 70
     4
  0
LTYPE
  2
CONTINUOUS
 70
     0
  3
Solid Line
 72
    65
 73
     0
 40
0.0
  0
LTYPE
  2
CENTER
 70
     0
  3
____ _ ____ _ ____ _ ____ _ ____ _ ____ _ ____
 72
    65
 73
     4
 40
2.0
 49
1.25
 49
-0.25
 49
0.25
 49
-0.25
  0
LTYPE
  2
HIDDEN
 70
     0
  3
Hidden __ __ __ __ __ __ __ __ __ __ __ __ __ _
 72
    65
 73
     2
 40
0.375
 49
0.25
 49
-0.125
  0
LTYPE
  2
PHANTOM2
 70
     0
  3
___ _ _ ___ _ _ ___ _ _ ___ _ _
 72
    65
 73
     6
 40
1.25
 49
0.625
 49
-0.125
 49
0.125
 49
-0.125
 49
0.125
 49
-0.125
  0
ENDTAB
  0
TABLE
  2
LAYER
 70
     4
  0
LAYER
  2
0
 70
     0
 62
     7
  6
CONTINUOUS
  0
LAYER
  2
1
 70
     0
 62
     1
  6
CENTER
  0
LAYER
  2
3
 70
     0
 62
     3
  6
CONTINUOUS
  0
LAYER
  2
2
 70
     0
 62
     2
  6
HIDDEN
  0
ENDTAB
  0
TABLE
  2
STYLE
 70
     2
  0
STYLE
  2
STANDARD
 70
     0
 40
0.0
 41
1.0
 50
0.0
 71
     0
 42
0.2
  3
TXT
  4
BIGFONT
  0
STYLE
  2
STANDARD1
 70
     0
 40
0.0
 41
1.0
 50
0.0
 71
     0
 42
3.0
  3
txt
  4

  0
ENDTAB
  0
TABLE
  2
VIEW
 70
     1
  0
VIEW
  2
ALL
 70
     0
 40
179.5384664489153
 10
135.0
 20
89.769233224457665
 41
0.0
 11
0.0
 21
0.0
 31
1.0
 12
0.0
 22
0.0
 32
0.0
 42
0.0
 43
0.0
 44
0.0
 50
0.0
 71
     0
  0
ENDTAB
  0
TABLE
  2
UCS
 70
     0
  0
ENDTAB
  0
TABLE
  2
APPID
 70
     9
  0
APPID
  2
ACAD
 70
     0
  0
APPID
  2
GENIUS_GENODEF_13
 70
     0
  0
APPID
  2
GENIUS_GENOBJ-N-FIL_13
 70
     0
  0
APPID
  2
GENIUS_GENOREF_13
 70
     0
  0
APPID
  2
ACAD_MLEADERVER
 70
     0
  0
APPID
  2
ACAD_EXEMPT_FROM_CAD_STANDARDS
 70
     0
  0
APPID
  2
ACAD_NAV_VCDISPLAY
 70
     0
  0
APPID
  2
ACAD_DSTYLE_DIMJAG
 70
     0
  0
APPID
  2
ACAD_DSTYLE_DIMTALN
 70
     0
  0
ENDTAB
  0
TABLE
  2
DIMSTYLE
 70
     1
  0
DIMSTYLE
  2
STANDARD
 70
     0
  3

  4

  5

  6

  7

 40
1.0
 41
0.18
 42
0.0625
 43
0.38
 44
0.18
 45
0.0
 46
0.0
 47
0.0
 48
0.0
140
0.18
141
0.09
142
0.0
143
25.399999999999999
144
1.0
145
0.0
146
1.0
147
0.09
 71
     0
 72
     0
 73
     1
 74
     1
 75
     0
 76
     0
 77
     0
 78
     0
170
     0
171
     2
172
     0
173
     0
174
     0
175
     0
176
     0
177
     0
178
     0
  0
ENDTAB
  0
ENDSEC
  0
SECTION
  2
BLOCKS
  0
BLOCK
  8
0
  2
$MODEL_SPACE
 70
     0
 10
0.0
 20
0.0
 30
0.0
  3
$MODEL_SPACE
  1

  0
ENDBLK
  5
522
  8
0
  0
BLOCK
 67
     1
  8
0
  2
$PAPER_SPACE
 70
     0
 10
0.0
 20
0.0
 30
0.0
  3
$PAPER_SPACE
  1

  0
ENDBLK
  5
520
 67
     1
  8
0
  0
ENDSEC
  0
SECTION
  2
ENTITIES
  0
TEXT
  5
AFC
  8
0
 62
     3
 10
0.0
 20
0.0
 30
0.0
 40
10.0
  1
EALA44B-SUS
  7
STANDARD1
  0
LINE
  5
C8C
  8
0
 10
176.176064551205
 20
81.978063070439305
 30
0.0
 11
175.74403378493241
 21
81.978063070439362
 31
0.0
  0
ARC
  5
C8D
  8
0
 10
181.676064551205
 20
87.478063070439347
 30
0.0
 40
5.5
 50
180.0
 51
0.0
  0
LINE
  5
C8E
  8
0
 10
178.6760645512048
 20
67.456950587668302
 30
0.0
 11
178.67606455120509
 21
82.868290841792884
 31
0.0
  0
LINE
  5
C8F
  8
0
 10
184.6760645512052
 20
67.456950587668359
 30
0.0
 11
184.676064551205
 21
82.868290841792927
 31
0.0
  0
ARC
  5
C90
  8
0
 10
174.22606455120501
 20
63.278063070439373
 30
0.0
 40
0.3
 50
180.0
 51
270.0
  0
LINE
  5
C91
  8
0
 10
173.926064551205
 20
80.149486434836035
 30
0.0
 11
173.926064551205
 21
63.278063070439373
 31
0.0
  0
LINE
  5
C92
  8
0
 10
174.22606455120501
 20
62.978063070439362
 30
0.0
 11
189.1260645512051
 21
62.978063070439362
 31
0.0
  0
LINE
  5
C93
  8
1
 10
181.676064551205
 20
54.478063070439362
 30
0.0
 11
181.676064551205
 21
94.978063070439248
 31
0.0
  0
LINE
  5
C94
  8
0
 10
187.60809531747779
 20
81.978063070439362
 30
0.0
 11
187.176064551205
 21
81.978063070439305
 31
0.0
  0
ARC
  5
C95
  8
0
 10
175.74403378493241
 20
80.160063070439364
 30
0.0
 40
1.817999999999999
 50
90.0
 51
180.33333333333169
  0
LINE
  5
C96
  8
0
 10
186.676064551205
 20
62.978063070439362
 30
0.0
 11
186.676064551205
 21
59.978063070439362
 31
0.0
  0
LINE
  5
C97
  8
0
 10
186.176064551205
 20
59.478063070439362
 30
0.0
 11
186.676064551205
 21
59.978063070439362
 31
0.0
  0
LINE
  5
C98
  8
0
 10
176.676064551205
 20
59.978063070439362
 30
0.0
 11
186.676064551205
 21
59.978063070439362
 31
0.0
  0
LINE
  5
C99
  8
0
 10
177.176064551205
 20
59.478063070439362
 30
0.0
 11
186.176064551205
 21
59.478063070439362
 31
0.0
  0
LINE
  5
C9A
  8
0
 10
176.676064551205
 20
62.978063070439362
 30
0.0
 11
176.676064551205
 21
59.978063070439362
 31
0.0
  0
LINE
  5
C9B
  8
0
 10
177.176064551205
 20
59.478063070439362
 30
0.0
 11
176.676064551205
 21
59.978063070439362
 31
0.0
  0
LINE
  5
C9C
  8
0
 10
189.426064551205
 20
80.149486434836035
 30
0.0
 11
189.426064551205
 21
63.278063070439373
 31
0.0
  0
ARC
  5
C9D
  8
0
 10
187.60809531747779
 20
80.160063070439364
 30
0.0
 40
1.817999999999999
 50
359.66666666666822
 51
90.0
  0
ARC
  5
C9E
  8
0
 10
189.1260645512051
 20
63.278063070439373
 30
0.0
 40
0.3
 50
270.0
 51
0.0
  0
LINE
  5
C9F
  8
0
 10
187.176064551205
 20
67.456950587668302
 30
0.0
 11
187.176064551205
 21
87.978063070439305
 31
0.0
  0
ARC
  5
CA0
  8
0
 10
185.176064551205
 20
87.978063070439305
 30
0.0
 40
2.0
 50
0.0
 51
90.0
  0
LINE
  5
CA1
  8
0
 10
185.176064551205
 20
89.978063070439305
 30
0.0
 11
178.176064551205
 21
89.978063070439305
 31
0.0
  0
LINE
  5
CA2
  8
0
 10
176.176064551205
 20
67.456950587668302
 30
0.0
 11
176.176064551205
 21
87.978063070439305
 31
0.0
  0
ARC
  5
CA3
  8
0
 10
178.176064551205
 20
87.978063070439305
 30
0.0
 40
2.0
 50
90.0
 51
180.0
  0
LINE
  5
CA4
  8
0
 10
57.176064551204952
 20
84.806563743090194
 30
0.0
 11
46.176064551205059
 21
84.806563743090237
 31
0.0
  0
ARC
  5
CA5
  8
0
 10
48.176064551205059
 20
87.978063070439305
 30
0.0
 40
2.0
 50
90.0
 51
180.0
  0
LINE
  5
CA6
  8
0
 10
46.176064551205059
 20
81.978063070439362
 30
0.0
 11
46.176064551205059
 21
87.978063070439305
 31
0.0
  0
LINE
  5
CA7
  8
0
 10
55.176064551205059
 20
89.978063070439305
 30
0.0
 11
48.176064551205059
 21
89.978063070439305
 31
0.0
  0
ARC
  5
CA8
  8
0
 10
55.176064551205059
 20
87.978063070439305
 30
0.0
 40
2.0
 50
0.0
 51
90.0
  0
LINE
  5
CA9
  8
0
 10
57.176064551205059
 20
81.978063070439362
 30
0.0
 11
57.176064551205059
 21
87.978063070439305
 31
0.0
  0
ARC
  5
CAA
  8
0
 10
59.126064551205097
 20
63.278063070439373
 30
0.0
 40
0.3
 50
270.0
 51
0.0
  0
ARC
  5
CAB
  8
0
 10
57.608095317477812
 20
80.160063070439364
 30
0.0
 40
1.817999999999999
 50
359.66666666666822
 51
90.0
  0
LINE
  5
CAC
  8
0
 10
59.426064551205059
 20
80.149486434836035
 30
0.0
 11
59.426064551205059
 21
63.278063070439373
 31
0.0
  0
LINE
  5
CAD
  8
0
 10
55.676064551205059
 20
81.978063070439362
 30
0.0
 11
55.676064551205059
 21
83.178063070439364
 31
0.0
  0
ARC
  5
CAE
  8
0
 10
54.876064551205097
 20
83.178063070439364
 30
0.0
 40
0.8
 50
0.0
 51
90.0
  0
LINE
  5
CAF
  8
0
 10
54.876064551205097
 20
83.978063070439362
 30
0.0
 11
48.47606455120502
 21
83.978063070439404
 31
0.0
  0
ARC
  5
CB0
  8
0
 10
48.47606455120502
 20
83.178063070439364
 30
0.0
 40
0.8
 50
90.0
 51
180.0
  0
LINE
  5
CB1
  8
0
 10
47.676064551205059
 20
81.978063070439362
 30
0.0
 11
47.676064551205059
 21
83.178063070439364
 31
0.0
  0
LINE
  5
CB2
  8
0
 10
47.176064551205052
 20
59.478063070439362
 30
0.0
 11
46.676064551205052
 21
59.978063070439362
 31
0.0
  0
LINE
  5
CB3
  8
0
 10
46.676064551205052
 20
62.978063070439362
 30
0.0
 11
46.676064551205052
 21
59.978063070439362
 31
0.0
  0
LINE
  5
CB4
  8
0
 10
47.176064551205052
 20
59.478063070439362
 30
0.0
 11
56.176064551205059
 21
59.478063070439362
 31
0.0
  0
LINE
  5
CB5
  8
0
 10
46.676064551205052
 20
59.978063070439362
 30
0.0
 11
56.676064551205052
 21
59.978063070439362
 31
0.0
  0
LINE
  5
CB6
  8
0
 10
56.176064551205059
 20
59.478063070439362
 30
0.0
 11
56.676064551205052
 21
59.978063070439362
 31
0.0
  0
LINE
  5
CB7
  8
0
 10
56.676064551205052
 20
62.978063070439362
 30
0.0
 11
56.676064551205052
 21
59.978063070439362
 31
0.0
  0
ARC
  5
CB8
  8
0
 10
45.744033784932412
 20
80.160063070439364
 30
0.0
 40
1.817999999999999
 50
90.0
 51
180.33333333333169
  0
LINE
  5
CB9
  8
0
 10
57.608095317477812
 20
81.978063070439362
 30
0.0
 11
45.744033784932412
 21
81.978063070439362
 31
0.0
  0
LINE
  5
CBA
  8
1
 10
51.676064551205052
 20
54.478063070439362
 30
0.0
 11
51.676064551205052
 21
94.978063070439248
 31
0.0
  0
LINE
  5
CBB
  8
0
 10
44.226064551205013
 20
62.978063070439362
 30
0.0
 11
59.126064551205097
 21
62.978063070439362
 31
0.0
  0
LINE
  5
CBC
  8
0
 10
43.926064551205059
 20
80.149486434836035
 30
0.0
 11
43.926064551205059
 21
63.278063070439373
 31
0.0
  0
ARC
  5
CBD
  8
0
 10
44.226064551205013
 20
63.278063070439373
 30
0.0
 40
0.3
 50
180.0
 51
270.0
  0
ARC
  5
CBE
  8
0
 10
94.226064551205013
 20
63.278063070439373
 30
0.0
 40
0.3
 50
180.0
 51
270.0
  0
LINE
  5
CBF
  8
0
 10
93.926064551205044
 20
80.149486434836035
 30
0.0
 11
93.926064551205044
 21
63.278063070439373
 31
0.0
  0
ARC
  5
CC0
  8
3
 10
140.176064551205
 20
131.8055630704394
 30
0.0
 40
4.5
 50
270.0
 51
90.0
  0
ARC
  5
CC1
  8
0
 10
140.176064551205
 20
131.8055630704394
 30
0.0
 40
5.5
 50
270.0
 51
90.0
  0
ARC
  5
CC2
  8
3
 10
110.3254864972081
 20
147.3055630704394
 30
0.0
 40
11.0
 50
240.83729340383121
 51
270.0
  0
LINE
  5
CC3
  8
3
 10
110.3254864972081
 20
136.3055630704394
 30
0.0
 11
140.176064551205
 21
136.3055630704394
 31
0.0
  0
ARC
  5
CC4
  8
3
 10
110.3254864972081
 20
116.3055630704394
 30
0.0
 40
11.0
 50
90.0
 51
119.1627065961687
  0
LINE
  5
CC5
  8
3
 10
110.3254864972081
 20
127.3055630704394
 30
0.0
 11
140.176064551205
 21
127.3055630704394
 31
0.0
  0
ARC
  5
CC6
  8
0
 10
110.3254864972081
 20
116.3055630704394
 30
0.0
 40
10.0
 50
90.0
 51
119.1627065961687
  0
ARC
  5
CC7
  8
0
 10
110.3254864972081
 20
147.3055630704394
 30
0.0
 40
10.0
 50
240.83729340383121
 51
270.0
  0
LINE
  5
CC8
  8
0
 10
110.3254864972081
 20
126.3055630704394
 30
0.0
 11
140.176064551205
 21
126.3055630704394
 31
0.0
  0
LINE
  5
CC9
  8
0
 10
110.3254864972081
 20
137.3055630704394
 30
0.0
 11
140.176064551205
 21
137.3055630704394
 31
0.0
  0
ARC
  5
CCA
  8
3
 10
101.676064551205
 20
131.8055630704394
 30
0.0
 40
6.75
 50
60.837293403831289
 51
299.16270659616868
  0
ARC
  5
CCB
  8
0
 10
101.676064551205
 20
131.8055630704394
 30
0.0
 40
7.75
 50
60.837293403831289
 51
299.16270659616868
  0
ARC
  5
CCC
  8
0
 10
102.38306455120509
 20
88.543063070439459
 30
0.0
 40
6.5650000000000004
 50
270.0
 51
325.30871213972171
  0
LINE
  5
CCD
  8
0
 10
94.226064551205013
 20
62.978063070439362
 30
0.0
 11
109.126064551205
 21
62.978063070439362
 31
0.0
  0
LINE
  5
CCE
  8
1
 10
101.676064551205
 20
54.478063070439362
 30
0.0
 11
101.676064551205
 21
88.978063070439404
 31
0.0
  0
LINE
  5
CCF
  8
0
 10
102.38306455120509
 20
81.978063070439362
 30
0.0
 11
95.744033784932427
 21
81.978063070439362
 31
0.0
  0
ARC
  5
CD0
  8
0
 10
95.744033784932427
 20
80.160063070439364
 30
0.0
 40
1.817999999999999
 50
90.0
 51
180.33333333333169
  0
ARC
  5
CD1
  8
0
 10
135.740438021871
 20
76.988184229146441
 30
0.0
 40
7.0700000000000003
 50
51.565630368704568
 51
102.8648555574231
  0
ARC
  5
CD2
  8
0
 10
142.2516854631682
 20
-27.148858274191301
 30
0.0
 40
117.1419826380636
 50
90.918791848185364
 51
107.1134132914945
  0
ARC
  5
CD3
  8
0
 10
149.9056781069304
 20
17.387076781249561
 30
0.0
 40
68.331047470018603
 50
103.31710482016079
 51
121.6515253520592
  0
ARC
  5
CD4
  8
0
 10
118.9259037813536
 20
67.401682139796094
 30
0.0
 40
9.5
 50
120.88884649435209
 51
179.66666666666819
  0
ARC
  5
CD5
  8
0
 10
109.126064551205
 20
63.278063070439373
 30
0.0
 40
0.3
 50
270.0
 51
0.0
  0
ARC
  5
CD6
  8
0
 10
138.46501418162219
 20
87.894449151131823
 30
0.0
 40
7.2110503695828942
 50
311.81716210859901
 51
0.6643736762066214
  0
ARC
  5
CD7
  8
0
 10
143.6755797728334
 20
87.978063070439305
 30
0.0
 40
2.0
 50
0.0
 51
90.0
  0
ARC
  5
CD8
  8
0
 10
141.70796868473971
 20
84.508063070439277
 30
0.0
 40
2.529999999999998
 50
231.56563036870449
 51
308.2138758231406
  0
LINE
  5
CD9
  8
0
 10
140.37328382743709
 20
89.978063070439305
 30
0.0
 11
143.6755797728334
 21
89.978063070439305
 31
0.0
  0
LINE
  5
CDA
  8
0
 10
106.676064551205
 20
62.978063070439362
 30
0.0
 11
106.676064551205
 21
59.978063070439362
 31
0.0
  0
LINE
  5
CDB
  8
0
 10
106.176064551205
 20
59.478063070439362
 30
0.0
 11
106.676064551205
 21
59.978063070439362
 31
0.0
  0
LINE
  5
CDC
  8
0
 10
96.676064551205044
 20
59.978063070439362
 30
0.0
 11
106.676064551205
 21
59.978063070439362
 31
0.0
  0
LINE
  5
CDD
  8
0
 10
97.176064551205059
 20
59.478063070439362
 30
0.0
 11
106.176064551205
 21
59.478063070439362
 31
0.0
  0
LINE
  5
CDE
  8
0
 10
96.676064551205044
 20
62.978063070439362
 30
0.0
 11
96.676064551205044
 21
59.978063070439362
 31
0.0
  0
LINE
  5
CDF
  8
0
 10
97.176064551205059
 20
59.478063070439362
 30
0.0
 11
96.676064551205044
 21
59.978063070439362
 31
0.0
  0
LINE
  5
CE0
  8
1
 10
88.926064551205044
 20
131.8055630704394
 30
0.0
 11
150.676064551205
 21
131.8055630704394
 31
0.0
  0
LINE
  5
CE1
  8
1
 10
101.676064551205
 20
119.0555630704394
 30
0.0
 11
101.676064551205
 21
144.5555630704394
 31
0.0
  0
ARC
  5
CE2
  8
3
 10
93.906197632075077
 20
131.8055630704394
 30
0.0
 40
14.48250673635196
 50
340.40996929184422
 51
19.590030708155801
  0
CIRCLE
  5
CE3
  8
0
 10
112.75356446346051
 20
131.8055630704394
 30
0.0
 40
0.7
  0
CIRCLE
  5
CE4
  8
0
 10
110.60796727002921
 20
131.8055630704394
 30
0.0
 40
0.7
  0
CIRCLE
  5
CE5
  8
0
 10
116.99057817161351
 20
131.8055630704394
 30
0.0
 40
0.7
  0
CIRCLE
  5
CE6
  8
0
 10
114.90870490360849
 20
131.8055630704394
 30
0.0
 40
0.7
  0
CIRCLE
  5
CE7
  8
0
 10
119.2446814699762
 20
131.8055630704394
 30
0.0
 40
0.7
  0
CIRCLE
  5
CE8
  8
0
 10
101.676064551205
 20
131.8055630704394
 30
0.0
 40
4.0
  0
LINE
  5
CE9
  8
0
 10
97.676064551205073
 20
81.978063070439362
 30
0.0
 11
97.676064551205073
 21
83.178063070439364
 31
0.0
  0
ARC
  5
CEA
  8
0
 10
98.476064551205013
 20
83.178063070439364
 30
0.0
 40
0.8
 50
90.0
 51
180.0
  0
LINE
  5
CEB
  8
0
 10
104.8760645512051
 20
83.978063070439362
 30
0.0
 11
98.476064551205013
 21
83.978063070439404
 31
0.0
  0
ARC
  5
CEC
  8
0
 10
104.8760645512051
 20
83.178063070439364
 30
0.0
 40
0.8
 50
0.0
 51
90.0
  0
LINE
  5
CED
  8
0
 10
105.676064551205
 20
82.863681413956115
 30
0.0
 11
105.676064551205
 21
83.178063070439364
 31
0.0
  0
LINE
  5
CEE
  8
0
 10
109.426064551205
 20
67.456950587668473
 30
0.0
 11
109.426064551205
 21
63.278063070439373
 31
0.0
  0
LINE
  5
CEF
  8
2
 10
99.176064551205044
 20
59.945063070439573
 30
0.0
 11
99.176064551205044
 21
67.478063070439362
 31
0.0
  0
LINE
  5
CF0
  8
2
 10
99.609064551204867
 20
60.378063070439403
 30
0.0
 11
99.609064551204867
 21
69.478063070439362
 31
0.0
  0
LINE
  5
CF1
  8
2
 10
103.74306455120519
 20
60.378063070439403
 30
0.0
 11
103.74306455120519
 21
69.478063070439362
 31
0.0
  0
LINE
  5
CF2
  8
2
 10
104.176064551205
 20
59.945063070439573
 30
0.0
 11
104.176064551205
 21
67.478063070439362
 31
0.0
  0
LINE
  5
CF3
  8
2
 10
99.609064551204867
 20
69.478063070439418
 30
0.0
 11
101.6760645512051
 21
70.720041969969486
 31
0.0
  0
LINE
  5
CF4
  8
2
 10
103.74306455120519
 20
69.478063070439362
 30
0.0
 11
101.676064551205
 21
70.720041969969515
 31
0.0
  0
LINE
  5
CF5
  8
2
 10
99.176064551205044
 20
67.478063070439362
 30
0.0
 11
104.176064551205
 21
67.478063070439362
 31
0.0
  0
LINE
  5
CF6
  8
2
 10
99.609064551204867
 20
69.478063070439362
 30
0.0
 11
103.74306455120519
 21
69.478063070439362
 31
0.0
  0
LINE
  5
CF7
  8
2
 10
104.176064551205
 20
67.478063070439362
 30
0.0
 11
103.74306455120519
 21
68.228041070116291
 31
0.0
  0
LINE
  5
CF8
  8
2
 10
99.176064551205229
 20
67.478063070439362
 30
0.0
 11
99.609064551205023
 21
68.228041070116291
 31
0.0
  0
LINE
  5
CF9
  8
2
 10
98.709064551204833
 20
59.478063070439362
 30
0.0
 11
99.609064551204867
 21
60.378063070439403
 31
0.0
  0
LINE
  5
CFA
  8
2
 10
99.609064551204867
 20
60.378063070439403
 30
0.0
 11
103.74306455120519
 21
60.378063070439453
 31
0.0
  0
LINE
  5
CFB
  8
2
 10
103.74306455120519
 20
60.378063070439453
 30
0.0
 11
104.6430645512053
 21
59.478063070439362
 31
0.0
  0
LINE
  5
CFC
  8
2
 10
53.743064551205237
 20
60.378063070439453
 30
0.0
 11
54.643064551205299
 21
59.478063070439362
 31
0.0
  0
LINE
  5
CFD
  8
2
 10
49.609064551204852
 20
60.378063070439403
 30
0.0
 11
53.743064551205237
 21
60.378063070439453
 31
0.0
  0
LINE
  5
CFE
  8
2
 10
48.709064551204818
 20
59.478063070439362
 30
0.0
 11
49.609064551204852
 21
60.378063070439403
 31
0.0
  0
LINE
  5
CFF
  8
2
 10
49.176064551205229
 20
67.478063070439362
 30
0.0
 11
49.609064551205023
 21
68.228041070116291
 31
0.0
  0
LINE
  5
D00
  8
2
 10
54.176064551205052
 20
67.478063070439362
 30
0.0
 11
53.743064551205258
 21
68.228041070116291
 31
0.0
  0
LINE
  5
D01
  8
2
 10
49.609064551204852
 20
69.478063070439362
 30
0.0
 11
53.743064551205258
 21
69.478063070439362
 31
0.0
  0
LINE
  5
D02
  8
2
 10
49.176064551205052
 20
67.478063070439362
 30
0.0
 11
54.176064551205052
 21
67.478063070439362
 31
0.0
  0
LINE
  5
D03
  8
2
 10
53.743064551205258
 20
69.478063070439362
 30
0.0
 11
51.676064551205052
 21
70.720041969969515
 31
0.0
  0
LINE
  5
D04
  8
2
 10
49.609064551204852
 20
69.478063070439418
 30
0.0
 11
51.676064551205087
 21
70.720041969969486
 31
0.0
  0
LINE
  5
D05
  8
2
 10
54.176064551205052
 20
59.945063070439573
 30
0.0
 11
54.176064551205052
 21
67.478063070439362
 31
0.0
  0
LINE
  5
D06
  8
2
 10
53.743064551205258
 20
60.378063070439403
 30
0.0
 11
53.743064551205258
 21
69.478063070439362
 31
0.0
  0
LINE
  5
D07
  8
2
 10
49.609064551204852
 20
60.378063070439403
 30
0.0
 11
49.609064551204852
 21
69.478063070439362
 31
0.0
  0
LINE
  5
D08
  8
2
 10
49.176064551205052
 20
59.945063070439573
 30
0.0
 11
49.176064551205052
 21
67.478063070439362
 31
0.0
  0
LINE
  5
D09
  8
2
 10
183.74306455120521
 20
60.378063070439453
 30
0.0
 11
184.6430645512053
 21
59.478063070439362
 31
0.0
  0
LINE
  5
D0A
  8
2
 10
179.6090645512048
 20
60.378063070439403
 30
0.0
 11
183.74306455120521
 21
60.378063070439453
 31
0.0
  0
LINE
  5
D0B
  8
2
 10
178.70906455120479
 20
59.478063070439362
 30
0.0
 11
179.6090645512048
 21
60.378063070439403
 31
0.0
  0
LINE
  5
D0C
  8
2
 10
179.1760645512052
 20
67.478063070439362
 30
0.0
 11
179.60906455120499
 21
68.228041070116291
 31
0.0
  0
LINE
  5
D0D
  8
2
 10
184.176064551205
 20
67.478063070439362
 30
0.0
 11
183.74306455120521
 21
68.228041070116291
 31
0.0
  0
LINE
  5
D0E
  8
2
 10
179.6090645512048
 20
69.478063070439362
 30
0.0
 11
183.74306455120521
 21
69.478063070439362
 31
0.0
  0
LINE
  5
D0F
  8
2
 10
179.176064551205
 20
67.478063070439362
 30
0.0
 11
184.176064551205
 21
67.478063070439362
 31
0.0
  0
LINE
  5
D10
  8
2
 10
183.74306455120521
 20
69.478063070439362
 30
0.0
 11
181.676064551205
 21
70.720041969969515
 31
0.0
  0
LINE
  5
D11
  8
2
 10
179.6090645512048
 20
69.478063070439418
 30
0.0
 11
181.67606455120509
 21
70.720041969969486
 31
0.0
  0
LINE
  5
D12
  8
2
 10
184.176064551205
 20
59.945063070439573
 30
0.0
 11
184.176064551205
 21
67.478063070439362
 31
0.0
  0
LINE
  5
D13
  8
2
 10
183.74306455120521
 20
60.378063070439403
 30
0.0
 11
183.74306455120521
 21
69.478063070439362
 31
0.0
  0
LINE
  5
D14
  8
2
 10
179.6090645512048
 20
60.378063070439403
 30
0.0
 11
179.6090645512048
 21
69.478063070439362
 31
0.0
  0
LINE
  5
D15
  8
2
 10
179.176064551205
 20
59.945063070439573
 30
0.0
 11
179.176064551205
 21
67.478063070439362
 31
0.0
  0
ARC
  5
D17
  8
0
 10
100.2666082065458
 20
132.61931307043949
 30
0.0
 40
0.3099999999999768
 50
89.465006080390907
 51
210.5349939196073
  0
ARC
  5
D18
  8
0
 10
98.887062249134146
 20
131.80556307043949
 30
0.0
 40
1.2916666666666621
 50
329.46500608039628
 51
30.534993919603679
  0
ARC
  5
D19
  8
0
 10
100.2666082065458
 20
130.99181307043949
 30
0.0
 40
0.3100000000000254
 50
149.4650060803944
 51
270.53499391960582
  0
ARC
  5
D1A
  8
0
 10
100.2815634001696
 20
129.3902162256328
 30
0.0
 40
1.2916666666666661
 50
29.46500608039722
 51
90.534993919605824
  0
ARC
  5
D1B
  8
0
 10
101.676064551205
 20
130.17806307043949
 30
0.0
 40
0.3100000000000274
 50
209.46500608039341
 51
330.53499391960281
  0
ARC
  5
D1C
  8
0
 10
103.0705657022405
 20
129.3902162256328
 30
0.0
 40
1.2916666666666909
 50
89.465006080397416
 51
150.5349939196029
  0
ARC
  5
D1D
  8
0
 10
103.08552089586421
 20
130.99181307043949
 30
0.0
 40
0.3100000000000257
 50
269.46500608039088
 51
30.534993919605562
  0
ARC
  5
D1E
  8
0
 10
104.4650668532759
 20
131.80556307043949
 30
0.0
 40
1.2916666666666621
 50
149.46500608039631
 51
210.53499391960369
  0
ARC
  5
D1F
  8
0
 10
103.08552089586421
 20
132.61931307043949
 30
0.0
 40
0.309999999999997
 50
329.46500608039452
 51
90.534993919605824
  0
ARC
  5
D20
  8
0
 10
103.0705657022405
 20
134.22090991524621
 30
0.0
 40
1.291666666666677
 50
209.4650060803971
 51
270.53499391960582
  0
ARC
  5
D21
  8
0
 10
101.676064551205
 20
133.4330630704396
 30
0.0
 40
0.3100000000000274
 50
29.465006080399
 51
150.53499391960659
  0
ARC
  5
D22
  8
0
 10
100.2815634001696
 20
134.22090991524621
 30
0.0
 40
1.2916666666666581
 50
269.46500608039742
 51
330.53499391960662
  0
ENDSEC
  0
EOF
