  0
SECTION
  2
HEADER
  9
$ACADVER
  1
AC1009
  9
$INSBASE
 10
0.0
 20
0.0
 30
0.0
  9
$EXTMIN
 10
0.0
 20
-2.960436562073669
 30
0.0
  9
$EXTMAX
 10
189.4260645512052
 20
149.5555630704394
 30
0.0
  9
$LIMMIN
 10
0.0
 20
0.0
  9
$LIMMAX
 10
270.0
 20
175.0
  9
$ORTHOMODE
 70
     1
  9
$REGENMODE
 70
     1
  9
$FILLMODE
 70
     1
  9
$QTEXTMODE
 70
     0
  9
$MIRRTEXT
 70
     0
  9
$DRAGMODE
 70
     2
  9
$LTSCALE
 40
5.0
  9
$OSMODE
 70
    37
  9
$ATTMODE
 70
     1
  9
$TEXTSIZE
 40
0.2
  9
$TRACEWID
 40
0.05
  9
$TEXTSTYLE
  7
STANDARD
  9
$CLAYER
  8
0
  9
$CELTYPE
  6
BYLAYER
  9
$CECOLOR
 62
   256
  9
$DIMSCALE
 40
1.0
  9
$DIMASZ
 40
3.0
  9
$DIMEXO
 40
2.0
  9
$DIMDLI
 40
0.38
  9
$DIMRND
 40
0.0
  9
$DIMDLE
 40
0.0
  9
$DIMEXE
 40
2.0
  9
$DIMTP
 40
0.0
  9
$DIMTM
 40
0.0
  9
$DIMTXT
 40
3.0
  9
$DIMCEN
 40
0.0
  9
$DIMTSZ
 40
0.0
  9
$DIMTOL
 70
     0
  9
$DIMLIM
 70
     0
  9
$DIMTIH
 70
     0
  9
$DIMTOH
 70
     0
  9
$DIMSE1
 70
     0
  9
$DIMSE2
 70
     0
  9
$DIMTAD
 70
     1
  9
$DIMZIN
 70
     8
  9
$DIMBLK
  1

  9
$DIMASO
 70
     0
  9
$DIMSHO
 70
     0
  9
$DIMPOST
  1

  9
$DIMAPOST
  1

  9
$DIMALT
 70
     0
  9
$DIMALTD
 70
     2
  9
$DIMALTF
 40
25.399999999999999
  9
$DIMLFAC
 40
1.0
  9
$DIMTOFL
 70
     1
  9
$DIMTVP
 40
1.6000000000000001
  9
$DIMTIX
 70
     1
  9
$DIMSOXD
 70
     0
  9
$DIMSAH
 70
     0
  9
$DIMBLK1
  1

  9
$DIMBLK2
  1

  9
$DIMSTYLE
  2
STANDARD
  9
$DIMCLRD
 70
     0
  9
$DIMCLRE
 70
     0
  9
$DIMCLRT
 70
     0
  9
$DIMTFAC
 40
1.0
  9
$DIMGAP
 40
1.0
  9
$LUNITS
 70
     2
  9
$LUPREC
 70
     1
  9
$SKETCHINC
 40
0.1
  9
$FILLETRAD
 40
0.0
  9
$AUNITS
 70
     0
  9
$AUPREC
 70
     1
  9
$MENU
  1
E:\r13\win\SUPPORT\ACAD
  9
$ELEVATION
 40
0.0
  9
$PELEVATION
 40
0.0
  9
$THICKNESS
 40
0.0
  9
$LIMCHECK
 70
     0
  9
$BLIPMODE
 70
     0
  9
$CHAMFERA
 40
0.0
  9
$CHAMFERB
 40
0.0
  9
$SKPOLY
 70
     0
  9
$TDCREATE
 40
2449839.7803587969
  9
$TDUPDATE
 40
2458275.4584883568
  9
$TDINDWG
 40
0.1037171528
  9
$TDUSRTIMER
 40
0.1037171528
  9
$USRTIMER
 70
     1
  9
$ANGBASE
 50
0.0
  9
$ANGDIR
 70
     0
  9
$PDMODE
 70
     0
  9
$PDSIZE
 40
0.0
  9
$PLINEWID
 40
0.0
  9
$COORDS
 70
     1
  9
$SPLFRAME
 70
     0
  9
$SPLINETYPE
 70
     6
  9
$SPLINESEGS
 70
     8
  9
$ATTDIA
 70
     0
  9
$ATTREQ
 70
     1
  9
$HANDLING
 70
     1
  9
$HANDSEED
  5
E5E
  9
$SURFTAB1
 70
     6
  9
$SURFTAB2
 70
     6
  9
$SURFTYPE
 70
     6
  9
$SURFU
 70
     6
  9
$SURFV
 70
     6
  9
$UCSNAME
  2

  9
$UCSORG
 10
0.0
 20
0.0
 30
0.0
  9
$UCSXDIR
 10
1.0
 20
0.0
 30
0.0
  9
$UCSYDIR
 10
0.0
 20
1.0
 30
0.0
  9
$PUCSNAME
  2

  9
$PUCSORG
 10
0.0
 20
0.0
 30
0.0
  9
$PUCSXDIR
 10
1.0
 20
0.0
 30
0.0
  9
$PUCSYDIR
 10
0.0
 20
1.0
 30
0.0
  9
$USERI1
 70
     0
  9
$USERI2
 70
     1
  9
$USERI3
 70
     1
  9
$USERI4
 70
     0
  9
$USERI5
 70
     0
  9
$USERR1
 40
0.0
  9
$USERR2
 40
0.0
  9
$USERR3
 40
0.0
  9
$USERR4
 40
0.0
  9
$USERR5
 40
0.0
  9
$WORLDVIEW
 70
     1
  9
$SHADEDGE
 70
     3
  9
$SHADEDIF
 70
    70
  9
$TILEMODE
 70
     1
  9
$MAXACTVP
 70
    16
  9
$PLIMCHECK
 70
     0
  9
$PEXTMIN
 10
1.0000000000000000E+020
 20
1.0000000000000000E+020
 30
1.0000000000000000E+020
  9
$PEXTMAX
 10
-1.0000000000000000E+020
 20
-1.0000000000000000E+020
 30
-1.0000000000000000E+020
  9
$PLIMMIN
 10
0.0
 20
0.0
  9
$PLIMMAX
 10
12.0
 20
9.0
  9
$UNITMODE
 70
     0
  9
$VISRETAIN
 70
     0
  9
$PLINEGEN
 70
     0
  9
$PSLTSCALE
 70
     0
  0
ENDSEC
  0
SECTION
  2
TABLES
  0
TABLE
  2
VPORT
 70
     1
  0
VPORT
  2
*ACTIVE
 70
     0
 10
0.0
 20
0.0
 11
1.0
 21
1.0
 12
181.62393162393161
 22
100.0
 13
0.0
 23
0.0
 14
10.0
 24
10.0
 15
10.0
 25
10.0
 16
0.0
 26
0.0
 36
1.0
 17
0.0
 27
0.0
 37
0.0
 40
200.0
 41
1.816239316239316
 42
50.0
 43
0.0
 44
0.0
 50
0.0
 51
0.0
 71
     0
 72
   500
 73
     1
 74
     0
 75
     0
 76
     0
 77
     0
 78
     2
  0
ENDTAB
  0
TABLE
  2
LTYPE
 70
     4
  0
LTYPE
  2
CONTINUOUS
 70
     0
  3
Solid Line
 72
    65
 73
     0
 40
0.0
  0
LTYPE
  2
CENTER
 70
     0
  3
____ _ ____ _ ____ _ ____ _ ____ _ ____ _ ____
 72
    65
 73
     4
 40
2.0
 49
1.25
 49
-0.25
 49
0.25
 49
-0.25
  0
LTYPE
  2
PHANTOM2
 70
     0
  3
___ _ _ ___ _ _ ___ _ _ ___ _ _
 72
    65
 73
     6
 40
1.25
 49
0.625
 49
-0.125
 49
0.125
 49
-0.125
 49
0.125
 49
-0.125
  0
LTYPE
  2
HIDDEN
 70
     0
  3
Hidden __ __ __ __ __ __ __ __ __ __ __ __ __ _
 72
    65
 73
     2
 40
0.375
 49
0.25
 49
-0.125
  0
ENDTAB
  0
TABLE
  2
LAYER
 70
     4
  0
LAYER
  2
0
 70
     0
 62
     7
  6
CONTINUOUS
  0
LAYER
  2
1
 70
     0
 62
     1
  6
CENTER
  0
LAYER
  2
3
 70
     0
 62
     3
  6
CONTINUOUS
  0
LAYER
  2
2
 70
     0
 62
     2
  6
HIDDEN
  0
ENDTAB
  0
TABLE
  2
STYLE
 70
     2
  0
STYLE
  2
STANDARD
 70
     0
 40
0.0
 41
1.0
 50
0.0
 71
     0
 42
0.2
  3
TXT
  4
BIGFONT
  0
STYLE
  2
STANDARD1
 70
     0
 40
0.0
 41
1.0
 50
0.0
 71
     0
 42
3.0
  3
txt
  4

  0
ENDTAB
  0
TABLE
  2
VIEW
 70
     1
  0
VIEW
  2
ALL
 70
     0
 40
179.5384664489153
 10
135.0
 20
89.769233224457665
 41
0.0
 11
0.0
 21
0.0
 31
1.0
 12
0.0
 22
0.0
 32
0.0
 42
0.0
 43
0.0
 44
0.0
 50
0.0
 71
     0
  0
ENDTAB
  0
TABLE
  2
UCS
 70
     0
  0
ENDTAB
  0
TABLE
  2
APPID
 70
     9
  0
APPID
  2
ACAD
 70
     0
  0
APPID
  2
GENIUS_GENODEF_13
 70
     0
  0
APPID
  2
GENIUS_GENOBJ-N-FIL_13
 70
     0
  0
APPID
  2
GENIUS_GENOREF_13
 70
     0
  0
APPID
  2
ACAD_MLEADERVER
 70
     0
  0
APPID
  2
ACAD_EXEMPT_FROM_CAD_STANDARDS
 70
     0
  0
APPID
  2
ACAD_NAV_VCDISPLAY
 70
     0
  0
APPID
  2
ACAD_DSTYLE_DIMJAG
 70
     0
  0
APPID
  2
ACAD_DSTYLE_DIMTALN
 70
     0
  0
ENDTAB
  0
TABLE
  2
DIMSTYLE
 70
     1
  0
DIMSTYLE
  2
STANDARD
 70
     0
  3

  4

  5

  6

  7

 40
1.0
 41
0.18
 42
0.0625
 43
0.38
 44
0.18
 45
0.0
 46
0.0
 47
0.0
 48
0.0
140
0.18
141
0.09
142
0.0
143
25.399999999999999
144
1.0
145
0.0
146
1.0
147
0.09
 71
     0
 72
     0
 73
     1
 74
     1
 75
     0
 76
     0
 77
     0
 78
     0
170
     0
171
     2
172
     0
173
     0
174
     0
175
     0
176
     0
177
     0
178
     0
  0
ENDTAB
  0
ENDSEC
  0
SECTION
  2
BLOCKS
  0
BLOCK
  8
0
  2
$MODEL_SPACE
 70
     0
 10
0.0
 20
0.0
 30
0.0
  3
$MODEL_SPACE
  1

  0
ENDBLK
  5
522
  8
0
  0
BLOCK
 67
     1
  8
0
  2
$PAPER_SPACE
 70
     0
 10
0.0
 20
0.0
 30
0.0
  3
$PAPER_SPACE
  1

  0
ENDBLK
  5
520
 67
     1
  8
0
  0
ENDSEC
  0
SECTION
  2
ENTITIES
  0
LINE
  5
915
  8
0
 10
176.176064551205
 20
86.978063070439305
 30
0.0
 11
175.74403378493241
 21
86.978063070439362
 31
0.0
  0
ARC
  5
916
  8
0
 10
181.676064551205
 20
92.478063070439347
 30
0.0
 40
5.5
 50
180.0
 51
0.0
  0
LINE
  5
917
  8
0
 10
178.6760645512048
 20
72.456950587668302
 30
0.0
 11
178.67606455120509
 21
87.868290841792884
 31
0.0
  0
LINE
  5
918
  8
0
 10
184.6760645512052
 20
72.456950587668359
 30
0.0
 11
184.676064551205
 21
87.868290841792927
 31
0.0
  0
ARC
  5
919
  8
0
 10
174.22606455120501
 20
68.278063070439373
 30
0.0
 40
0.3
 50
180.0
 51
270.0
  0
LINE
  5
91A
  8
0
 10
173.926064551205
 20
85.149486434836035
 30
0.0
 11
173.926064551205
 21
68.278063070439373
 31
0.0
  0
LINE
  5
928
  8
0
 10
174.22606455120501
 20
67.978063070439362
 30
0.0
 11
189.10256455120509
 21
67.978063070439362
 31
0.0
  0
LINE
  5
929
  8
1
 10
181.676064551205
 20
39.478063070439362
 30
0.0
 11
181.676064551205
 21
99.978063070439248
 31
0.0
  0
LINE
  5
92B
  8
0
 10
187.60809531747779
 20
86.978063070439362
 30
0.0
 11
187.176064551205
 21
86.978063070439305
 31
0.0
  0
ARC
  5
92C
  8
0
 10
175.74403378493241
 20
85.160063070439364
 30
0.0
 40
1.817999999999999
 50
90.0
 51
180.33333333333169
  0
LINE
  5
92D
  8
0
 10
186.676064551205
 20
67.978063070439362
 30
0.0
 11
186.676064551205
 21
64.978063070439362
 31
0.0
  0
LINE
  5
92E
  8
0
 10
186.176064551205
 20
64.478063070439362
 30
0.0
 11
186.676064551205
 21
64.978063070439362
 31
0.0
  0
LINE
  5
92F
  8
0
 10
176.676064551205
 20
64.978063070439362
 30
0.0
 11
186.676064551205
 21
64.978063070439362
 31
0.0
  0
LINE
  5
930
  8
0
 10
177.176064551205
 20
64.478063070439362
 30
0.0
 11
186.176064551205
 21
64.478063070439362
 31
0.0
  0
LINE
  5
931
  8
0
 10
176.676064551205
 20
67.978063070439362
 30
0.0
 11
176.676064551205
 21
64.978063070439362
 31
0.0
  0
LINE
  5
932
  8
0
 10
177.176064551205
 20
64.478063070439362
 30
0.0
 11
176.676064551205
 21
64.978063070439362
 31
0.0
  0
LINE
  5
933
  8
0
 10
189.426064551205
 20
85.149486434836035
 30
0.0
 11
189.426064551205
 21
68.278063070439373
 31
0.0
  0
ARC
  5
934
  8
0
 10
187.60809531747779
 20
85.160063070439364
 30
0.0
 40
1.817999999999999
 50
359.66666666666822
 51
90.0
  0
ARC
  5
935
  8
0
 10
189.1260645512051
 20
68.278063070439373
 30
0.0
 40
0.3
 50
270.0
 51
0.0
  0
LINE
  5
936
  8
0
 10
187.176064551205
 20
72.456950587668302
 30
0.0
 11
187.176064551205
 21
92.978063070439305
 31
0.0
  0
ARC
  5
937
  8
0
 10
185.176064551205
 20
92.978063070439305
 30
0.0
 40
2.0
 50
0.0
 51
90.0
  0
LINE
  5
938
  8
0
 10
185.176064551205
 20
94.978063070439305
 30
0.0
 11
178.176064551205
 21
94.978063070439305
 31
0.0
  0
LINE
  5
939
  8
0
 10
176.176064551205
 20
72.456950587668302
 30
0.0
 11
176.176064551205
 21
92.978063070439305
 31
0.0
  0
ARC
  5
93A
  8
0
 10
178.176064551205
 20
92.978063070439305
 30
0.0
 40
2.0
 50
90.0
 51
180.0
  0
LINE
  5
93B
  8
0
 10
57.176064551204952
 20
89.806563743090194
 30
0.0
 11
46.176064551205059
 21
89.806563743090237
 31
0.0
  0
ARC
  5
93C
  8
0
 10
48.176064551205059
 20
92.978063070439305
 30
0.0
 40
2.0
 50
90.0
 51
180.0
  0
LINE
  5
93D
  8
0
 10
46.176064551205059
 20
86.978063070439362
 30
0.0
 11
46.176064551205059
 21
92.978063070439305
 31
0.0
  0
LINE
  5
93E
  8
0
 10
55.176064551205059
 20
94.978063070439305
 30
0.0
 11
48.176064551205059
 21
94.978063070439305
 31
0.0
  0
ARC
  5
93F
  8
0
 10
55.176064551205059
 20
92.978063070439305
 30
0.0
 40
2.0
 50
0.0
 51
90.0
  0
LINE
  5
940
  8
0
 10
57.176064551205059
 20
86.978063070439362
 30
0.0
 11
57.176064551205059
 21
92.978063070439305
 31
0.0
  0
ARC
  5
941
  8
0
 10
59.126064551205097
 20
68.278063070439373
 30
0.0
 40
0.3
 50
270.0
 51
0.0
  0
ARC
  5
942
  8
0
 10
57.608095317477812
 20
85.160063070439364
 30
0.0
 40
1.817999999999999
 50
359.66666666666822
 51
90.0
  0
LINE
  5
943
  8
0
 10
59.426064551205059
 20
85.149486434836035
 30
0.0
 11
59.426064551205059
 21
68.278063070439373
 31
0.0
  0
LINE
  5
944
  8
0
 10
55.676064551205059
 20
86.978063070439362
 30
0.0
 11
55.676064551205059
 21
88.178063070439364
 31
0.0
  0
ARC
  5
945
  8
0
 10
54.876064551205097
 20
88.178063070439364
 30
0.0
 40
0.8
 50
0.0
 51
90.0
  0
LINE
  5
946
  8
0
 10
54.876064551205097
 20
88.978063070439362
 30
0.0
 11
48.47606455120502
 21
88.978063070439404
 31
0.0
  0
ARC
  5
947
  8
0
 10
48.47606455120502
 20
88.178063070439364
 30
0.0
 40
0.8
 50
90.0
 51
180.0
  0
LINE
  5
948
  8
0
 10
47.676064551205059
 20
86.978063070439362
 30
0.0
 11
47.676064551205059
 21
88.178063070439364
 31
0.0
  0
LINE
  5
949
  8
0
 10
47.176064551205052
 20
64.478063070439362
 30
0.0
 11
46.676064551205052
 21
64.978063070439362
 31
0.0
  0
LINE
  5
94A
  8
0
 10
46.676064551205052
 20
67.978063070439362
 30
0.0
 11
46.676064551205052
 21
64.978063070439362
 31
0.0
  0
LINE
  5
94B
  8
0
 10
47.176064551205052
 20
64.478063070439362
 30
0.0
 11
56.176064551205059
 21
64.478063070439362
 31
0.0
  0
LINE
  5
94C
  8
0
 10
46.676064551205052
 20
64.978063070439362
 30
0.0
 11
56.676064551205052
 21
64.978063070439362
 31
0.0
  0
LINE
  5
94D
  8
0
 10
56.176064551205059
 20
64.478063070439362
 30
0.0
 11
56.676064551205052
 21
64.978063070439362
 31
0.0
  0
LINE
  5
94E
  8
0
 10
56.676064551205052
 20
67.978063070439362
 30
0.0
 11
56.676064551205052
 21
64.978063070439362
 31
0.0
  0
ARC
  5
94F
  8
0
 10
45.744033784932412
 20
85.160063070439364
 30
0.0
 40
1.817999999999999
 50
90.0
 51
180.33333333333169
  0
LINE
  5
950
  8
0
 10
57.608095317477812
 20
86.978063070439362
 30
0.0
 11
45.744033784932412
 21
86.978063070439362
 31
0.0
  0
LINE
  5
952
  8
1
 10
51.676064551205052
 20
39.478063070439362
 30
0.0
 11
51.676064551205052
 21
99.978063070439248
 31
0.0
  0
LINE
  5
953
  8
0
 10
44.226064551205013
 20
67.978063070439362
 30
0.0
 11
59.102564551205091
 21
67.978063070439362
 31
0.0
  0
LINE
  5
961
  8
0
 10
43.926064551205059
 20
85.149486434836035
 30
0.0
 11
43.926064551205059
 21
68.278063070439373
 31
0.0
  0
ARC
  5
962
  8
0
 10
44.226064551205013
 20
68.278063070439373
 30
0.0
 40
0.3
 50
180.0
 51
270.0
  0
ARC
  5
969
  8
0
 10
94.226064551205013
 20
68.278063070439373
 30
0.0
 40
0.3
 50
180.0
 51
270.0
  0
LINE
  5
96A
  8
0
 10
93.926064551205044
 20
85.149486434836035
 30
0.0
 11
93.926064551205044
 21
68.278063070439373
 31
0.0
  0
ARC
  5
978
  8
3
 10
140.176064551205
 20
136.8055630704394
 30
0.0
 40
4.5
 50
270.0
 51
90.0
  0
ARC
  5
979
  8
0
 10
140.176064551205
 20
136.8055630704394
 30
0.0
 40
5.5
 50
270.0
 51
90.0
  0
ARC
  5
97A
  8
3
 10
110.3254864972081
 20
152.3055630704394
 30
0.0
 40
11.0
 50
240.83729340383121
 51
270.0
  0
LINE
  5
97B
  8
3
 10
110.3254864972081
 20
141.3055630704394
 30
0.0
 11
140.176064551205
 21
141.3055630704394
 31
0.0
  0
ARC
  5
97C
  8
3
 10
110.3254864972081
 20
121.3055630704394
 30
0.0
 40
11.0
 50
90.0
 51
119.1627065961688
  0
LINE
  5
97D
  8
3
 10
110.3254864972081
 20
132.3055630704394
 30
0.0
 11
140.176064551205
 21
132.3055630704394
 31
0.0
  0
ARC
  5
97E
  8
0
 10
110.3254864972081
 20
121.3055630704394
 30
0.0
 40
10.0
 50
90.0
 51
119.1627065961688
  0
ARC
  5
97F
  8
0
 10
110.3254864972081
 20
152.3055630704394
 30
0.0
 40
10.0
 50
240.83729340383121
 51
270.0
  0
LINE
  5
980
  8
0
 10
110.3254864972081
 20
131.3055630704394
 30
0.0
 11
140.176064551205
 21
131.3055630704394
 31
0.0
  0
LINE
  5
981
  8
0
 10
110.3254864972081
 20
142.3055630704394
 30
0.0
 11
140.176064551205
 21
142.3055630704394
 31
0.0
  0
ARC
  5
982
  8
3
 10
101.676064551205
 20
136.8055630704394
 30
0.0
 40
6.75
 50
60.837293403831211
 51
299.16270659616879
  0
ARC
  5
983
  8
0
 10
101.676064551205
 20
136.8055630704394
 30
0.0
 40
7.75
 50
60.837293403831211
 51
299.16270659616879
  0
ARC
  5
984
  8
0
 10
102.38306455120509
 20
93.543063070439459
 30
0.0
 40
6.5650000000000004
 50
270.0
 51
325.30871213972222
  0
LINE
  5
985
  8
0
 10
94.226064551205013
 20
67.978063070439362
 30
0.0
 11
109.10256455120511
 21
67.978063070439362
 31
0.0
  0
LINE
  5
986
  8
1
 10
101.676064551205
 20
39.478063070439369
 30
0.0
 11
101.676064551205
 21
93.978063070439404
 31
0.0
  0
LINE
  5
988
  8
0
 10
102.38306455120509
 20
86.978063070439362
 30
0.0
 11
95.744033784932427
 21
86.978063070439362
 31
0.0
  0
ARC
  5
989
  8
0
 10
95.744033784932427
 20
85.160063070439364
 30
0.0
 40
1.817999999999999
 50
90.0
 51
180.33333333333169
  0
ARC
  5
98A
  8
0
 10
135.740438021871
 20
81.988184229146441
 30
0.0
 40
7.0700000000000003
 50
51.565630368704241
 51
102.8648555574229
  0
ARC
  5
98B
  8
0
 10
142.2516854631682
 20
-22.148858274191301
 30
0.0
 40
117.1419826380636
 50
90.918791848185364
 51
107.1134132914941
  0
ARC
  5
98C
  8
0
 10
149.9056781069304
 20
22.387076781249551
 30
0.0
 40
68.331047470018603
 50
103.31710482016049
 51
121.65152535206001
  0
ARC
  5
98D
  8
0
 10
118.9259037813536
 20
72.401682139796094
 30
0.0
 40
9.5
 50
120.8888464943515
 51
179.66666666666819
  0
ARC
  5
98E
  8
0
 10
109.10542341745931
 20
68.278046438042111
 30
0.0
 40
0.3
 50
270.0
 51
0.0
  0
ARC
  5
990
  8
0
 10
138.46501418162219
 20
92.894449151131823
 30
0.0
 40
7.2110503695828942
 50
311.81716210859861
 51
0.6643736762065985
  0
ARC
  5
991
  8
0
 10
143.6755797728334
 20
92.978063070439305
 30
0.0
 40
2.0
 50
0.0
 51
90.0
  0
ARC
  5
992
  8
0
 10
141.70796868473971
 20
89.508063070439277
 30
0.0
 40
2.529999999999998
 50
231.56563036870421
 51
308.21387582314009
  0
LINE
  5
993
  8
0
 10
140.37328382743709
 20
94.978063070439305
 30
0.0
 11
143.6755797728334
 21
94.978063070439305
 31
0.0
  0
LINE
  5
994
  8
0
 10
106.676064551205
 20
67.978063070439362
 30
0.0
 11
106.676064551205
 21
64.978063070439362
 31
0.0
  0
LINE
  5
995
  8
0
 10
106.176064551205
 20
64.478063070439362
 30
0.0
 11
106.676064551205
 21
64.978063070439362
 31
0.0
  0
LINE
  5
996
  8
0
 10
96.676064551205044
 20
64.978063070439362
 30
0.0
 11
106.676064551205
 21
64.978063070439362
 31
0.0
  0
LINE
  5
997
  8
0
 10
97.176064551205059
 20
64.478063070439362
 30
0.0
 11
106.176064551205
 21
64.478063070439362
 31
0.0
  0
LINE
  5
998
  8
0
 10
96.676064551205044
 20
67.978063070439362
 30
0.0
 11
96.676064551205044
 21
64.978063070439362
 31
0.0
  0
LINE
  5
999
  8
0
 10
97.176064551205059
 20
64.478063070439362
 30
0.0
 11
96.676064551205044
 21
64.978063070439362
 31
0.0
  0
LINE
  5
99A
  8
1
 10
88.926064551205044
 20
136.8055630704394
 30
0.0
 11
150.676064551205
 21
136.8055630704394
 31
0.0
  0
LINE
  5
99B
  8
1
 10
101.676064551205
 20
124.0555630704394
 30
0.0
 11
101.676064551205
 21
149.5555630704394
 31
0.0
  0
ARC
  5
99C
  8
3
 10
93.906197632075077
 20
136.8055630704394
 30
0.0
 40
14.48250673635196
 50
340.40996929184388
 51
19.590030708156061
  0
CIRCLE
  5
99D
  8
0
 10
112.75356446346051
 20
136.8055630704394
 30
0.0
 40
0.7
  0
CIRCLE
  5
99E
  8
0
 10
110.60796727002921
 20
136.8055630704394
 30
0.0
 40
0.7
  0
CIRCLE
  5
99F
  8
0
 10
116.99057817161351
 20
136.8055630704394
 30
0.0
 40
0.7
  0
CIRCLE
  5
9A0
  8
0
 10
114.90870490360849
 20
136.8055630704394
 30
0.0
 40
0.7
  0
CIRCLE
  5
9A1
  8
0
 10
119.2446814699762
 20
136.8055630704394
 30
0.0
 40
0.7
  0
CIRCLE
  5
9A2
  8
0
 10
101.676064551205
 20
136.8055630704394
 30
0.0
 40
4.0
  0
LINE
  5
9A3
  8
0
 10
97.676064551205073
 20
86.978063070439362
 30
0.0
 11
97.676064551205073
 21
88.178063070439364
 31
0.0
  0
ARC
  5
9A4
  8
0
 10
98.476064551205013
 20
88.178063070439364
 30
0.0
 40
0.8
 50
90.0
 51
180.0
  0
LINE
  5
9A5
  8
0
 10
104.8760645512051
 20
88.978063070439362
 30
0.0
 11
98.476064551205013
 21
88.978063070439404
 31
0.0
  0
ARC
  5
9A6
  8
0
 10
104.8760645512051
 20
88.178063070439364
 30
0.0
 40
0.8
 50
0.0
 51
90.0
  0
LINE
  5
9A7
  8
0
 10
105.676064551205
 20
87.863681413956115
 30
0.0
 11
105.676064551205
 21
88.178063070439364
 31
0.0
  0
LINE
  5
9AA
  8
0
 10
109.426064551205
 20
72.456950587668459
 30
0.0
 11
109.426064551205
 21
68.278063070439373
 31
0.0
  0
LINE
  5
9CC
  8
0
 10
49.676064551205059
 20
64.47806307043939
 30
0.0
 11
49.676064551205059
 21
45.278063070439373
 31
0.0
  0
LINE
  5
9CD
  8
0
 10
49.676064551205059
 20
45.278063070439337
 30
0.0
 11
50.47606455120507
 21
44.478063070439347
 31
0.0
  0
LINE
  5
9CE
  8
3
 10
50.05506455120647
 20
62.97806307043934
 30
0.0
 11
50.055064551206442
 21
44.899063070437961
 31
0.0
  0
LINE
  5
9CF
  8
3
 10
50.055064551206442
 20
62.97806307043934
 30
0.0
 11
49.676064551205059
 21
63.634510326510352
 31
0.0
  0
LINE
  5
9D0
  8
3
 10
53.297064551203668
 20
62.97806307043934
 30
0.0
 11
53.676064551205059
 21
63.634510326510352
 31
0.0
  0
LINE
  5
9D1
  8
3
 10
53.297064551203668
 20
62.97806307043934
 30
0.0
 11
53.297064551203668
 21
44.899063070437961
 31
0.0
  0
LINE
  5
9D2
  8
0
 10
53.676064551205059
 20
62.97806307043934
 30
0.0
 11
49.676064551205059
 21
62.978063070439369
 31
0.0
  0
LINE
  5
9D3
  8
0
 10
49.676064551205108
 20
45.278063070439309
 30
0.0
 11
53.676064551205059
 21
45.278063070439373
 31
0.0
  0
LINE
  5
9D4
  8
0
 10
53.676064551205059
 20
45.278063070439337
 30
0.0
 11
52.876064551205047
 21
44.478063070439347
 31
0.0
  0
LINE
  5
9D5
  8
0
 10
52.876064551205047
 20
44.478063070439347
 30
0.0
 11
50.47606455120507
 21
44.478063070439347
 31
0.0
  0
LINE
  5
9D6
  8
0
 10
53.676064551205059
 20
64.47806307043939
 30
0.0
 11
53.676064551205059
 21
45.278063070439373
 31
0.0
  0
LINE
  5
9E5
  8
0
 10
103.68781455120499
 20
64.47806307043939
 30
0.0
 11
103.68781455120499
 21
45.278063070439373
 31
0.0
  0
LINE
  5
9E6
  8
0
 10
102.887814551205
 20
44.478063070439347
 30
0.0
 11
100.48781455120501
 21
44.478063070439347
 31
0.0
  0
LINE
  5
9E7
  8
0
 10
103.68781455120499
 20
45.278063070439337
 30
0.0
 11
102.887814551205
 21
44.478063070439347
 31
0.0
  0
LINE
  5
9E8
  8
0
 10
99.687814551205093
 20
45.278063070439309
 30
0.0
 11
103.68781455120499
 21
45.278063070439373
 31
0.0
  0
LINE
  5
9E9
  8
0
 10
103.68781455120499
 20
62.97806307043934
 30
0.0
 11
99.687814551205037
 21
62.978063070439369
 31
0.0
  0
LINE
  5
9EA
  8
3
 10
103.3088145512036
 20
62.97806307043934
 30
0.0
 11
103.3088145512036
 21
44.899063070437961
 31
0.0
  0
LINE
  5
9EB
  8
3
 10
103.3088145512036
 20
62.97806307043934
 30
0.0
 11
103.68781455120499
 21
63.634510326510352
 31
0.0
  0
LINE
  5
9EC
  8
3
 10
100.06681455120641
 20
62.97806307043934
 30
0.0
 11
99.687814551205037
 21
63.634510326510352
 31
0.0
  0
LINE
  5
9ED
  8
3
 10
100.06681455120641
 20
62.97806307043934
 30
0.0
 11
100.06681455120641
 21
44.899063070437961
 31
0.0
  0
LINE
  5
9EE
  8
0
 10
99.687814551205037
 20
45.278063070439337
 30
0.0
 11
100.48781455120501
 21
44.478063070439347
 31
0.0
  0
LINE
  5
9EF
  8
0
 10
99.687814551205065
 20
64.47806307043939
 30
0.0
 11
99.687814551205037
 21
45.278063070439373
 31
0.0
  0
LINE
  5
9F0
  8
0
 10
179.68781455120501
 20
64.47806307043939
 30
0.0
 11
179.68781455120501
 21
45.278063070439373
 31
0.0
  0
LINE
  5
9F1
  8
0
 10
179.68781455120501
 20
45.278063070439337
 30
0.0
 11
180.48781455120499
 21
44.478063070439347
 31
0.0
  0
LINE
  5
9F2
  8
3
 10
180.06681455120639
 20
62.97806307043934
 30
0.0
 11
180.06681455120639
 21
44.899063070437961
 31
0.0
  0
LINE
  5
9F3
  8
3
 10
180.06681455120639
 20
62.97806307043934
 30
0.0
 11
179.68781455120501
 21
63.634510326510352
 31
0.0
  0
LINE
  5
9F4
  8
3
 10
183.3088145512036
 20
62.97806307043934
 30
0.0
 11
183.68781455120501
 21
63.634510326510352
 31
0.0
  0
LINE
  5
9F5
  8
3
 10
183.3088145512036
 20
62.97806307043934
 30
0.0
 11
183.3088145512036
 21
44.899063070437961
 31
0.0
  0
LINE
  5
9F6
  8
0
 10
183.68781455120501
 20
62.97806307043934
 30
0.0
 11
179.68781455120501
 21
62.978063070439369
 31
0.0
  0
LINE
  5
9F7
  8
0
 10
179.68781455120509
 20
45.278063070439309
 30
0.0
 11
183.68781455120501
 21
45.278063070439373
 31
0.0
  0
LINE
  5
9F8
  8
0
 10
183.68781455120501
 20
45.278063070439337
 30
0.0
 11
182.887814551205
 21
44.478063070439347
 31
0.0
  0
LINE
  5
9F9
  8
0
 10
182.887814551205
 20
44.478063070439347
 30
0.0
 11
180.48781455120499
 21
44.478063070439347
 31
0.0
  0
LINE
  5
9FA
  8
0
 10
183.68781455120501
 20
64.47806307043939
 30
0.0
 11
183.68781455120501
 21
45.278063070439373
 31
0.0
  0
TEXT
  5
B1A
  8
0
 62
     3
 10
0.0
 20
0.0
 30
0.0
 40
10.0
  1
EALA44AX20
  7
STANDARD1
  0
ARC
  5
C9B
  8
0
 10
100.2666082065459
 20
137.61931307043949
 30
0.0
 40
0.3100000000000157
 50
89.465006080394161
 51
210.5349939196102
  0
ARC
  5
C9C
  8
0
 10
98.887062249134146
 20
136.8055630704394
 30
0.0
 40
1.2916666666666621
 50
329.46500608039622
 51
30.534993919604201
  0
ARC
  5
C9D
  8
0
 10
100.2666082065459
 20
135.99181307043941
 30
0.0
 40
0.3100000000000157
 50
149.46500608039071
 51
270.53499391960582
  0
ARC
  5
C9E
  8
0
 10
100.2815634001696
 20
134.39021622563271
 30
0.0
 40
1.291666666666677
 50
29.465006080393959
 51
90.534993919602584
  0
ARC
  5
C9F
  8
0
 10
101.676064551205
 20
135.17806307043941
 30
0.0
 40
0.3100000000000026
 50
209.4650060803975
 51
330.53499391960139
  0
ARC
  5
CA0
  8
0
 10
103.0705657022405
 20
134.39021622563271
 30
0.0
 40
1.291666666666677
 50
89.465006080394161
 51
150.53499391960599
  0
ARC
  5
CA1
  8
0
 10
103.08552089586431
 20
135.99181307043941
 30
0.0
 40
0.3100000000000157
 50
269.46500608040071
 51
30.534993919609249
  0
ARC
  5
CA2
  8
0
 10
104.4650668532759
 20
136.8055630704394
 30
0.0
 40
1.291666666666647
 50
149.46500608039571
 51
210.53499391960409
  0
ARC
  5
CA3
  8
0
 10
103.08552089586431
 20
137.61931307043949
 30
0.0
 40
0.3100000000000402
 50
329.46500608039571
 51
90.53499391959933
  0
ARC
  5
CA4
  8
0
 10
103.0705657022405
 20
139.22090991524621
 30
0.0
 40
1.2916666666666581
 50
209.4650060803977
 51
270.53499391960582
  0
ARC
  5
CA5
  8
0
 10
101.676064551205
 20
138.43306307043949
 30
0.0
 40
0.3100000000000026
 50
29.465006080393959
 51
150.53499391960599
  0
ARC
  5
CA6
  8
0
 10
100.2815634001696
 20
139.2209099152461
 30
0.0
 40
1.291666666666663
 50
269.46500608039742
 51
330.5349939196073
  0
ENDSEC
  0
EOF
