  0
SECTION
  2
HEADER
  9
$ACADVER
  1
AC1009
  9
$INSBASE
 10
0.0
 20
0.0
 30
0.0
  9
$EXTMIN
 10
0.0
 20
-2.960436562073669
 30
0.0
  9
$EXTMAX
 10
337.30991504722471
 20
255.83881789292829
 30
0.0
  9
$LIMMIN
 10
0.0
 20
0.0
  9
$LIMMAX
 10
385.0
 20
270.0
  9
$ORTHOMODE
 70
     1
  9
$REGENMODE
 70
     1
  9
$FILLMODE
 70
     1
  9
$QTEXTMODE
 70
     0
  9
$MIRRTEXT
 70
     0
  9
$DRAGMODE
 70
     2
  9
$LTSCALE
 40
10.0
  9
$OSMODE
 70
  3071
  9
$ATTMODE
 70
     1
  9
$TEXTSIZE
 40
0.2
  9
$TRACEWID
 40
0.05
  9
$TEXTSTYLE
  7
STANDARD
  9
$CLAYER
  8
0
  9
$CELTYPE
  6
BYLAYER
  9
$CECOLOR
 62
   256
  9
$DIMSCALE
 40
1.0
  9
$DIMASZ
 40
3.0
  9
$DIMEXO
 40
0.0625
  9
$DIMDLI
 40
0.38
  9
$DIMRND
 40
0.0
  9
$DIMDLE
 40
0.0
  9
$DIMEXE
 40
0.18
  9
$DIMTP
 40
0.0
  9
$DIMTM
 40
0.0
  9
$DIMTXT
 40
3.0
  9
$DIMCEN
 40
0.09
  9
$DIMTSZ
 40
0.0
  9
$DIMTOL
 70
     0
  9
$DIMLIM
 70
     0
  9
$DIMTIH
 70
     1
  9
$DIMTOH
 70
     1
  9
$DIMSE1
 70
     0
  9
$DIMSE2
 70
     0
  9
$DIMTAD
 70
     0
  9
$DIMZIN
 70
     0
  9
$DIMBLK
  1

  9
$DIMASO
 70
     1
  9
$DIMSHO
 70
     1
  9
$DIMPOST
  1

  9
$DIMAPOST
  1

  9
$DIMALT
 70
     0
  9
$DIMALTD
 70
     2
  9
$DIMALTF
 40
25.399999999999999
  9
$DIMLFAC
 40
1.0
  9
$DIMTOFL
 70
     0
  9
$DIMTVP
 40
0.0
  9
$DIMTIX
 70
     1
  9
$DIMSOXD
 70
     0
  9
$DIMSAH
 70
     0
  9
$DIMBLK1
  1

  9
$DIMBLK2
  1

  9
$DIMSTYLE
  2
STANDARD
  9
$DIMCLRD
 70
     0
  9
$DIMCLRE
 70
     0
  9
$DIMCLRT
 70
     0
  9
$DIMTFAC
 40
1.0
  9
$DIMGAP
 40
0.09
  9
$LUNITS
 70
     2
  9
$LUPREC
 70
     4
  9
$SKETCHINC
 40
0.1
  9
$FILLETRAD
 40
3.5
  9
$AUNITS
 70
     0
  9
$AUPREC
 70
     0
  9
$MENU
  1
E:\r13\win\SUPPORT\ACAD
  9
$ELEVATION
 40
0.0
  9
$PELEVATION
 40
0.0
  9
$THICKNESS
 40
0.0
  9
$LIMCHECK
 70
     0
  9
$BLIPMODE
 70
     0
  9
$CHAMFERA
 40
0.0
  9
$CHAMFERB
 40
0.0
  9
$SKPOLY
 70
     0
  9
$TDCREATE
 40
2450365.4211575231
  9
$TDUPDATE
 40
2456598.6256907992
  9
$TDINDWG
 40
0.017105544
  9
$TDUSRTIMER
 40
0.017105544
  9
$USRTIMER
 70
     1
  9
$ANGBASE
 50
0.0
  9
$ANGDIR
 70
     0
  9
$PDMODE
 70
     0
  9
$PDSIZE
 40
0.0
  9
$PLINEWID
 40
0.0
  9
$COORDS
 70
     1
  9
$SPLFRAME
 70
     0
  9
$SPLINETYPE
 70
     6
  9
$SPLINESEGS
 70
     8
  9
$ATTDIA
 70
     0
  9
$ATTREQ
 70
     1
  9
$HANDLING
 70
     1
  9
$HANDSEED
  5
947
  9
$SURFTAB1
 70
     6
  9
$SURFTAB2
 70
     6
  9
$SURFTYPE
 70
     6
  9
$SURFU
 70
     6
  9
$SURFV
 70
     6
  9
$UCSNAME
  2

  9
$UCSORG
 10
0.0
 20
0.0
 30
0.0
  9
$UCSXDIR
 10
1.0
 20
0.0
 30
0.0
  9
$UCSYDIR
 10
0.0
 20
1.0
 30
0.0
  9
$PUCSNAME
  2

  9
$PUCSORG
 10
0.0
 20
0.0
 30
0.0
  9
$PUCSXDIR
 10
1.0
 20
0.0
 30
0.0
  9
$PUCSYDIR
 10
0.0
 20
1.0
 30
0.0
  9
$USERI1
 70
     3
  9
$USERI2
 70
     1
  9
$USERI3
 70
     1
  9
$USERI4
 70
     0
  9
$USERI5
 70
     0
  9
$USERR1
 40
1.0
  9
$USERR2
 40
3.0
  9
$USERR3
 40
3.0
  9
$USERR4
 40
3.0
  9
$USERR5
 40
10.0
  9
$WORLDVIEW
 70
     1
  9
$SHADEDGE
 70
     3
  9
$SHADEDIF
 70
    70
  9
$TILEMODE
 70
     1
  9
$MAXACTVP
 70
    16
  9
$PLIMCHECK
 70
     0
  9
$PEXTMIN
 10
1.0000000000000000E+020
 20
1.0000000000000000E+020
 30
1.0000000000000000E+020
  9
$PEXTMAX
 10
-1.0000000000000000E+020
 20
-1.0000000000000000E+020
 30
-1.0000000000000000E+020
  9
$PLIMMIN
 10
0.0
 20
0.0
  9
$PLIMMAX
 10
12.0
 20
9.0
  9
$UNITMODE
 70
     0
  9
$VISRETAIN
 70
     0
  9
$PLINEGEN
 70
     0
  9
$PSLTSCALE
 70
     0
  0
ENDSEC
  0
SECTION
  2
TABLES
  0
TABLE
  2
VPORT
 70
     1
  0
VPORT
  2
*ACTIVE
 70
     0
 10
0.0
 20
0.0
 11
1.0
 21
1.0
 12
200.05795575583809
 22
133.5127261426681
 13
0.0
 23
0.0
 14
5.0
 24
5.0
 15
0.0
 25
0.0
 16
0.0
 26
0.0
 36
1.0
 17
0.0
 27
0.0
 37
0.0
 40
275.42274993631997
 41
1.831871345029239
 42
50.0
 43
0.0
 44
0.0
 50
0.0
 51
0.0
 71
     0
 72
   100
 73
     1
 74
     0
 75
     0
 76
     0
 77
     0
 78
     0
  0
ENDTAB
  0
TABLE
  2
LTYPE
 70
     4
  0
LTYPE
  2
CONTINUOUS
 70
     0
  3
Solid Line
 72
    65
 73
     0
 40
0.0
  0
LTYPE
  2
CENTER
 70
     0
  3
____ _ ____ _ ____ _ ____ _ ____ _ ____ _ ____
 72
    65
 73
     4
 40
2.0
 49
1.25
 49
-0.25
 49
0.25
 49
-0.25
  0
LTYPE
  2
HIDDEN
 70
     0
  3
_ _ _ _ _ _ _ _ _ _ _ _ _ _ _ _ _ _ _ _ _ _ _
 72
    65
 73
     2
 40
0.375
 49
0.25
 49
-0.125
  0
LTYPE
  2
PHANTOM2
 70
     0
  3
___ _ _ ___ _ _ ___ _ _ ___ _ _
 72
    65
 73
     6
 40
1.25
 49
0.625
 49
-0.125
 49
0.125
 49
-0.125
 49
0.125
 49
-0.125
  0
ENDTAB
  0
TABLE
  2
LAYER
 70
     5
  0
LAYER
  2
0
 70
     0
 62
     7
  6
CONTINUOUS
  0
LAYER
  2
1
 70
     0
 62
     1
  6
CENTER
  0
LAYER
  2
2
 70
     0
 62
     2
  6
HIDDEN
  0
LAYER
  2
3
 70
     0
 62
     3
  6
CONTINUOUS
  0
LAYER
  2
DEFPOINTS
 70
     0
 62
     7
  6
CONTINUOUS
  0
ENDTAB
  0
TABLE
  2
STYLE
 70
     2
  0
STYLE
  2
STANDARD
 70
     0
 40
0.0
 41
1.0
 50
0.0
 71
     0
 42
0.2
  3
SIMPLEX
  4
BIGFONT
  0
STYLE
  2
STANDARD1
 70
     0
 40
0.0
 41
1.0
 50
0.0
 71
     0
 42
3.0
  3
txt
  4

  0
ENDTAB
  0
TABLE
  2
VIEW
 70
     0
  0
ENDTAB
  0
TABLE
  2
UCS
 70
     0
  0
ENDTAB
  0
TABLE
  2
APPID
 70
     4
  0
APPID
  2
ACAD
 70
     0
  0
APPID
  2
ACAD_MLEADERVER
 70
     0
  0
APPID
  2
ACAD_EXEMPT_FROM_CAD_STANDARDS
 70
     0
  0
APPID
  2
ACAD_NAV_VCDISPLAY
 70
     0
  0
ENDTAB
  0
TABLE
  2
DIMSTYLE
 70
     1
  0
DIMSTYLE
  2
STANDARD
 70
     0
  3

  4

  5

  6

  7

 40
1.0
 41
0.18
 42
0.0625
 43
0.38
 44
0.18
 45
0.0
 46
0.0
 47
0.0
 48
0.0
140
0.18
141
0.09
142
0.0
143
25.399999999999999
144
1.0
145
0.0
146
1.0
147
0.09
 71
     0
 72
     0
 73
     1
 74
     1
 75
     0
 76
     0
 77
     0
 78
     0
170
     0
171
     2
172
     0
173
     0
174
     0
175
     0
176
     0
177
     0
178
     0
  0
ENDTAB
  0
ENDSEC
  0
SECTION
  2
BLOCKS
  0
BLOCK
  8
0
  2
$MODEL_SPACE
 70
     0
 10
0.0
 20
0.0
 30
0.0
  3
$MODEL_SPACE
  1

  0
ENDBLK
  5
29B
  8
0
  0
BLOCK
 67
     1
  8
0
  2
$PAPER_SPACE
 70
     0
 10
0.0
 20
0.0
 30
0.0
  3
$PAPER_SPACE
  1

  0
ENDBLK
  5
299
 67
     1
  8
0
  0
ENDSEC
  0
SECTION
  2
ENTITIES
  0
LINE
  5
71A
  8
0
 10
50.432382641426599
 20
99.417711691154864
 30
0.0
 11
62.432382641426649
 21
99.417711691154864
 31
0.0
  0
LINE
  5
71B
  8
0
 10
60.432382641426599
 20
71.417711691154864
 30
0.0
 11
52.432382641426599
 21
71.417711691154864
 31
0.0
  0
LINE
  5
71C
  8
0
 10
62.432382641426599
 20
73.417711691154864
 30
0.0
 11
50.432382641426599
 21
73.417711691154977
 31
0.0
  0
LINE
  5
71D
  8
0
 10
62.432382641426599
 20
101.41771169115481
 30
0.0
 11
62.432382641426599
 21
73.41771169115475
 31
0.0
  0
LINE
  5
71E
  8
3
 10
61.485382641426654
 20
99.417711691154864
 30
0.0
 11
61.485382641426654
 21
72.470711691154861
 31
0.0
  0
LINE
  5
71F
  8
0
 10
60.432382641426599
 20
71.417711691154864
 30
0.0
 11
62.432382641426599
 21
73.417711691154864
 31
0.0
  0
LINE
  5
720
  8
3
 10
61.485382641426654
 20
99.417711691154864
 30
0.0
 11
62.432382641426649
 21
101.0579638059225
 31
0.0
  0
LINE
  5
721
  8
0
 10
50.432382641426599
 20
101.41771169115481
 30
0.0
 11
50.432382641426599
 21
73.417711691154977
 31
0.0
  0
LINE
  5
722
  8
3
 10
51.379382641426602
 20
99.417711691154864
 30
0.0
 11
51.379382641426602
 21
72.470711691154975
 31
0.0
  0
LINE
  5
723
  8
0
 10
52.432382641426599
 20
71.417711691154864
 30
0.0
 11
50.432382641426599
 21
73.417711691154977
 31
0.0
  0
LINE
  5
724
  8
3
 10
51.379382641426602
 20
99.417711691154864
 30
0.0
 11
50.432382641426599
 21
101.0579638059225
 31
0.0
  0
LINE
  5
725
  8
0
 10
144.7077914022
 20
99.417711691154864
 30
0.0
 11
156.70779140220009
 21
99.417711691154864
 31
0.0
  0
LINE
  5
726
  8
0
 10
154.7077914022
 20
71.417711691154864
 30
0.0
 11
146.7077914022
 21
71.417711691154864
 31
0.0
  0
LINE
  5
727
  8
0
 10
156.7077914022
 20
73.417711691154864
 30
0.0
 11
144.7077914022
 21
73.417711691154977
 31
0.0
  0
LINE
  5
728
  8
0
 10
156.7077914022
 20
101.41771169115481
 30
0.0
 11
156.7077914022
 21
73.41771169115475
 31
0.0
  0
LINE
  5
729
  8
3
 10
155.76079140220011
 20
99.417711691154864
 30
0.0
 11
155.76079140220011
 21
72.470711691154861
 31
0.0
  0
LINE
  5
72A
  8
0
 10
154.7077914022
 20
71.417711691154864
 30
0.0
 11
156.7077914022
 21
73.417711691154864
 31
0.0
  0
LINE
  5
72B
  8
3
 10
155.76079140220011
 20
99.417711691154864
 30
0.0
 11
156.70779140220009
 21
101.0579638059225
 31
0.0
  0
LINE
  5
72C
  8
0
 10
144.7077914022
 20
101.41771169115481
 30
0.0
 11
144.7077914022
 21
73.417711691154977
 31
0.0
  0
LINE
  5
72D
  8
3
 10
145.6547914022
 20
99.417711691154864
 30
0.0
 11
145.6547914022
 21
72.470711691154975
 31
0.0
  0
LINE
  5
72E
  8
0
 10
146.7077914022
 20
71.417711691154864
 30
0.0
 11
144.7077914022
 21
73.417711691154977
 31
0.0
  0
LINE
  5
72F
  8
3
 10
145.6547914022
 20
99.417711691154864
 30
0.0
 11
144.7077914022
 21
101.0579638059225
 31
0.0
  0
LINE
  5
730
  8
0
 10
318.05991504722471
 20
99.417711691154864
 30
0.0
 11
330.05991504722482
 21
99.417711691154864
 31
0.0
  0
LINE
  5
731
  8
0
 10
328.05991504722471
 20
71.417711691154864
 30
0.0
 11
320.05991504722471
 21
71.417711691154864
 31
0.0
  0
LINE
  5
732
  8
0
 10
330.05991504722471
 20
73.417711691154864
 30
0.0
 11
318.05991504722471
 21
73.417711691154977
 31
0.0
  0
LINE
  5
733
  8
0
 10
330.05991504722471
 20
101.41771169115481
 30
0.0
 11
330.05991504722471
 21
73.41771169115475
 31
0.0
  0
LINE
  5
734
  8
3
 10
329.11291504722482
 20
99.417711691154864
 30
0.0
 11
329.11291504722482
 21
72.470711691154861
 31
0.0
  0
LINE
  5
735
  8
0
 10
328.05991504722471
 20
71.417711691154864
 30
0.0
 11
330.05991504722471
 21
73.417711691154864
 31
0.0
  0
LINE
  5
736
  8
3
 10
329.11291504722482
 20
99.417711691154864
 30
0.0
 11
330.05991504722482
 21
101.0579638059225
 31
0.0
  0
LINE
  5
737
  8
0
 10
318.05991504722471
 20
101.41771169115481
 30
0.0
 11
318.05991504722471
 21
73.417711691154977
 31
0.0
  0
LINE
  5
738
  8
3
 10
319.00691504722471
 20
99.417711691154864
 30
0.0
 11
319.00691504722471
 21
72.470711691154975
 31
0.0
  0
LINE
  5
739
  8
0
 10
320.05991504722471
 20
71.417711691154864
 30
0.0
 11
318.05991504722471
 21
73.417711691154977
 31
0.0
  0
LINE
  5
73A
  8
3
 10
319.00691504722471
 20
99.417711691154864
 30
0.0
 11
318.05991504722471
 21
101.0579638059225
 31
0.0
  0
LINE
  5
73B
  8
0
 10
47.432382641426599
 20
154.2760081653656
 30
0.0
 11
48.739300241611609
 21
154.2760081653656
 31
0.0
  0
LINE
  5
73C
  8
0
 10
65.432382641426614
 20
154.2760081653656
 30
0.0
 11
64.125465041241583
 21
154.2760081653656
 31
0.0
  0
ARC
  5
73D
  8
0
 10
324.05991504722471
 20
163.50771169115501
 30
0.0
 40
9.0900000000001455
 50
188.43237409560859
 51
351.56762590438387
  0
ARC
  5
73E
  8
0
 10
329.05991504722459
 20
161.91771169115481
 30
0.0
 40
4.0
 50
0.0
 51
90.0
  0
LINE
  5
73F
  8
0
 10
329.05991504722459
 20
165.91771169115481
 30
0.0
 11
319.05991504722448
 21
165.91771169115481
 31
0.0
  0
ARC
  5
740
  8
0
 10
319.05991504722448
 20
161.91771169115481
 30
0.0
 40
4.0
 50
90.0
 51
180.0
  0
LINE
  5
741
  8
0
 10
315.05991504722459
 20
122.58724693886791
 30
0.0
 11
315.05991504722459
 21
161.91771169115481
 31
0.0
  0
LINE
  5
742
  8
0
 10
333.05991504722471
 20
122.58724693886791
 30
0.0
 11
333.05991504722459
 21
161.91771169115481
 31
0.0
  0
LINE
  5
743
  8
1
 10
324.05991504722471
 20
66.417711691154892
 30
0.0
 11
324.05991504722482
 21
170.91771169115481
 31
0.0
  0
ARC
  5
744
  8
0
 10
61.432382641426713
 20
161.91771169115481
 30
0.0
 40
4.0
 50
0.0
 51
90.0
  0
ARC
  5
745
  8
0
 10
51.432382641426713
 20
161.91771169115481
 30
0.0
 40
4.0
 50
90.0
 51
180.0
  0
LINE
  5
746
  8
0
 10
65.432382641426599
 20
148.7577116911547
 30
0.0
 11
65.432382641426713
 21
161.91771169115481
 31
0.0
  0
LINE
  5
747
  8
0
 10
47.432382641426599
 20
148.75771169115481
 30
0.0
 11
47.432382641426599
 21
161.91771169115481
 31
0.0
  0
LINE
  5
748
  8
0
 10
61.432382641426713
 20
165.91771169115481
 30
0.0
 11
51.432382641426713
 21
165.91771169115481
 31
0.0
  0
LINE
  5
749
  8
0
 10
64.15782085679966
 20
148.7577116911547
 30
0.0
 11
64.15782085679966
 21
153.91771169115481
 31
0.0
  0
ARC
  5
74A
  8
0
 10
62.15782085679966
 20
153.91771169115481
 30
0.0
 40
2.0
 50
0.0
 51
90.0
  0
LINE
  5
74B
  8
0
 10
50.706944426053539
 20
155.91771169115481
 30
0.0
 11
62.15782085679966
 21
155.91771169115481
 31
0.0
  0
LINE
  5
74C
  8
0
 10
48.706944426053539
 20
148.75771169115481
 30
0.0
 11
48.706944426053539
 21
153.91771169115481
 31
0.0
  0
ARC
  5
74D
  8
0
 10
50.706944426053539
 20
153.91771169115481
 30
0.0
 40
2.0
 50
90.0
 51
180.0
  0
LINE
  5
74E
  8
1
 10
56.432382641426592
 20
66.417711691154864
 30
0.0
 11
56.432382641426592
 21
170.91771169115481
 31
0.0
  0
LINE
  5
74F
  8
0
 10
158.2077914022
 20
101.41771169115481
 30
0.0
 11
158.2077914022
 21
101.6177116911548
 31
0.0
  0
LINE
  5
750
  8
0
 10
161.4577914022
 20
102.6177116911547
 30
0.0
 11
161.4577914022
 21
114.41771169115481
 31
0.0
  0
LINE
  5
751
  8
0
 10
161.4577914022
 20
102.6177116911547
 30
0.0
 11
160.4577914022
 21
101.6177116911547
 31
0.0
  0
LINE
  5
752
  8
0
 10
139.9577914022
 20
102.6177116911547
 30
0.0
 11
140.9577914022
 21
101.6177116911547
 31
0.0
  0
LINE
  5
753
  8
0
 10
139.9577914022
 20
102.6177116911547
 30
0.0
 11
139.9577914022
 21
114.41771169115481
 31
0.0
  0
LINE
  5
754
  8
0
 10
160.4577914021998
 20
101.6177116911545
 30
0.0
 11
140.9577914022
 21
101.6177116911547
 31
0.0
  0
LINE
  5
755
  8
0
 10
139.9577914022
 20
113.0365344065804
 30
0.0
 11
161.4577914022
 21
113.0365344065805
 31
0.0
  0
LINE
  5
756
  8
0
 10
158.2077914022
 20
101.41771169115481
 30
0.0
 11
143.2077914022
 21
101.41771169115481
 31
0.0
  0
LINE
  5
757
  8
0
 10
143.2077914022
 20
101.41771169115481
 30
0.0
 11
143.2077914022
 21
101.6177116911548
 31
0.0
  0
CIRCLE
  5
76A
  8
0
 10
150.7077914022
 20
237.58881789292829
 30
0.0
 40
7.7254382153730026
  0
LINE
  5
76B
  8
0
 10
158.43322961757309
 20
151.27100295537139
 30
0.0
 11
158.43322961757309
 21
153.91771169115481
 31
0.0
  0
ARC
  5
76C
  8
0
 10
156.43322961757309
 20
153.91771169115481
 30
0.0
 40
2.0
 50
0.0
 51
90.0
  0
ARC
  5
76D
  8
0
 10
144.98235318682691
 20
153.91771169115481
 30
0.0
 40
2.0
 50
90.0
 51
180.0
  0
LINE
  5
76E
  8
0
 10
142.98235318682691
 20
148.75771169115481
 30
0.0
 11
142.98235318682691
 21
153.91771169115481
 31
0.0
  0
LINE
  5
76F
  8
0
 10
144.98235318682691
 20
155.91771169115481
 30
0.0
 11
156.43322961757309
 21
155.91771169115481
 31
0.0
  0
ARC
  5
770
  8
0
 10
139.98274771821269
 20
146.23271169115461
 30
0.0
 40
2.524999999999999
 50
90.0
 51
180.33703010985781
  0
LINE
  5
771
  8
2
 10
163.96322458286539
 20
147.14149972009719
 30
0.0
 11
163.81878780179949
 21
122.58724693886781
 31
0.0
  0
LINE
  5
772
  8
0
 10
137.4577914022
 20
146.21785900694289
 30
0.0
 11
137.64309676685389
 21
114.7159470158028
 31
0.0
  0
CIRCLE
  5
773
  8
0
 10
175.17258331565941
 20
237.58881789292829
 30
0.0
 40
1.3634999999999999
  0
ARC
  5
774
  8
3
 10
130.59947657359029
 20
237.56452711770589
 30
0.0
 40
31.675434209421791
 50
344.86157354107701
 51
15.23698501758189
  0
CIRCLE
  5
775
  8
0
 10
167.1565116151358
 20
237.58881789292829
 30
0.0
 40
1.3634999999999999
  0
CIRCLE
  5
776
  8
0
 10
171.1567737713759
 20
237.58881789292829
 30
0.0
 40
1.3634999999999999
  0
CIRCLE
  5
777
  8
0
 10
179.20356973494509
 20
237.58881789292829
 30
0.0
 40
1.3634999999999999
  0
CIRCLE
  5
778
  8
0
 10
183.2487899431668
 20
237.58881789292829
 30
0.0
 40
1.3634999999999999
  0
LINE
  5
779
  8
0
 10
137.94309157667709
 20
114.41771169115481
 30
0.0
 11
163.47249122772291
 21
114.41771169115481
 31
0.0
  0
ARC
  5
77A
  8
0
 10
137.94309157667709
 20
114.7177116911547
 30
0.0
 40
0.3
 50
180.33703010985781
 51
270.0
  0
ARC
  5
77B
  8
2
 10
244.25657883330501
 20
-107.0053056114979
 30
0.0
 40
269.0
 50
91.618727792854486
 51
106.7953215705932
  0
ARC
  5
77C
  8
0
 10
239.33391372490161
 20
-104.68757477411449
 30
0.0
 40
270.69999999999999
 50
91.515696292597156
 51
106.6776825174958
  0
ARC
  5
77D
  8
0
 10
254.07063160895001
 20
0.5391026983065217
 30
0.0
 40
159.58000000000001
 50
98.453944111209353
 51
120.6398656758814
  0
LINE
  5
77E
  8
1
 10
150.7077914022
 20
66.417711691154864
 30
0.0
 11
150.7077914022
 21
160.91771169115481
 31
0.0
  0
ARC
  5
77F
  8
0
 10
181.49348201388739
 20
122.483278149385
 30
0.0
 40
17.675000000000001
 50
119.6776086027441
 51
179.66296989014211
  0
ARC
  5
780
  8
0
 10
150.7077914022
 20
161.88771169115461
 30
0.0
 40
13.130000000000001
 50
270.0
 51
326.4187220424941
  0
LINE
  5
781
  8
0
 10
150.7077914022
 20
148.7577116911547
 30
0.0
 11
139.98274771821269
 21
148.7577116911547
 31
0.0
  0
ARC
  5
782
  8
2
 10
167.498163425283
 20
147.12070596220059
 30
0.0
 40
3.5350000000000001
 50
105.928052308338
 51
179.66296989014211
  0
LINE
  5
783
  8
0
 10
184.6297781611419
 20
160.2397824893325
 30
0.0
 11
184.59801961772209
 21
160.38791636432339
 31
0.0
  0
LINE
  5
784
  8
0
 10
184.6297781611419
 20
160.2397824893325
 30
0.0
 11
184.59801961772209
 21
160.38791636432339
 31
0.0
  0
LINE
  5
785
  8
0
 10
184.6297781611419
 20
160.2397824893325
 30
0.0
 11
184.59801961772209
 21
160.38791636432339
 31
0.0
  0
LINE
  5
786
  8
0
 10
184.6297781611419
 20
160.2397824893325
 30
0.0
 11
184.59801961772209
 21
160.38791636432339
 31
0.0
  0
ARC
  5
787
  8
0
 10
230.29823786729401
 20
149.48574995350211
 30
0.0
 40
9.0899999999999999
 50
42.117285527322423
 51
75.168991647594879
  0
LINE
  5
788
  8
2
 10
239.01118716272489
 20
154.4783488748034
 30
0.0
 11
238.91957826387161
 21
159.7266191751502
 31
0.0
  0
ARC
  5
789
  8
0
 10
236.61868069450571
 20
162.59914690145379
 30
0.0
 40
9.0899999999999999
 50
303.23371287585252
 51
359.19854065576578
  0
ARC
  5
78A
  8
0
 10
239.6631288935219
 20
157.9527116911548
 30
0.0
 40
3.5350000000000001
 50
222.11728552732151
 51
303.2337128758536
  0
LINE
  5
78B
  8
0
 10
232.17368069450561
 20
165.91771169115481
 30
0.0
 11
242.43938729961519
 21
165.91771169115481
 31
0.0
  0
ARC
  5
78C
  8
2
 10
236.7199133345276
 20
159.6882238809882
 30
0.0
 40
2.2000000000000002
 50
0.9999999999993322
 51
91.618727792854486
  0
ARC
  5
78D
  8
0
 10
242.17368069450549
 20
162.39271169115469
 30
0.0
 40
3.5350000000000001
 50
1.2852105841743671
 51
85.689324273744546
  0
LINE
  5
78E
  8
0
 10
319.30991504722459
 20
122.58724693886801
 30
0.0
 11
319.30991504722459
 21
155.75751169373541
 31
0.0
  0
LINE
  5
78F
  8
0
 10
328.80991504722459
 20
122.58724693886801
 30
0.0
 11
328.80991504722471
 21
155.75751169373541
 31
0.0
  0
LINE
  5
790
  8
3
 10
160.77126754119331
 20
101.931187830148
 30
0.0
 11
160.77126754119331
 21
113.0365344065804
 31
0.0
  0
LINE
  5
791
  8
3
 10
159.4821514162513
 20
101.6177116911547
 30
0.0
 11
159.48215141625141
 21
113.0365344065804
 31
0.0
  0
LINE
  5
792
  8
3
 10
157.8173729969331
 20
101.6177116911547
 30
0.0
 11
157.8173729969331
 21
113.0365344065804
 31
0.0
  0
LINE
  5
793
  8
3
 10
156.04588218768839
 20
101.6177116911547
 30
0.0
 11
156.04588218768839
 21
113.0365344065804
 31
0.0
  0
LINE
  5
794
  8
3
 10
154.26310799749319
 20
101.6177116911546
 30
0.0
 11
154.26310799749319
 21
113.0365344065804
 31
0.0
  0
LINE
  5
795
  8
3
 10
152.44648366444591
 20
101.6177116911546
 30
0.0
 11
152.44648366444591
 21
113.0365344065804
 31
0.0
  0
LINE
  5
796
  8
3
 10
150.7077914022
 20
101.6177116911546
 30
0.0
 11
150.7077914022
 21
113.0365344065804
 31
0.0
  0
LINE
  5
797
  8
3
 10
148.96909913995401
 20
101.6177116911546
 30
0.0
 11
148.96909913995401
 21
113.0365344065804
 31
0.0
  0
LINE
  5
798
  8
3
 10
147.15247480690681
 20
101.6177116911546
 30
0.0
 11
147.15247480690681
 21
113.0365344065804
 31
0.0
  0
LINE
  5
799
  8
3
 10
145.36970061671161
 20
101.6177116911547
 30
0.0
 11
145.36970061671161
 21
113.0365344065804
 31
0.0
  0
LINE
  5
79A
  8
3
 10
143.5982098074669
 20
101.6177116911547
 30
0.0
 11
143.5982098074669
 21
113.0365344065804
 31
0.0
  0
LINE
  5
79B
  8
3
 10
141.9334313881487
 20
101.6177116911547
 30
0.0
 11
141.93343138814859
 21
113.0365344065804
 31
0.0
  0
LINE
  5
79C
  8
3
 10
140.64431526320669
 20
101.931187830148
 30
0.0
 11
140.64431526320669
 21
113.0365344065804
 31
0.0
  0
LINE
  5
79D
  8
0
 10
163.81878780179949
 20
122.58724693886791
 30
0.0
 11
163.77248603754609
 21
114.7159470158028
 31
0.0
  0
ARC
  5
79E
  8
0
 10
163.47249122772291
 20
114.7177116911547
 30
0.0
 40
0.3
 50
270.0
 51
359.66296989014222
  0
ARC
  5
79F
  8
0
 10
231.34515092692649
 20
153.43949160484581
 30
0.0
 40
5.0
 50
75.168991647594879
 51
98.453944111209353
  0
LINE
  5
7A0
  8
0
 10
311.29521522170188
 20
114.41771169115481
 30
0.0
 11
336.8246148727477
 21
114.41771169115481
 31
0.0
  0
LINE
  5
7A1
  8
0
 10
331.55991504722471
 20
101.41771169115481
 30
0.0
 11
316.55991504722471
 21
101.41771169115481
 31
0.0
  0
LINE
  5
7A2
  8
0
 10
333.80991504722448
 20
101.6177116911545
 30
0.0
 11
314.30991504722471
 21
101.6177116911547
 31
0.0
  0
LINE
  5
7A3
  8
0
 10
313.30991504722471
 20
113.0365344065804
 30
0.0
 11
334.80991504722471
 21
113.0365344065805
 31
0.0
  0
LINE
  5
7A5
  8
0
 10
313.30991504722471
 20
102.6177116911547
 30
0.0
 11
313.30991504722471
 21
113.41771169115459
 31
0.0
  0
LINE
  5
7A6
  8
0
 10
313.30991504722471
 20
102.6177116911547
 30
0.0
 11
314.30991504722471
 21
101.6177116911547
 31
0.0
  0
LINE
  5
7A7
  8
0
 10
316.55991504722471
 20
101.41771169115481
 30
0.0
 11
316.55991504722471
 21
101.6177116911548
 31
0.0
  0
LINE
  5
7A9
  8
0
 10
313.30991504722482
 20
113.41771169115459
 30
0.0
 11
313.30991504722482
 21
114.41771169115481
 31
0.0
  0
ARC
  5
7AA
  8
0
 10
311.29521522170188
 20
114.7177116911547
 30
0.0
 40
0.3
 50
180.33703010985781
 51
270.0
  0
LINE
  5
7AB
  8
0
 10
334.80991504722471
 20
102.6177116911547
 30
0.0
 11
334.80991504722471
 21
113.41771169115459
 31
0.0
  0
LINE
  5
7AD
  8
0
 10
334.80991504722471
 20
102.6177116911547
 30
0.0
 11
333.80991504722471
 21
101.6177116911547
 31
0.0
  0
LINE
  5
7AE
  8
0
 10
331.55991504722471
 20
101.41771169115481
 30
0.0
 11
331.55991504722471
 21
101.6177116911548
 31
0.0
  0
LINE
  5
7AF
  8
0
 10
334.80991504722459
 20
113.41771169115459
 30
0.0
 11
334.80991504722459
 21
114.41771169115481
 31
0.0
  0
ARC
  5
7B0
  8
0
 10
336.8246148727477
 20
114.7177116911547
 30
0.0
 40
0.3
 50
270.0
 51
359.66296989014222
  0
LINE
  5
7C0
  8
0
 10
310.80991504722471
 20
146.21785900694289
 30
0.0
 11
310.99522041187862
 21
114.7159470158028
 31
0.0
  0
LINE
  5
7C1
  8
0
 10
315.05991504722459
 20
148.7577116911547
 30
0.0
 11
313.33487136323748
 21
148.7577116911547
 31
0.0
  0
ARC
  5
7C2
  8
0
 10
313.33487136323748
 20
146.23271169115461
 30
0.0
 40
2.524999999999999
 50
90.0
 51
180.33703010985781
  0
LINE
  5
7C3
  8
0
 10
333.05991504722459
 20
148.7577116911547
 30
0.0
 11
334.78495873121187
 21
148.7577116911547
 31
0.0
  0
ARC
  5
7C4
  8
0
 10
334.78495873121187
 20
146.23271169115461
 30
0.0
 40
2.524999999999999
 50
359.66296989014222
 51
90.0
  0
LINE
  5
7C5
  8
0
 10
337.30991504722471
 20
146.21785900694289
 30
0.0
 11
337.12460968257079
 21
114.7159470158028
 31
0.0
  0
LINE
  5
7CC
  8
0
 10
63.932382641426592
 20
101.41771169115481
 30
0.0
 11
48.932382641426592
 21
101.41771169115481
 31
0.0
  0
LINE
  5
7CD
  8
0
 10
66.182382641426372
 20
101.6177116911545
 30
0.0
 11
46.682382641426599
 21
101.6177116911547
 31
0.0
  0
LINE
  5
7CE
  8
0
 10
45.682382641426592
 20
113.0365344065804
 30
0.0
 11
67.182382641426599
 21
113.0365344065805
 31
0.0
  0
LINE
  5
7D0
  8
0
 10
45.682382641426592
 20
102.6177116911547
 30
0.0
 11
45.682382641426592
 21
114.41771169115481
 31
0.0
  0
LINE
  5
7D1
  8
0
 10
45.682382641426592
 20
102.6177116911547
 30
0.0
 11
46.682382641426599
 21
101.6177116911547
 31
0.0
  0
LINE
  5
7D2
  8
0
 10
48.932382641426592
 20
101.41771169115481
 30
0.0
 11
48.932382641426592
 21
101.6177116911548
 31
0.0
  0
ARC
  5
7D4
  8
0
 10
43.667682815903738
 20
114.7177116911547
 30
0.0
 40
0.3
 50
180.33703010985781
 51
270.0
  0
LINE
  5
7D5
  8
0
 10
67.182382641426599
 20
102.6177116911547
 30
0.0
 11
67.182382641426599
 21
114.41771169115481
 31
0.0
  0
LINE
  5
7D7
  8
0
 10
67.182382641426599
 20
102.6177116911547
 30
0.0
 11
66.182382641426599
 21
101.6177116911547
 31
0.0
  0
LINE
  5
7D8
  8
0
 10
63.932382641426592
 20
101.41771169115481
 30
0.0
 11
63.932382641426592
 21
101.6177116911548
 31
0.0
  0
LINE
  5
7E2
  8
0
 10
43.182382641426571
 20
146.21785900694289
 30
0.0
 11
43.367688006080478
 21
114.7159470158028
 31
0.0
  0
LINE
  5
7E3
  8
0
 10
43.667682815903738
 20
114.41771169115481
 30
0.0
 11
69.19708246694951
 21
114.41771169115481
 31
0.0
  0
ARC
  5
7E4
  8
0
 10
45.70733895743934
 20
146.23271169115461
 30
0.0
 40
2.524999999999999
 50
90.0
 51
180.33703010985781
  0
LINE
  5
7E5
  8
0
 10
67.157426325413851
 20
148.75771169115481
 30
0.0
 11
45.70733895743934
 21
148.7577116911547
 31
0.0
  0
LINE
  5
7E6
  8
0
 10
69.682382641426614
 20
146.21785900694289
 30
0.0
 11
69.497077276772714
 21
114.7159470158028
 31
0.0
  0
ARC
  5
7E7
  8
0
 10
67.157426325413851
 20
146.23271169115461
 30
0.0
 40
2.524999999999999
 50
359.66296989014222
 51
90.0
  0
ARC
  5
7E8
  8
0
 10
150.7077914022
 20
237.58881789292829
 30
0.0
 40
13.25
 50
60.713019183660251
 51
299.28698081633968
  0
ARC
  5
7E9
  8
0
 10
236.7077914022
 20
237.58881789292829
 30
0.0
 40
9.0
 50
270.0
 51
90.0
  0
LINE
  5
7EA
  8
0
 10
236.7077914022
 20
246.58881789292829
 30
0.0
 11
166.973168741813
 21
246.58881789292829
 31
0.0
  0
ARC
  5
7EB
  8
0
 10
166.973168741813
 20
266.58881789292832
 30
0.0
 40
20.0
 50
240.71301918366029
 51
270.0
  0
ARC
  5
7EC
  8
0
 10
166.973168741813
 20
208.5888178929282
 30
0.0
 40
20.0
 50
90.0
 51
119.28698081633971
  0
LINE
  5
7ED
  8
0
 10
236.7077914022
 20
228.58881789292829
 30
0.0
 11
166.973168741813
 21
228.5888178929282
 31
0.0
  0
LINE
  5
7EE
  8
3
 10
236.7077914022
 20
245.0888178929282
 30
0.0
 11
166.973168741813
 21
245.0888178929282
 31
0.0
  0
ARC
  5
7EF
  8
3
 10
236.7077914022
 20
237.58881789292829
 30
0.0
 40
7.5
 50
270.0
 51
90.0
  0
LINE
  5
7F0
  8
3
 10
236.7077914022
 20
230.0888178929282
 30
0.0
 11
166.973168741813
 21
230.0888178929282
 31
0.0
  0
ARC
  5
7F1
  8
3
 10
150.7077914022
 20
237.58881789292829
 30
0.0
 40
11.75
 50
60.713019183660251
 51
299.28698081633968
  0
ARC
  5
7F2
  8
3
 10
166.973168741813
 20
266.58881789292832
 30
0.0
 40
21.5
 50
240.71301918366029
 51
270.0
  0
ARC
  5
7F3
  8
3
 10
166.973168741813
 20
208.5888178929282
 30
0.0
 40
21.5
 50
90.0
 51
119.28698081633971
  0
LINE
  5
7F4
  8
1
 10
150.7077914022
 20
255.83881789292829
 30
0.0
 11
150.7077914022
 21
219.33881789292829
 31
0.0
  0
LINE
  5
7F5
  8
1
 10
250.7077914022
 20
237.58881789292829
 30
0.0
 11
132.4577914022
 21
237.58881789292829
 31
0.0
  0
ARC
  5
7F6
  8
0
 10
69.197082466949453
 20
114.7177116911547
 30
0.0
 40
0.3
 50
270.0
 51
359.66296989014222
  0
LINE
  5
7F7
  8
3
 10
66.49585878041988
 20
101.931187830148
 30
0.0
 11
66.49585878041988
 21
113.0365344065804
 31
0.0
  0
LINE
  5
7F8
  8
3
 10
65.206742655477925
 20
101.6177116911547
 30
0.0
 11
65.206742655477981
 21
113.0365344065804
 31
0.0
  0
LINE
  5
7F9
  8
3
 10
63.541964236159671
 20
101.6177116911547
 30
0.0
 11
63.541964236159671
 21
113.0365344065804
 31
0.0
  0
LINE
  5
7FA
  8
3
 10
61.770473426914961
 20
101.6177116911547
 30
0.0
 11
61.770473426914961
 21
113.0365344065804
 31
0.0
  0
LINE
  5
7FB
  8
3
 10
59.98769923671982
 20
101.6177116911546
 30
0.0
 11
59.987699236719791
 21
113.0365344065804
 31
0.0
  0
LINE
  5
7FC
  8
3
 10
58.171074903672562
 20
101.6177116911546
 30
0.0
 11
58.171074903672562
 21
113.0365344065804
 31
0.0
  0
LINE
  5
7FD
  8
3
 10
56.432382641426592
 20
101.6177116911546
 30
0.0
 11
56.432382641426592
 21
113.0365344065804
 31
0.0
  0
LINE
  5
7FE
  8
3
 10
54.69369037918063
 20
101.6177116911546
 30
0.0
 11
54.69369037918063
 21
113.0365344065804
 31
0.0
  0
LINE
  5
7FF
  8
3
 10
52.877066046133379
 20
101.6177116911546
 30
0.0
 11
52.8770660461334
 21
113.0365344065804
 31
0.0
  0
LINE
  5
800
  8
3
 10
51.094291855938238
 20
101.6177116911547
 30
0.0
 11
51.094291855938238
 21
113.0365344065804
 31
0.0
  0
LINE
  5
801
  8
3
 10
49.32280104669352
 20
101.6177116911547
 30
0.0
 11
49.32280104669352
 21
113.0365344065804
 31
0.0
  0
LINE
  5
802
  8
3
 10
47.658022627375267
 20
101.6177116911547
 30
0.0
 11
47.658022627375217
 21
113.0365344065804
 31
0.0
  0
LINE
  5
803
  8
3
 10
46.368906502433319
 20
101.931187830148
 30
0.0
 11
46.368906502433319
 21
113.0365344065804
 31
0.0
  0
LINE
  5
804
  8
3
 10
334.12339118621787
 20
101.93118783014791
 30
0.0
 11
334.12339118621787
 21
113.0365344065803
 31
0.0
  0
LINE
  5
805
  8
3
 10
332.834275061276
 20
101.6177116911546
 30
0.0
 11
332.834275061276
 21
113.0365344065803
 31
0.0
  0
LINE
  5
806
  8
3
 10
331.16949664195772
 20
101.6177116911546
 30
0.0
 11
331.16949664195772
 21
113.0365344065803
 31
0.0
  0
LINE
  5
807
  8
3
 10
329.39800583271301
 20
101.6177116911546
 30
0.0
 11
329.39800583271301
 21
113.0365344065803
 31
0.0
  0
LINE
  5
808
  8
3
 10
327.61523164251793
 20
101.6177116911545
 30
0.0
 11
327.61523164251781
 21
113.0365344065803
 31
0.0
  0
LINE
  5
809
  8
3
 10
325.79860730947058
 20
101.6177116911545
 30
0.0
 11
325.79860730947058
 21
113.0365344065803
 31
0.0
  0
LINE
  5
80A
  8
3
 10
324.05991504722471
 20
101.6177116911545
 30
0.0
 11
324.05991504722471
 21
113.0365344065803
 31
0.0
  0
LINE
  5
80B
  8
3
 10
322.32122278497872
 20
101.6177116911545
 30
0.0
 11
322.32122278497872
 21
113.0365344065803
 31
0.0
  0
LINE
  5
80C
  8
3
 10
320.50459845193137
 20
101.6177116911545
 30
0.0
 11
320.50459845193149
 21
113.0365344065803
 31
0.0
  0
LINE
  5
80D
  8
3
 10
318.72182426173629
 20
101.6177116911546
 30
0.0
 11
318.72182426173629
 21
113.0365344065803
 31
0.0
  0
LINE
  5
80E
  8
3
 10
316.95033345249158
 20
101.6177116911546
 30
0.0
 11
316.95033345249158
 21
113.0365344065803
 31
0.0
  0
LINE
  5
80F
  8
3
 10
315.28555503317341
 20
101.6177116911546
 30
0.0
 11
315.28555503317318
 21
113.0365344065803
 31
0.0
  0
LINE
  5
810
  8
3
 10
313.99643890823143
 20
101.93118783014791
 30
0.0
 11
313.99643890823143
 21
113.0365344065803
 31
0.0
  0
TEXT
  5
8F2
  8
0
 62
     3
 10
0.0
 20
0.0
 30
0.0
 40
10.0
  1
EAL95X30-SUS
  7
STANDARD1
  0
ENDSEC
  0
EOF
