  0
SECTION
  2
HEADER
  9
$ACADVER
  1
AC1009
  9
$INSBASE
 10
0.0
 20
0.0
 30
0.0
  9
$EXTMIN
 10
0.0
 20
-2.960436562073669
 30
0.0
  9
$EXTMAX
 10
209.0578079724304
 20
171.8672688886742
 30
0.0
  9
$LIMMIN
 10
0.0
 20
0.0
  9
$LIMMAX
 10
385.0
 20
270.0
  9
$ORTHOMODE
 70
     1
  9
$REGENMODE
 70
     1
  9
$FILLMODE
 70
     1
  9
$QTEXTMODE
 70
     0
  9
$MIRRTEXT
 70
     0
  9
$DRAGMODE
 70
     2
  9
$LTSCALE
 40
10.0
  9
$OSMODE
 70
  3071
  9
$ATTMODE
 70
     1
  9
$TEXTSIZE
 40
0.2
  9
$TRACEWID
 40
0.05
  9
$TEXTSTYLE
  7
STANDARD
  9
$CLAYER
  8
4
  9
$CELTYPE
  6
BYLAYER
  9
$CECOLOR
 62
   256
  9
$DIMSCALE
 40
1.0
  9
$DIMASZ
 40
3.0
  9
$DIMEXO
 40
0.0625
  9
$DIMDLI
 40
0.38
  9
$DIMRND
 40
0.0
  9
$DIMDLE
 40
0.0
  9
$DIMEXE
 40
0.18
  9
$DIMTP
 40
0.0
  9
$DIMTM
 40
0.0
  9
$DIMTXT
 40
3.0
  9
$DIMCEN
 40
0.09
  9
$DIMTSZ
 40
0.0
  9
$DIMTOL
 70
     0
  9
$DIMLIM
 70
     0
  9
$DIMTIH
 70
     1
  9
$DIMTOH
 70
     1
  9
$DIMSE1
 70
     0
  9
$DIMSE2
 70
     0
  9
$DIMTAD
 70
     0
  9
$DIMZIN
 70
     0
  9
$DIMBLK
  1

  9
$DIMASO
 70
     1
  9
$DIMSHO
 70
     1
  9
$DIMPOST
  1

  9
$DIMAPOST
  1

  9
$DIMALT
 70
     0
  9
$DIMALTD
 70
     2
  9
$DIMALTF
 40
25.399999999999999
  9
$DIMLFAC
 40
1.0
  9
$DIMTOFL
 70
     0
  9
$DIMTVP
 40
0.0
  9
$DIMTIX
 70
     0
  9
$DIMSOXD
 70
     0
  9
$DIMSAH
 70
     0
  9
$DIMBLK1
  1

  9
$DIMBLK2
  1

  9
$DIMSTYLE
  2
STANDARD
  9
$DIMCLRD
 70
     0
  9
$DIMCLRE
 70
     0
  9
$DIMCLRT
 70
     0
  9
$DIMTFAC
 40
1.0
  9
$DIMGAP
 40
0.09
  9
$LUNITS
 70
     2
  9
$LUPREC
 70
     4
  9
$SKETCHINC
 40
0.1
  9
$FILLETRAD
 40
0.0
  9
$AUNITS
 70
     0
  9
$AUPREC
 70
     0
  9
$MENU
  1
E:\r13\win\SUPPORT\ACAD
  9
$ELEVATION
 40
0.0
  9
$PELEVATION
 40
0.0
  9
$THICKNESS
 40
0.0
  9
$LIMCHECK
 70
     0
  9
$BLIPMODE
 70
     0
  9
$CHAMFERA
 40
0.0
  9
$CHAMFERB
 40
0.0
  9
$SKPOLY
 70
     0
  9
$TDCREATE
 40
2450364.6238311338
  9
$TDUPDATE
 40
2456598.6242063078
  9
$TDINDWG
 40
0.0098286343
  9
$TDUSRTIMER
 40
0.0098286343
  9
$USRTIMER
 70
     1
  9
$ANGBASE
 50
0.0
  9
$ANGDIR
 70
     0
  9
$PDMODE
 70
     0
  9
$PDSIZE
 40
0.0
  9
$PLINEWID
 40
0.0
  9
$COORDS
 70
     1
  9
$SPLFRAME
 70
     0
  9
$SPLINETYPE
 70
     6
  9
$SPLINESEGS
 70
     8
  9
$ATTDIA
 70
     0
  9
$ATTREQ
 70
     1
  9
$HANDLING
 70
     1
  9
$HANDSEED
  5
836
  9
$SURFTAB1
 70
     6
  9
$SURFTAB2
 70
     6
  9
$SURFTYPE
 70
     6
  9
$SURFU
 70
     6
  9
$SURFV
 70
     6
  9
$UCSNAME
  2

  9
$UCSORG
 10
0.0
 20
0.0
 30
0.0
  9
$UCSXDIR
 10
1.0
 20
0.0
 30
0.0
  9
$UCSYDIR
 10
0.0
 20
1.0
 30
0.0
  9
$PUCSNAME
  2

  9
$PUCSORG
 10
0.0
 20
0.0
 30
0.0
  9
$PUCSXDIR
 10
1.0
 20
0.0
 30
0.0
  9
$PUCSYDIR
 10
0.0
 20
1.0
 30
0.0
  9
$USERI1
 70
     3
  9
$USERI2
 70
     1
  9
$USERI3
 70
     1
  9
$USERI4
 70
     0
  9
$USERI5
 70
     0
  9
$USERR1
 40
1.0
  9
$USERR2
 40
3.0
  9
$USERR3
 40
3.0
  9
$USERR4
 40
3.0
  9
$USERR5
 40
10.0
  9
$WORLDVIEW
 70
     1
  9
$SHADEDGE
 70
     3
  9
$SHADEDIF
 70
    70
  9
$TILEMODE
 70
     1
  9
$MAXACTVP
 70
    16
  9
$PLIMCHECK
 70
     0
  9
$PEXTMIN
 10
1.0000000000000000E+020
 20
1.0000000000000000E+020
 30
1.0000000000000000E+020
  9
$PEXTMAX
 10
-1.0000000000000000E+020
 20
-1.0000000000000000E+020
 30
-1.0000000000000000E+020
  9
$PLIMMIN
 10
0.0
 20
0.0
  9
$PLIMMAX
 10
12.0
 20
9.0
  9
$UNITMODE
 70
     0
  9
$VISRETAIN
 70
     0
  9
$PLINEGEN
 70
     0
  9
$PSLTSCALE
 70
     0
  0
ENDSEC
  0
SECTION
  2
TABLES
  0
TABLE
  2
VPORT
 70
     1
  0
VPORT
  2
*ACTIVE
 70
     0
 10
0.0
 20
0.0
 11
1.0
 21
1.0
 12
200.05795575583809
 22
133.5127261426681
 13
0.0
 23
0.0
 14
5.0
 24
5.0
 15
0.0
 25
0.0
 16
0.0
 26
0.0
 36
1.0
 17
0.0
 27
0.0
 37
0.0
 40
275.42274993631997
 41
1.831871345029239
 42
50.0
 43
0.0
 44
0.0
 50
0.0
 51
0.0
 71
     0
 72
   100
 73
     1
 74
     0
 75
     0
 76
     0
 77
     0
 78
     0
  0
ENDTAB
  0
TABLE
  2
LTYPE
 70
     4
  0
LTYPE
  2
CONTINUOUS
 70
     0
  3
Solid Line
 72
    65
 73
     0
 40
0.0
  0
LTYPE
  2
CENTER
 70
     0
  3
____ _ ____ _ ____ _ ____ _ ____ _ ____ _ ____
 72
    65
 73
     4
 40
2.0
 49
1.25
 49
-0.25
 49
0.25
 49
-0.25
  0
LTYPE
  2
HIDDEN
 70
     0
  3
_ _ _ _ _ _ _ _ _ _ _ _ _ _ _ _ _ _ _ _ _ _ _
 72
    65
 73
     2
 40
0.375
 49
0.25
 49
-0.125
  0
LTYPE
  2
PHANTOM2
 70
     0
  3
___ _ _ ___ _ _ ___ _ _ ___ _ _
 72
    65
 73
     6
 40
1.25
 49
0.625
 49
-0.125
 49
0.125
 49
-0.125
 49
0.125
 49
-0.125
  0
ENDTAB
  0
TABLE
  2
LAYER
 70
     5
  0
LAYER
  2
0
 70
     0
 62
     7
  6
CONTINUOUS
  0
LAYER
  2
1
 70
     0
 62
     1
  6
CENTER
  0
LAYER
  2
2
 70
     0
 62
     2
  6
HIDDEN
  0
LAYER
  2
3
 70
     0
 62
     3
  6
CONTINUOUS
  0
LAYER
  2
4
 70
     0
 62
     4
  6
CONTINUOUS
  0
ENDTAB
  0
TABLE
  2
STYLE
 70
     2
  0
STYLE
  2
STANDARD
 70
     0
 40
0.0
 41
1.0
 50
0.0
 71
     0
 42
0.2
  3
SIMPLEX
  4
BIGFONT
  0
STYLE
  2
STANDARD1
 70
     0
 40
0.0
 41
1.0
 50
0.0
 71
     0
 42
3.0
  3
txt
  4

  0
ENDTAB
  0
TABLE
  2
VIEW
 70
     0
  0
ENDTAB
  0
TABLE
  2
UCS
 70
     0
  0
ENDTAB
  0
TABLE
  2
APPID
 70
     4
  0
APPID
  2
ACAD
 70
     0
  0
APPID
  2
ACAD_MLEADERVER
 70
     0
  0
APPID
  2
ACAD_EXEMPT_FROM_CAD_STANDARDS
 70
     0
  0
APPID
  2
ACAD_NAV_VCDISPLAY
 70
     0
  0
ENDTAB
  0
TABLE
  2
DIMSTYLE
 70
     1
  0
DIMSTYLE
  2
STANDARD
 70
     0
  3

  4

  5

  6

  7

 40
1.0
 41
0.18
 42
0.0625
 43
0.38
 44
0.18
 45
0.0
 46
0.0
 47
0.0
 48
0.0
140
0.18
141
0.09
142
0.0
143
25.399999999999999
144
1.0
145
0.0
146
1.0
147
0.09
 71
     0
 72
     0
 73
     1
 74
     1
 75
     0
 76
     0
 77
     0
 78
     0
170
     0
171
     2
172
     0
173
     0
174
     0
175
     0
176
     0
177
     0
178
     0
  0
ENDTAB
  0
ENDSEC
  0
SECTION
  2
BLOCKS
  0
BLOCK
  8
0
  2
$MODEL_SPACE
 70
     0
 10
0.0
 20
0.0
 30
0.0
  3
$MODEL_SPACE
  1

  0
ENDBLK
  5
201
  8
0
  0
BLOCK
 67
     1
  8
0
  2
$PAPER_SPACE
 70
     0
 10
0.0
 20
0.0
 30
0.0
  3
$PAPER_SPACE
  1

  0
ENDBLK
  5
1FF
 67
     1
  8
0
  0
ENDSEC
  0
SECTION
  2
ENTITIES
  0
LINE
  5
51B
  8
1
 10
201.30780797243489
 20
29.999999999999861
 30
0.0
 11
201.30780797243511
 21
102.5000000000001
 31
0.0
  0
LINE
  5
51C
  8
1
 10
42.442506241634291
 20
29.99999999999979
 30
0.0
 11
42.442506241634632
 21
102.5000000000001
 31
0.0
  0
LINE
  5
51D
  8
0
 10
38.442506241634547
 20
90.0
 30
0.0
 11
38.442506241634547
 21
93.700000000000045
 31
0.0
  0
LINE
  5
51E
  8
0
 10
39.242506241634558
 20
94.500000000000014
 30
0.0
 11
45.642506241634592
 21
94.500000000000014
 31
0.0
  0
ARC
  5
51F
  8
0
 10
39.242506241634558
 20
93.700000000000045
 30
0.0
 40
0.8000000000000002
 50
90.0
 51
180.0
  0
LINE
  5
520
  8
0
 10
197.80780797243511
 20
97.500000000000114
 30
0.0
 11
204.80780797243511
 21
97.500000000176584
 31
0.0
  0
ARC
  5
521
  8
0
 10
45.642506241634592
 20
93.700000000000045
 30
0.0
 40
0.8000000000000002
 50
0.0
 51
90.0
  0
LINE
  5
522
  8
0
 10
46.44250624163454
 20
90.0
 30
0.0
 11
46.44250624163454
 21
93.700000000000045
 31
0.0
  0
LINE
  5
523
  8
0
 10
48.374537007907279
 20
89.999999999999986
 30
0.0
 11
36.510475475361943
 21
90.000000000000085
 31
0.0
  0
LINE
  5
524
  8
0
 10
45.942506241634568
 20
97.500000000000085
 30
0.0
 11
38.942506241634582
 21
97.500000000000085
 31
0.0
  0
LINE
  5
525
  8
0
 10
47.942506241634582
 20
92.828500672653433
 30
0.0
 11
46.44250624163454
 21
92.828500672653433
 31
0.0
  0
LINE
  5
526
  8
0
 10
36.942506241634582
 20
90.0
 30
0.0
 11
36.942506241634582
 21
95.500000000000085
 31
0.0
  0
LINE
  5
527
  8
0
 10
47.942506241634568
 20
90.0
 30
0.0
 11
47.942506241634568
 21
95.500000000000085
 31
0.0
  0
LINE
  5
528
  8
0
 10
38.442506241634547
 20
92.828500672653433
 30
0.0
 11
36.94250624163459
 21
92.828500672653433
 31
0.0
  0
ARC
  5
529
  8
0
 10
38.942506241634582
 20
95.500000000000085
 30
0.0
 40
2.0
 50
90.0
 51
180.0
  0
ARC
  5
52A
  8
0
 10
45.942506241634568
 20
95.500000000000085
 30
0.0
 40
2.0
 50
0.0
 51
90.0
  0
LINE
  5
52B
  8
0
 10
195.80780797243511
 20
75.278887517229165
 30
0.0
 11
195.80780797243511
 21
95.500000000000114
 31
0.0
  0
LINE
  5
52C
  8
0
 10
206.8078079724354
 20
75.278887517405622
 30
0.0
 11
206.80780797243511
 21
95.500000000176613
 31
0.0
  0
ARC
  5
52D
  8
0
 10
197.80780797243511
 20
95.500000000000114
 30
0.0
 40
2.0
 50
90.0
 51
180.0
  0
ARC
  5
52E
  8
0
 10
204.80780797243511
 20
95.500000000176584
 30
0.0
 40
2.0
 50
0.0
 51
90.0
  0
ARC
  5
52F
  8
0
 10
201.3078079724352
 20
95.499989202788981
 30
0.0
 40
5.5001025783705817
 50
180.34992970345971
 51
359.6500702964882
  0
LINE
  5
530
  8
0
 10
198.30780797243511
 20
75.278887517229165
 30
0.0
 11
198.30780797243511
 21
90.890094586575032
 31
0.0
  0
LINE
  5
531
  8
0
 10
204.30780797243511
 20
75.278887517229165
 30
0.0
 11
204.30780797243511
 21
90.890094586574975
 31
0.0
  0
ARC
  5
532
  8
3
 10
99.008317338785815
 20
159.11726888867429
 30
0.0
 40
14.48250673635196
 50
340.477185862054
 51
19.522814137946
  0
CIRCLE
  5
533
  8
0
 10
124.3468011766868
 20
159.1172688886742
 30
0.0
 40
0.7
  0
CIRCLE
  5
534
  8
0
 10
122.0926978783241
 20
159.1172688886742
 30
0.0
 40
0.7
  0
CIRCLE
  5
535
  8
0
 10
120.0108246103192
 20
159.1172688886742
 30
0.0
 40
0.7
  0
CIRCLE
  5
536
  8
0
 10
115.7100869767401
 20
159.1172688886742
 30
0.0
 40
0.7
  0
CIRCLE
  5
537
  8
0
 10
117.8556841701713
 20
159.1172688886742
 30
0.0
 40
0.7
  0
ARC
  5
538
  8
2
 10
145.88562075330671
 20
-5.8305218719349341
 30
0.0
 40
101.0
 50
90.965973498773565
 51
107.3325389904758
  0
ARC
  5
539
  8
0
 10
155.3726921801931
 20
22.905691641682829
 30
0.0
 40
70.700000000000003
 50
102.48003011326431
 51
120.88884649435209
  0
ARC
  5
53A
  8
0
 10
145.92073533144469
 20
-22.186000916248052
 30
0.0
 40
119.685
 50
90.0
 51
106.0151822977455
  0
LINE
  5
53B
  8
1
 10
106.7781842579155
 20
29.999999999999801
 30
0.0
 11
106.7781842579158
 21
99.499999999999986
 31
0.0
  0
ARC
  5
53C
  8
0
 10
115.51410042337881
 20
174.68338027436101
 30
0.0
 40
10.1
 50
240.83729340382871
 51
265.30511070240362
  0
LINE
  5
53D
  8
0
 10
99.126349481689616
 20
71.298254680593516
 30
0.0
 11
99.028184257915839
 21
88.17142336439673
 31
0.0
  0
LINE
  5
53E
  8
0
 10
100.84615349164309
 20
90.000000000000014
 30
0.0
 11
107.4851842579158
 21
89.999999999999986
 31
0.0
  0
ARC
  5
53F
  8
0
 10
100.84615349164309
 20
88.182000000000016
 30
0.0
 40
1.817999999999999
 50
90.0
 51
180.33333333333329
  0
ARC
  5
540
  8
0
 10
123.9541907250282
 20
75.425380962087218
 30
0.0
 40
9.5
 50
120.88884649435209
 51
179.6666666666674
  0
LINE
  5
541
  8
0
 10
114.43001903414191
 20
71.298254680593573
 30
0.0
 11
114.4543514948797
 21
75.480649409959483
 31
0.0
  0
LINE
  5
542
  8
0
 10
99.426344404746956
 20
71.000000000000085
 30
0.0
 11
114.1300241110845
 21
71.000000000000057
 31
0.0
  0
ARC
  5
543
  8
0
 10
107.4851842579158
 20
96.565000000000225
 30
0.0
 40
6.5650000000000013
 50
270.0
 51
325.5774447662285
  0
LINE
  5
544
  8
2
 10
145.46559907705151
 20
90.386947077600297
 30
0.0
 11
145.4029477748486
 21
93.976237776912512
 31
0.0
  0
ARC
  5
545
  8
0
 10
144.4781842579157
 20
95.492115784825017
 30
0.0
 40
6.2999999999999989
 50
308.21387582314492
 51
0.5322537266239706
  0
ARC
  5
546
  8
0
 10
140.84277067557511
 20
85.010121158707136
 30
0.0
 40
7.0700000000000003
 50
51.565630368707247
 51
80.765173680538794
  0
ARC
  5
547
  8
0
 10
146.81030133844391
 20
92.530000000000001
 30
0.0
 40
2.5299999999999998
 50
231.5656303687073
 51
308.21387582314492
  0
ARC
  5
548
  8
2
 10
144.20313054066099
 20
93.955294889187826
 30
0.0
 40
1.1999999999999991
 50
1.0000000000001461
 51
90.965973498775256
  0
ARC
  5
549
  8
0
 10
144.4781842579157
 20
95.492115784825017
 30
0.0
 40
6.2999999999999989
 50
359.46774627338539
 51
0.5322537266239706
  0
ARC
  5
54A
  8
0
 10
148.7779124265372
 20
95.550639296998696
 30
0.0
 40
2.0
 50
0.0
 51
76.951651066122864
  0
LINE
  5
54B
  8
0
 10
145.9207353314446
 20
97.498999083751954
 30
0.0
 11
149.2294588154752
 21
97.498999083751954
 31
0.0
  0
ARC
  5
54C
  8
0
 10
99.426344404746956
 20
71.300000000000054
 30
0.0
 40
0.3
 50
180.33333333333289
 51
270.0
  0
CIRCLE
  5
54D
  8
0
 10
106.7781842579158
 20
159.1172688886742
 30
0.0
 40
4.0
  0
LINE
  5
54E
  8
0
 10
112.7781842579157
 20
71.000000000000057
 30
0.0
 11
112.7781842579157
 21
65.700000000000131
 31
0.0
  0
LINE
  5
54F
  8
0
 10
112.2781842579157
 20
65.200000000000017
 30
0.0
 11
101.2781842579157
 21
65.200000000000017
 31
0.0
  0
LINE
  5
550
  8
0
 10
112.2781842579158
 20
65.200000000000017
 30
0.0
 11
112.7781842579157
 21
65.700000000000131
 31
0.0
  0
LINE
  5
551
  8
0
 10
100.7781842579157
 20
70.199999999999989
 30
0.0
 11
112.7781842579157
 21
70.200000000000017
 31
0.0
  0
LINE
  5
552
  8
0
 10
102.7781842579158
 20
90.0
 30
0.0
 11
102.7781842579158
 21
93.700000000000045
 31
0.0
  0
ARC
  5
553
  8
0
 10
103.57818425791579
 20
93.700000000000045
 30
0.0
 40
0.8000000000000002
 50
90.0
 51
180.0
  0
LINE
  5
554
  8
0
 10
110.7781842579158
 20
90.885618343516796
 30
0.0
 11
110.7781842579158
 21
93.700000000000045
 31
0.0
  0
LINE
  5
555
  8
0
 10
109.9781842579158
 20
94.500000000000014
 30
0.0
 11
103.57818425791579
 21
94.499999999999972
 31
0.0
  0
ARC
  5
556
  8
0
 10
109.9781842579158
 20
93.700000000000045
 30
0.0
 40
0.8000000000000002
 50
0.0
 51
90.0
  0
LINE
  5
557
  8
0
 10
100.7781842579157
 20
71.000000000000057
 30
0.0
 11
100.7781842579157
 21
65.700000000000131
 31
0.0
  0
LINE
  5
558
  8
0
 10
101.2781842579157
 20
65.200000000000017
 30
0.0
 11
100.7781842579157
 21
65.700000000000131
 31
0.0
  0
LINE
  5
559
  8
3
 10
100.9648180096443
 20
65.513366248271467
 30
0.0
 11
100.9648180096443
 21
70.200000000000017
 31
0.0
  0
LINE
  5
55A
  8
3
 10
101.73223337527349
 20
65.200000000000017
 30
0.0
 11
101.73223337527349
 21
70.200000000000017
 31
0.0
  0
LINE
  5
55B
  8
3
 10
102.69759617499059
 20
65.200000000000017
 30
0.0
 11
102.69759617499059
 21
70.200000000000017
 31
0.0
  0
LINE
  5
55C
  8
3
 10
103.6691077823493
 20
65.200000000000017
 30
0.0
 11
103.6691077823493
 21
70.200000000000017
 31
0.0
  0
LINE
  5
55D
  8
3
 10
104.65906581263241
 20
65.200000000000017
 30
0.0
 11
104.65906581263241
 21
70.200000000000017
 31
0.0
  0
LINE
  5
55E
  8
3
 10
105.6428750352741
 20
65.200000000000017
 30
0.0
 11
105.6428750352741
 21
70.200000000000017
 31
0.0
  0
LINE
  5
55F
  8
3
 10
106.7781842579157
 20
65.200000000000017
 30
0.0
 11
106.7781842579157
 21
70.200000000000017
 31
0.0
  0
LINE
  5
560
  8
3
 10
108.897302703199
 20
65.200000000000017
 30
0.0
 11
108.897302703199
 21
70.200000000000017
 31
0.0
  0
LINE
  5
561
  8
3
 10
107.91349348055741
 20
65.200000000000017
 30
0.0
 11
107.91349348055741
 21
70.200000000000017
 31
0.0
  0
LINE
  5
562
  8
3
 10
109.88726073348209
 20
65.200000000000017
 30
0.0
 11
109.88726073348219
 21
70.200000000000017
 31
0.0
  0
LINE
  5
563
  8
3
 10
111.824135140558
 20
65.200000000000017
 30
0.0
 11
111.824135140558
 21
70.200000000000017
 31
0.0
  0
LINE
  5
564
  8
3
 10
110.8587723408409
 20
65.200000000000017
 30
0.0
 11
110.8587723408409
 21
70.200000000000017
 31
0.0
  0
LINE
  5
565
  8
3
 10
112.5915505061872
 20
65.513366248271467
 30
0.0
 11
112.5915505061872
 21
70.200000000000017
 31
0.0
  0
LINE
  5
566
  8
2
 10
114.4543514948795
 20
75.480649409959554
 30
0.0
 11
114.5322801819211
 21
88.875452897508524
 31
0.0
  0
ARC
  5
567
  8
0
 10
114.1300241110845
 20
71.300000000000054
 30
0.0
 40
0.3
 50
270.0
 51
359.66666666666703
  0
ARC
  5
568
  8
2
 10
116.3322497202651
 20
88.864980981069536
 30
0.0
 40
1.8
 50
107.3325389904758
 51
179.666666666667
  0
ARC
  5
569
  8
0
 10
141.1749667037806
 20
87.053291684836665
 30
0.0
 40
5.0
 50
80.765173680538794
 51
102.48003011326431
  0
LINE
  5
56A
  8
0
 10
193.95596811926629
 20
71.000000000000199
 30
0.0
 11
208.659647825604
 21
71.000000000000171
 31
0.0
  0
LINE
  5
56B
  8
0
 10
206.8078079724352
 20
65.200000000000131
 30
0.0
 11
207.3078079724352
 21
65.700000000000244
 31
0.0
  0
LINE
  5
56C
  8
3
 10
205.38839605536029
 20
65.200000000000131
 30
0.0
 11
205.38839605536029
 21
70.200000000000131
 31
0.0
  0
LINE
  5
56D
  8
3
 10
206.35375885507739
 20
65.200000000000131
 30
0.0
 11
206.35375885507739
 21
70.200000000000131
 31
0.0
  0
LINE
  5
56E
  8
3
 10
204.41688444800161
 20
65.200000000000131
 30
0.0
 11
204.41688444800161
 21
70.200000000000131
 31
0.0
  0
LINE
  5
56F
  8
3
 10
202.44311719507689
 20
65.200000000000131
 30
0.0
 11
202.44311719507689
 21
70.200000000000131
 31
0.0
  0
LINE
  5
570
  8
3
 10
203.42692641771851
 20
65.200000000000131
 30
0.0
 11
203.42692641771851
 21
70.200000000000131
 31
0.0
  0
LINE
  5
571
  8
0
 10
195.80780797243511
 20
65.200000000000131
 30
0.0
 11
195.30780797243511
 21
65.700000000000244
 31
0.0
  0
LINE
  5
572
  8
3
 10
201.3078079724352
 20
65.200000000000131
 30
0.0
 11
201.3078079724352
 21
70.200000000000131
 31
0.0
  0
LINE
  5
573
  8
3
 10
196.2618570897929
 20
65.200000000000131
 30
0.0
 11
196.2618570897929
 21
70.200000000000131
 31
0.0
  0
LINE
  5
574
  8
3
 10
197.22721988951
 20
65.200000000000131
 30
0.0
 11
197.22721988951
 21
70.200000000000131
 31
0.0
  0
LINE
  5
575
  8
3
 10
198.1987314968687
 20
65.200000000000131
 30
0.0
 11
198.1987314968687
 21
70.200000000000131
 31
0.0
  0
LINE
  5
576
  8
3
 10
199.18868952715181
 20
65.200000000000131
 30
0.0
 11
199.18868952715181
 21
70.200000000000131
 31
0.0
  0
LINE
  5
577
  8
3
 10
200.1724987497935
 20
65.200000000000131
 30
0.0
 11
200.1724987497935
 21
70.200000000000131
 31
0.0
  0
LINE
  5
578
  8
0
 10
206.8078079724352
 20
65.200000000000131
 30
0.0
 11
195.80780797243511
 21
65.200000000000131
 31
0.0
  0
ARC
  5
579
  8
0
 10
193.95596811926629
 20
71.300000000000182
 30
0.0
 40
0.3
 50
180.33333333333289
 51
270.0
  0
LINE
  5
57A
  8
0
 10
207.3078079724352
 20
70.200000000000131
 30
0.0
 11
195.30780797243511
 21
70.200000000000131
 31
0.0
  0
LINE
  5
57B
  8
0
 10
195.30780797243511
 20
71.000000000000171
 30
0.0
 11
195.30780797243511
 21
65.700000000000244
 31
0.0
  0
LINE
  5
57C
  8
3
 10
195.49444172416369
 20
65.513366248271581
 30
0.0
 11
195.49444172416369
 21
70.200000000000131
 31
0.0
  0
LINE
  5
57D
  8
0
 10
207.3078079724352
 20
71.000000000000171
 30
0.0
 11
207.3078079724352
 21
65.700000000000244
 31
0.0
  0
LINE
  5
57E
  8
3
 10
207.12117422070659
 20
65.513366248271581
 30
0.0
 11
207.12117422070659
 21
70.200000000000131
 31
0.0
  0
LINE
  5
57F
  8
0
 10
193.655973196209
 20
71.298254680593629
 30
0.0
 11
193.55780797243531
 21
88.171423364396844
 31
0.0
  0
ARC
  5
580
  8
0
 10
195.3757772061625
 20
88.18200000000013
 30
0.0
 40
1.817999999999999
 50
90.0
 51
180.33333333333329
  0
LINE
  5
581
  8
0
 10
195.3757772061625
 20
90.000000000000114
 30
0.0
 11
195.80780797243511
 21
90.000000000000114
 31
0.0
  0
ARC
  5
582
  8
0
 10
207.2398387387031
 20
88.18200000000175
 30
0.0
 40
1.817999999999999
 50
359.66666666668249
 51
90.000000000015433
  0
LINE
  5
583
  8
0
 10
207.23983873870259
 20
90.000000000001748
 30
0.0
 11
206.8078079724352
 21
90.000000000001606
 31
0.0
  0
LINE
  5
584
  8
0
 10
208.9596427486612
 20
71.298254680595704
 30
0.0
 11
209.0578079724304
 21
88.171423364398962
 31
0.0
  0
ARC
  5
585
  8
0
 10
208.65964782560391
 20
71.3000000000022
 30
0.0
 40
0.3
 50
270.00000000001552
 51
359.66666666668249
  0
LINE
  5
586
  8
0
 10
35.090666388465749
 20
71.000000000000114
 30
0.0
 11
49.794346094803352
 21
71.000000000000114
 31
0.0
  0
LINE
  5
587
  8
0
 10
47.942506241634568
 20
65.20000000000006
 30
0.0
 11
48.44250624163454
 21
65.700000000000173
 31
0.0
  0
LINE
  5
588
  8
3
 10
46.523094324559722
 20
65.20000000000006
 30
0.0
 11
46.523094324559722
 21
70.200000000000074
 31
0.0
  0
LINE
  5
589
  8
3
 10
47.488457124276792
 20
65.20000000000006
 30
0.0
 11
47.488457124276792
 21
70.200000000000074
 31
0.0
  0
LINE
  5
58A
  8
3
 10
45.551582717200951
 20
65.20000000000006
 30
0.0
 11
45.551582717200979
 21
70.200000000000074
 31
0.0
  0
LINE
  5
58B
  8
3
 10
43.577815464276213
 20
65.20000000000006
 30
0.0
 11
43.577815464276213
 21
70.20000000000006
 31
0.0
  0
LINE
  5
58C
  8
3
 10
44.561624686917853
 20
65.20000000000006
 30
0.0
 11
44.561624686917853
 21
70.20000000000006
 31
0.0
  0
LINE
  5
58D
  8
0
 10
36.942506241634518
 20
65.20000000000006
 30
0.0
 11
36.442506241634547
 21
65.700000000000173
 31
0.0
  0
LINE
  5
58E
  8
3
 10
42.442506241634547
 20
65.20000000000006
 30
0.0
 11
42.442506241634547
 21
70.20000000000006
 31
0.0
  0
LINE
  5
58F
  8
3
 10
37.396555358992302
 20
65.20000000000006
 30
0.0
 11
37.396555358992302
 21
70.200000000000074
 31
0.0
  0
LINE
  5
590
  8
3
 10
38.361918158709372
 20
65.20000000000006
 30
0.0
 11
38.361918158709372
 21
70.200000000000074
 31
0.0
  0
LINE
  5
591
  8
3
 10
39.333429766068143
 20
65.20000000000006
 30
0.0
 11
39.333429766068107
 21
70.200000000000074
 31
0.0
  0
LINE
  5
592
  8
3
 10
40.323387796351241
 20
65.20000000000006
 30
0.0
 11
40.323387796351241
 21
70.20000000000006
 31
0.0
  0
LINE
  5
593
  8
3
 10
41.307197018992881
 20
65.20000000000006
 30
0.0
 11
41.307197018992881
 21
70.20000000000006
 31
0.0
  0
LINE
  5
594
  8
0
 10
47.942506241634547
 20
65.20000000000006
 30
0.0
 11
36.942506241634547
 21
65.20000000000006
 31
0.0
  0
ARC
  5
595
  8
0
 10
35.090666388465749
 20
71.300000000000125
 30
0.0
 40
0.3
 50
180.33333333333289
 51
270.0
  0
LINE
  5
596
  8
0
 10
48.442506241634533
 20
70.200000000000074
 30
0.0
 11
36.442506241634518
 21
70.20000000000006
 31
0.0
  0
LINE
  5
597
  8
0
 10
36.442506241634547
 20
71.000000000000114
 30
0.0
 11
36.442506241634547
 21
65.700000000000173
 31
0.0
  0
LINE
  5
598
  8
3
 10
36.629139993363133
 20
65.513366248271538
 30
0.0
 11
36.629139993363133
 21
70.20000000000006
 31
0.0
  0
LINE
  5
599
  8
0
 10
48.442506241634518
 20
71.000000000000114
 30
0.0
 11
48.44250624163454
 21
65.700000000000173
 31
0.0
  0
LINE
  5
59A
  8
3
 10
48.255872489905968
 20
65.513366248271538
 30
0.0
 11
48.255872489905968
 21
70.20000000000006
 31
0.0
  0
ARC
  5
59B
  8
0
 10
49.794346094803352
 20
71.300000000000125
 30
0.0
 40
0.3
 50
270.0
 51
359.66666666666703
  0
LINE
  5
59C
  8
0
 10
34.790671465408408
 20
71.298254680593573
 30
0.0
 11
34.692506241634632
 21
88.171423364396773
 31
0.0
  0
ARC
  5
59D
  8
0
 10
36.510475475361929
 20
88.182000000000073
 30
0.0
 40
1.817999999999999
 50
90.0
 51
180.33333333333329
  0
ARC
  5
59E
  8
0
 10
48.374537007907279
 20
88.182000000000073
 30
0.0
 40
1.817999999999999
 50
359.66666666666657
 51
90.0
  0
LINE
  5
59F
  8
0
 10
50.094341017860799
 20
71.298254680593573
 30
0.0
 11
50.192506241634582
 21
88.171423364396773
 31
0.0
  0
ARC
  5
5A0
  8
0
 10
106.7781842579158
 20
159.1172688886742
 30
0.0
 40
7.75
 50
60.51706632516467
 51
299.48293367492101
  0
ARC
  5
5A1
  8
0
 10
145.27818425791571
 20
159.1172688886742
 30
0.0
 40
5.5
 50
270.0
 51
90.0
  0
LINE
  5
5A2
  8
0
 10
145.27818425791571
 20
164.6172688886742
 30
0.0
 11
114.6874193658078
 21
164.6172688886742
 31
0.0
  0
ARC
  5
5A3
  8
0
 10
115.51410042337881
 20
143.55115750298751
 30
0.0
 40
10.1
 50
94.694889297596447
 51
119.1627065961713
  0
LINE
  5
5A4
  8
0
 10
145.27818425791571
 20
153.6172688886742
 30
0.0
 11
114.6874193658078
 21
153.6172688886742
 31
0.0
  0
ARC
  5
5A5
  8
3
 10
145.27818425791571
 20
159.1172688886742
 30
0.0
 40
4.5
 50
270.0
 51
90.0
  0
LINE
  5
5A6
  8
3
 10
145.27818425791571
 20
163.6172688886742
 30
0.0
 11
114.6473947065561
 21
163.6172688886742
 31
0.0
  0
LINE
  5
5A7
  8
3
 10
145.27818425791571
 20
154.6172688886742
 30
0.0
 11
114.6473947065561
 21
154.6172688886742
 31
0.0
  0
ARC
  5
5A8
  8
3
 10
115.51410042337881
 20
143.55115750298751
 30
0.0
 40
11.1
 50
94.478304306319245
 51
119.1627065961713
  0
ARC
  5
5A9
  8
3
 10
115.51410042337881
 20
174.68338027436101
 30
0.0
 40
11.1
 50
240.83729340382871
 51
265.52169569367823
  0
ARC
  5
5AA
  8
3
 10
106.7781842579158
 20
159.1172688886742
 30
0.0
 40
6.75
 50
60.51706632516467
 51
299.48293367492101
  0
LINE
  5
5AB
  8
1
 10
106.7781842579158
 20
171.8672688886742
 30
0.0
 11
106.7781842579158
 21
146.3672688886742
 31
0.0
  0
LINE
  5
5AC
  8
1
 10
155.7781842579158
 20
159.1172688886742
 30
0.0
 11
94.028184257915768
 21
159.1172688886742
 31
0.0
  0
LINE
  5
5BA
  8
0
 10
37.942506241634547
 20
65.000000000000057
 30
0.0
 11
46.94250624163454
 21
65.000000000000057
 31
0.0
  0
LINE
  5
5BB
  8
0
 10
37.942506241634547
 20
65.200000000000074
 30
0.0
 11
37.942506241634547
 21
65.000000000000057
 31
0.0
  0
LINE
  5
5BC
  8
0
 10
46.94250624163454
 20
65.200000000000074
 30
0.0
 11
46.94250624163454
 21
65.000000000000057
 31
0.0
  0
LINE
  5
5D2
  8
0
 10
102.2781842579157
 20
65.0
 30
0.0
 11
111.2781842579157
 21
65.0
 31
0.0
  0
LINE
  5
5D3
  8
0
 10
102.2781842579157
 20
65.200000000000017
 30
0.0
 11
102.2781842579157
 21
65.0
 31
0.0
  0
LINE
  5
5D4
  8
0
 10
111.2781842579157
 20
65.200000000000017
 30
0.0
 11
111.2781842579157
 21
65.0
 31
0.0
  0
LINE
  5
5E2
  8
0
 10
196.80780797243511
 20
65.000000000000114
 30
0.0
 11
205.8078079724352
 21
65.000000000000114
 31
0.0
  0
LINE
  5
5E3
  8
0
 10
196.80780797243511
 20
65.200000000000131
 30
0.0
 11
196.80780797243511
 21
65.000000000000114
 31
0.0
  0
LINE
  5
5E4
  8
0
 10
205.8078079724352
 20
65.200000000000131
 30
0.0
 11
205.8078079724352
 21
65.000000000000114
 31
0.0
  0
LINE
  5
604
  8
0
 10
39.442506241634533
 20
36.732050807568903
 30
0.0
 11
45.442506241634668
 21
36.732050807568903
 31
0.0
  0
LINE
  5
605
  8
0
 10
40.442506241634639
 20
34.999999999999829
 30
0.0
 11
39.442506241634533
 21
36.732050807568903
 31
0.0
  0
LINE
  5
606
  8
0
 10
39.442506241634533
 20
62.999999999999943
 30
0.0
 11
45.442506241634618
 21
62.999999999999943
 31
0.0
  0
LINE
  5
608
  8
0
 10
39.442506241634533
 20
65.000000000000057
 30
0.0
 11
39.442506241634533
 21
36.732050807568903
 31
0.0
  0
LINE
  5
609
  8
3
 10
44.583354374543198
 20
62.999999999999943
 30
0.0
 11
44.583354374543198
 21
35.243956122348948
 31
0.0
  0
LINE
  5
60A
  8
0
 10
45.442506241634639
 20
65.000000000000057
 30
0.0
 11
45.442506241634639
 21
36.732050807568903
 31
0.0
  0
LINE
  5
60B
  8
3
 10
40.301658108725967
 20
62.999999999999943
 30
0.0
 11
40.30165810872586
 21
35.243956122348948
 31
0.0
  0
LINE
  5
60C
  8
0
 10
40.442506241634639
 20
34.999999999999829
 30
0.0
 11
44.442506241634533
 21
34.999999999999773
 31
0.0
  0
LINE
  5
60D
  8
0
 10
44.442506241634533
 20
34.999999999999829
 30
0.0
 11
45.442506241634639
 21
36.732050807568903
 31
0.0
  0
LINE
  5
60F
  8
0
 10
103.7781842579157
 20
36.732050807568839
 30
0.0
 11
109.7781842579159
 21
36.732050807568839
 31
0.0
  0
LINE
  5
610
  8
0
 10
104.7781842579158
 20
34.999999999999773
 30
0.0
 11
103.7781842579157
 21
36.732050807568839
 31
0.0
  0
LINE
  5
611
  8
0
 10
103.7781842579157
 20
62.999999999999893
 30
0.0
 11
109.7781842579158
 21
62.999999999999893
 31
0.0
  0
LINE
  5
613
  8
0
 10
103.7781842579157
 20
65.0
 30
0.0
 11
103.7781842579157
 21
36.732050807568839
 31
0.0
  0
LINE
  5
614
  8
3
 10
108.9190323908244
 20
62.999999999999893
 30
0.0
 11
108.9190323908244
 21
35.243956122348891
 31
0.0
  0
LINE
  5
615
  8
0
 10
109.7781842579158
 20
65.0
 30
0.0
 11
109.7781842579158
 21
36.732050807568839
 31
0.0
  0
LINE
  5
616
  8
3
 10
104.6373361250072
 20
62.999999999999893
 30
0.0
 11
104.637336125007
 21
35.243956122348891
 31
0.0
  0
LINE
  5
617
  8
0
 10
104.7781842579158
 20
34.999999999999773
 30
0.0
 11
108.7781842579157
 21
34.999999999999723
 31
0.0
  0
LINE
  5
618
  8
0
 10
108.7781842579157
 20
34.999999999999773
 30
0.0
 11
109.7781842579158
 21
36.732050807568839
 31
0.0
  0
LINE
  5
61A
  8
0
 10
198.30780797243511
 20
36.73205080756896
 30
0.0
 11
204.30780797243531
 21
36.73205080756896
 31
0.0
  0
LINE
  5
61B
  8
0
 10
199.30780797243531
 20
34.999999999999893
 30
0.0
 11
198.30780797243511
 21
36.73205080756896
 31
0.0
  0
LINE
  5
61C
  8
0
 10
198.30780797243511
 20
63.0
 30
0.0
 11
204.3078079724352
 21
63.0
 31
0.0
  0
LINE
  5
61E
  8
0
 10
198.30780797243511
 20
65.000000000000114
 30
0.0
 11
198.30780797243511
 21
36.73205080756896
 31
0.0
  0
LINE
  5
61F
  8
3
 10
203.4486561053439
 20
63.0
 30
0.0
 11
203.4486561053439
 21
35.243956122349012
 31
0.0
  0
LINE
  5
620
  8
0
 10
204.30780797243531
 20
65.000000000000114
 30
0.0
 11
204.30780797243531
 21
36.73205080756896
 31
0.0
  0
LINE
  5
621
  8
3
 10
199.16695983952661
 20
63.0
 30
0.0
 11
199.1669598395265
 21
35.243956122349012
 31
0.0
  0
LINE
  5
622
  8
0
 10
199.30780797243531
 20
34.999999999999893
 30
0.0
 11
203.3078079724352
 21
34.999999999999829
 31
0.0
  0
LINE
  5
623
  8
0
 10
203.3078079724352
 20
34.999999999999893
 30
0.0
 11
204.30780797243531
 21
36.73205080756896
 31
0.0
  0
LINE
  5
74F
  8
3
 10
203.4486561053439
 20
63.0
 30
0.0
 11
204.30780797243531
 21
64.488094685220005
 31
0.0
  0
LINE
  5
750
  8
3
 10
199.16695983952661
 20
62.999999999999972
 30
0.0
 11
198.30780797243511
 21
64.48809468521992
 31
0.0
  0
LINE
  5
751
  8
3
 10
108.9190323908244
 20
62.999999999999893
 30
0.0
 11
109.7781842579158
 21
64.488094685219892
 31
0.0
  0
LINE
  5
752
  8
3
 10
104.6373361250072
 20
62.999999999999851
 30
0.0
 11
103.7781842579157
 21
64.488094685219806
 31
0.0
  0
LINE
  5
753
  8
3
 10
44.583354374543198
 20
62.999999999999943
 30
0.0
 11
45.442506241634639
 21
64.488094685219949
 31
0.0
  0
LINE
  5
754
  8
3
 10
40.301658108725967
 20
62.999999999999901
 30
0.0
 11
39.442506241634533
 21
64.488094685219863
 31
0.0
  0
TEXT
  5
7E2
  8
0
 62
     3
 10
0.0
 20
0.0
 30
0.0
 40
10.0
  1
EAL44AX30
  7
STANDARD1
  0
ENDSEC
  0
EOF
