  0
SECTION
  2
HEADER
  9
$ACADVER
  1
AC1009
  9
$INSBASE
 10
0.0
 20
0.0
 30
0.0
  9
$EXTMIN
 10
0.0
 20
-2.960436562073669
 30
0.0
  9
$EXTMAX
 10
178.22266600334839
 20
112.94431007414219
 30
0.0
  9
$LIMMIN
 10
0.0
 20
0.0
  9
$LIMMAX
 10
390.0
 20
270.0
  9
$ORTHOMODE
 70
     1
  9
$REGENMODE
 70
     1
  9
$FILLMODE
 70
     1
  9
$QTEXTMODE
 70
     0
  9
$MIRRTEXT
 70
     1
  9
$DRAGMODE
 70
     2
  9
$LTSCALE
 40
5.0
  9
$OSMODE
 70
  3071
  9
$ATTMODE
 70
     1
  9
$TEXTSIZE
 40
2.5
  9
$TRACEWID
 40
1.0
  9
$TEXTSTYLE
  7
STANDARD
  9
$CLAYER
  8
0
  9
$CELTYPE
  6
BYLAYER
  9
$CECOLOR
 62
   256
  9
$DIMSCALE
 40
1.0
  9
$DIMASZ
 40
3.0
  9
$DIMEXO
 40
1.0
  9
$DIMDLI
 40
6.0
  9
$DIMRND
 40
0.0
  9
$DIMDLE
 40
0.0
  9
$DIMEXE
 40
1.0
  9
$DIMTP
 40
495.0
  9
$DIMTM
 40
0.0
  9
$DIMTXT
 40
2.5
  9
$DIMCEN
 40
0.0
  9
$DIMTSZ
 40
0.0
  9
$DIMTOL
 70
     0
  9
$DIMLIM
 70
     0
  9
$DIMTIH
 70
     0
  9
$DIMTOH
 70
     0
  9
$DIMSE1
 70
     0
  9
$DIMSE2
 70
     0
  9
$DIMTAD
 70
     1
  9
$DIMZIN
 70
     8
  9
$DIMBLK
  1

  9
$DIMASO
 70
     0
  9
$DIMSHO
 70
     1
  9
$DIMPOST
  1

  9
$DIMAPOST
  1

  9
$DIMALT
 70
     0
  9
$DIMALTD
 70
     2
  9
$DIMALTF
 40
25.399999999999999
  9
$DIMLFAC
 40
1.0
  9
$DIMTOFL
 70
     1
  9
$DIMTVP
 40
0.0
  9
$DIMTIX
 70
     1
  9
$DIMSOXD
 70
     0
  9
$DIMSAH
 70
     0
  9
$DIMBLK1
  1

  9
$DIMBLK2
  1

  9
$DIMSTYLE
  2
ITM
  9
$DIMCLRD
 70
   256
  9
$DIMCLRE
 70
   256
  9
$DIMCLRT
 70
   256
  9
$DIMTFAC
 40
1.0
  9
$DIMGAP
 40
1.0
  9
$LUNITS
 70
     2
  9
$LUPREC
 70
     2
  9
$SKETCHINC
 40
1.0
  9
$FILLETRAD
 40
0.4
  9
$AUNITS
 70
     0
  9
$AUPREC
 70
     0
  9
$MENU
  1
.
  9
$ELEVATION
 40
0.0
  9
$PELEVATION
 40
0.0
  9
$THICKNESS
 40
0.0
  9
$LIMCHECK
 70
     0
  9
$BLIPMODE
 70
     0
  9
$CHAMFERA
 40
1.1999999999999991
  9
$CHAMFERB
 40
1.1999999999999991
  9
$SKPOLY
 70
     0
  9
$TDCREATE
 40
2453354.0921258219
  9
$TDUPDATE
 40
2456598.6232292252
  9
$TDINDWG
 40
513.86669990739995
  9
$TDUSRTIMER
 40
513.86642193290004
  9
$USRTIMER
 70
     1
  9
$ANGBASE
 50
0.0
  9
$ANGDIR
 70
     0
  9
$PDMODE
 70
     0
  9
$PDSIZE
 40
0.0
  9
$PLINEWID
 40
0.0
  9
$COORDS
 70
     1
  9
$SPLFRAME
 70
     0
  9
$SPLINETYPE
 70
     6
  9
$SPLINESEGS
 70
     8
  9
$ATTDIA
 70
     0
  9
$ATTREQ
 70
     1
  9
$HANDLING
 70
     1
  9
$HANDSEED
  5
582EC
  9
$SURFTAB1
 70
     6
  9
$SURFTAB2
 70
     6
  9
$SURFTYPE
 70
     6
  9
$SURFU
 70
     6
  9
$SURFV
 70
     6
  9
$UCSNAME
  2

  9
$UCSORG
 10
0.0
 20
0.0
 30
0.0
  9
$UCSXDIR
 10
1.0
 20
0.0
 30
0.0
  9
$UCSYDIR
 10
0.0
 20
1.0
 30
0.0
  9
$PUCSNAME
  2

  9
$PUCSORG
 10
0.0
 20
0.0
 30
0.0
  9
$PUCSXDIR
 10
1.0
 20
0.0
 30
0.0
  9
$PUCSYDIR
 10
0.0
 20
1.0
 30
0.0
  9
$USERI1
 70
     4
  9
$USERI2
 70
     1
  9
$USERI3
 70
     1
  9
$USERI4
 70
     0
  9
$USERI5
 70
     0
  9
$USERR1
 40
1.0
  9
$USERR2
 40
3.0
  9
$USERR3
 40
3.2000000000000002
  9
$USERR4
 40
3.0
  9
$USERR5
 40
10.0
  9
$WORLDVIEW
 70
     1
  9
$SHADEDGE
 70
     3
  9
$SHADEDIF
 70
    70
  9
$TILEMODE
 70
     1
  9
$MAXACTVP
 70
    16
  9
$PLIMCHECK
 70
     0
  9
$PEXTMIN
 10
0.0
 20
0.0
 30
0.0
  9
$PEXTMAX
 10
0.0
 20
0.0
 30
0.0
  9
$PLIMMIN
 10
0.0
 20
0.0
  9
$PLIMMAX
 10
12.0
 20
9.0
  9
$UNITMODE
 70
     0
  9
$VISRETAIN
 70
     0
  9
$PLINEGEN
 70
     0
  9
$PSLTSCALE
 70
     1
  0
ENDSEC
  0
SECTION
  2
TABLES
  0
TABLE
  2
VPORT
 70
     1
  0
VPORT
  2
*ACTIVE
 70
     0
 10
0.0
 20
0.0
 11
1.0
 21
1.0
 12
202.55787946771341
 22
133.5127261426681
 13
0.0
 23
0.0
 14
5.0
 24
5.0
 15
10.0
 25
10.0
 16
0.0
 26
0.0
 36
1.0
 17
0.0
 27
0.0
 37
0.0
 40
275.42274993631997
 41
1.831871345029239
 42
50.0
 43
0.0
 44
0.0
 50
0.0
 51
0.0
 71
    16
 72
   500
 73
     1
 74
     1
 75
     0
 76
     0
 77
     0
 78
     1
  0
ENDTAB
  0
TABLE
  2
LTYPE
 70
     4
  0
LTYPE
  2
CONTINUOUS
 70
     0
  3
Solid line
 72
    65
 73
     0
 40
0.0
  0
LTYPE
  2
CENTER
 70
     0
  3
____ _ ____ _ ____ _ ____ _ ____ _ ____ _ ____
 72
    65
 73
     4
 40
2.0
 49
1.25
 49
-0.25
 49
0.25
 49
-0.25
  0
LTYPE
  2
HIDDEN
 70
     0
  3
_ _ _ _ _ _ _ _ _ _ _ _ _ _ _ _ _ _ _ _ _ _ _
 72
    65
 73
     2
 40
0.375
 49
0.25
 49
-0.125
  0
LTYPE
  2
PHANTOM2
 70
     0
  3
___ _ _ ___ _ _ ___ _ _ ___ _ _
 72
    65
 73
     6
 40
1.25
 49
0.625
 49
-0.125
 49
0.125
 49
-0.125
 49
0.125
 49
-0.125
  0
ENDTAB
  0
TABLE
  2
LAYER
 70
     6
  0
LAYER
  2
0
 70
     0
 62
     7
  6
CONTINUOUS
  0
LAYER
  2
1
 70
     0
 62
     1
  6
CENTER
  0
LAYER
  2
WAKU
 70
     0
 62
     5
  6
CONTINUOUS
  0
LAYER
  2
DEFPOINTS
 70
     0
 62
     7
  6
CONTINUOUS
  0
LAYER
  2
3
 70
     0
 62
     3
  6
CONTINUOUS
  0
LAYER
  2
2
 70
     0
 62
     2
  6
HIDDEN
  0
ENDTAB
  0
TABLE
  2
STYLE
 70
     3
  0
STYLE
  2
STANDARD
 70
     0
 40
0.0
 41
1.0
 50
0.0
 71
     0
 42
2.5
  3
ROMANS
  4
EXTFONT
  0
STYLE
  2
K
 70
     0
 40
0.0
 41
0.75
 50
0.0
 71
     0
 42
3.2000000000000002
  3
ROMANS.shx
  4
EXTFONT.shx
  0
STYLE
  2
STANDARD1
 70
     0
 40
0.0
 41
1.0
 50
0.0
 71
     0
 42
3.0
  3
txt
  4

  0
ENDTAB
  0
TABLE
  2
VIEW
 70
     2
  0
VIEW
  2
OLE1
 70
     0
 40
151.81220504325799
 10
73.676474473531471
 20
85.209442582639014
 41
295.93771616027522
 11
0.0
 21
0.0
 31
1.0
 12
0.0
 22
0.0
 32
0.0
 42
50.0
 43
0.0
 44
0.0
 50
0.0
 71
    16
  0
VIEW
  2
OLE2
 70
     0
 40
12.66566269640963
 10
177.82767580922561
 20
80.089748755761136
 41
24.690026015785861
 11
0.0
 21
0.0
 31
1.0
 12
0.0
 22
0.0
 32
0.0
 42
50.0
 43
0.0
 44
0.0
 50
0.0
 71
    16
  0
ENDTAB
  0
TABLE
  2
UCS
 70
     0
  0
ENDTAB
  0
TABLE
  2
APPID
 70
    47
  0
APPID
  2
ACAD
 70
     0
  0
APPID
  2
COMM
 70
     0
  0
APPID
  2
DCO15
 70
     0
  0
APPID
  2
GENIUS_GENOREF_13
 70
     0
  0
APPID
  2
GENIUS_GENOENT_13
 70
     0
  0
APPID
  2
GENIUS_GENBH_13
 70
     0
  0
APPID
  2
GENIUS_GENOBJ_13
 70
     0
  0
APPID
  2
GENIUS_GENODEF_13
 70
     0
  0
APPID
  2
GENIUS_GENOLIS_13
 70
     0
  0
APPID
  2
GENIUS_GENOBJ-NBEHI-BHF_13
 70
     0
  0
APPID
  2
GENIUS_GENOBJ-NBEHI-BHB_13
 70
     0
  0
APPID
  2
GENIUS_GENOBJ-F-PART_13
 70
     0
  0
APPID
  2
GENIUS_GEFSTDP_13
 70
     0
  0
APPID
  2
GENIUS_GENOBJ-N-RSSYM_13
 70
     0
  0
APPID
  2
GENIUS_GENSYMENT_13
 70
     0
  0
APPID
  2
GENIUS_GENOBJ-N-TIT_13
 70
     0
  0
APPID
  2
GENIUS_GENTITLE_13
 70
     0
  0
APPID
  2
GENIUS_GENZVEED_13
 70
     0
  0
APPID
  2
GENIUS_GENOBJ-N-LEADER_13
 70
     0
  0
APPID
  2
GENIUS_GENOBJ-N-FIL_13
 70
     0
  0
APPID
  2
GENIUS_GENOBJ-N-SEC_13
 70
     0
  0
APPID
  2
GENIUS_GENOBJ-N-CRS_13
 70
     0
  0
APPID
  2
GENIUS_GENOBJ-N-ZOO_13
 70
     0
  0
APPID
  2
GENIUS_GENZOO_13
 70
     0
  0
APPID
  2
GENIUS_GENOBJ-F-TOL_13
 70
     0
  0
APPID
  2
GENIUS_GENFIL_13
 70
     0
  0
APPID
  2
GENIUS_GENOBJ-N-CHA_13
 70
     0
  0
APPID
  2
_CALL_MAC$
 70
     0
  0
APPID
  2
ASM_BASE
 70
     0
  0
APPID
  2
ASM_EXPLO_VER_2_00
 70
     0
  0
APPID
  2
ASM_CADM_VER_12_00
 70
     0
  0
APPID
  2
ASM_BASEFORO
 70
     0
  0
APPID
  2
ASM_BASETRAVI
 70
     0
  0
APPID
  2
ASM_BASETRAVI1
 70
     0
  0
APPID
  2
ASM_GRUPPI
 70
     0
  0
APPID
  2
ASM_CADM_ALBERO
 70
     0
  0
APPID
  2
ASM_GOLE
 70
     0
  0
APPID
  2
GENIUS_GEFINERT_13
 70
     0
  0
APPID
  2
GENIUS_GENOBJ-F-INER_13
 70
     0
  0
APPID
  2
GENIUS_GENDTOL_13
 70
     0
  0
APPID
  2
AD_SKETCHDIM
 70
     0
  0
APPID
  2
GENIUS_GENSCREG_15
 70
     0
  0
APPID
  2
GENIUS_GENOBJ-N-SDF_13
 70
     0
  0
APPID
  2
GENIUS_GENOBJ-N-CEN_13
 70
     0
  0
APPID
  2
ACAD_MLEADERVER
 70
     0
  0
APPID
  2
ACAD_EXEMPT_FROM_CAD_STANDARDS
 70
     0
  0
APPID
  2
ACAD_NAV_VCDISPLAY
 70
     0
  0
ENDTAB
  0
TABLE
  2
DIMSTYLE
 70
     2
  0
DIMSTYLE
  2
ITM
 70
     0
  3

  4

  5

  6

  7

 40
0.0
 41
2.5
 42
1.0
 43
6.0
 44
1.0
 45
0.0
 46
0.0
 47
495.0
 48
0.0
140
3.0
141
0.0
142
0.0
143
25.399999999999999
144
1.0
145
0.0
146
1.0
147
1.0
 71
     0
 72
     0
 73
     0
 74
     0
 75
     0
 76
     0
 77
     3
 78
     8
170
     0
171
     2
172
     1
173
     0
174
     0
175
     0
176
     0
177
     0
178
     0
  0
DIMSTYLE
  2
STANDARD
 70
     0
  3

  4

  5

  6

  7

 40
1.0
 41
0.18
 42
0.0625
 43
0.38
 44
0.18
 45
0.0
 46
0.0
 47
0.0
 48
0.0
140
0.18
141
0.09
142
0.0
143
25.399999999999999
144
1.0
145
0.0
146
1.0
147
0.09
 71
     0
 72
     0
 73
     1
 74
     1
 75
     0
 76
     0
 77
     0
 78
     0
170
     0
171
     2
172
     0
173
     0
174
     0
175
     0
176
     0
177
     0
178
     0
  0
ENDTAB
  0
ENDSEC
  0
SECTION
  2
BLOCKS
  0
BLOCK
  8
0
  2
$MODEL_SPACE
 70
     0
 10
0.0
 20
0.0
 30
0.0
  3
$MODEL_SPACE
  1

  0
ENDBLK
  5
21
  8
0
  0
BLOCK
 67
     1
  8
0
  2
$PAPER_SPACE
 70
     0
 10
0.0
 20
0.0
 30
0.0
  3
$PAPER_SPACE
  1

  0
ENDBLK
  5
76
 67
     1
  8
0
  0
BLOCK
  8
0
  2
ARROW1
 70
     0
 10
0.0
 20
0.0
 30
0.0
  3
ARROW1
  1

  0
SOLID
  5
18C
  8
WAKU
  6
CONTINUOUS
 62
     4
 10
-1.0
 20
0.1666666666666714
 30
0.0
 11
-1.0
 21
-0.1666666666666714
 31
0.0
 12
0.0
 22
0.0
 32
0.0
 13
0.0
 23
0.0
 33
0.0
  0
ENDBLK
  5
3534A
  8
0
  0
ENDSEC
  0
SECTION
  2
ENTITIES
  0
ARC
  5
57606
  8
0
 10
29.111259468264048
 20
55.229913927469731
 30
0.0
 40
1.1143859031821211
 50
99.172266470030664
 51
170.8277335299681
  0
ARC
  5
57607
  8
0
 10
35.910985766694701
 20
55.229913927469731
 30
0.0
 40
1.1143859031821211
 50
9.1722664700318344
 51
80.827733529969336
  0
ARC
  5
57608
  8
0
 10
170.47266600335041
 20
53.83056912717214
 30
0.0
 40
4.5005183489177707
 50
180.8696041994906
 51
359.13039580045893
  0
ARC
  5
57609
  8
0
 10
173.35104438172669
 20
54.708429156632747
 30
0.0
 40
1.6216216216216339
 50
0.0
 51
90.0
  0
ARC
  5
5760A
  8
0
 10
167.59428762497009
 20
54.708429156632747
 30
0.0
 40
1.6216216216216339
 50
90.0
 51
180.0
  0
LINE
  5
5760B
  8
0
 10
167.59428762497009
 20
56.330050778254389
 30
0.0
 11
173.35104438172669
 21
56.330050778254389
 31
0.0
  0
ARC
  5
5760C
  8
3
 10
126.7418943104139
 20
100.19431007414219
 30
0.0
 40
3.577499999999957
 50
270.0
 51
90.0
  0
LINE
  5
5760D
  8
3
 10
111.0049169635983
 20
96.616810074142194
 30
0.0
 11
126.7418943103936
 21
96.616810074142236
 31
0.0
  0
LINE
  5
5760E
  8
3
 10
126.7418943104139
 20
103.77181007414219
 30
0.0
 11
111.0049169635983
 21
103.77181007414219
 31
0.0
  0
POLYLINE
  5
5760F
  8
3
 66
     1
 10
0.0
 20
0.0
 30
0.0
  0
VERTEX
  5
58029
  8
3
 10
110.9994747702485
 20
96.616794021174101
 30
0.0
  0
VERTEX
  5
5802A
  8
3
 10
110.8998388252847
 20
96.616206218991934
 30
0.0
  0
VERTEX
  5
5802B
  8
3
 10
110.6967020697867
 20
96.611397011691196
 30
0.0
  0
VERTEX
  5
5802C
  8
3
 10
110.4922458384479
 20
96.601677312007112
 30
0.0
  0
VERTEX
  5
5802D
  8
3
 10
110.3854381387733
 20
96.594673788372404
 30
0.0
  0
VERTEX
  5
5802E
  8
3
 10
110.2783362675214
 20
96.586354364766024
 30
0.0
  0
VERTEX
  5
5802F
  8
3
 10
110.0718519413705
 20
96.566538770487568
 30
0.0
  0
VERTEX
  5
58030
  8
3
 10
109.86198826173811
 20
96.541237697314557
 30
0.0
  0
VERTEX
  5
58031
  8
3
 10
109.65176120606939
 20
96.510664686208045
 30
0.0
  0
VERTEX
  5
58032
  8
3
 10
109.4414220354259
 20
96.474782247187974
 30
0.0
  0
VERTEX
  5
58033
  8
3
 10
109.2340235551852
 20
96.434116468292572
 30
0.0
  0
VERTEX
  5
58034
  8
3
 10
109.1262638112985
 20
96.410904769322116
 30
0.0
  0
VERTEX
  5
58035
  8
3
 10
109.0186135439575
 20
96.386316932788006
 30
0.0
  0
VERTEX
  5
58036
  8
3
 10
108.8121700521566
 20
96.335100024946655
 30
0.0
  0
VERTEX
  5
58037
  8
3
 10
108.60381111376481
 20
96.277868201909442
 30
0.0
  0
VERTEX
  5
58038
  8
3
 10
108.3965483578263
 20
96.215338894614874
 30
0.0
  0
VERTEX
  5
58039
  8
3
 10
108.1906183111965
 20
96.147555200639317
 30
0.0
  0
VERTEX
  5
5803A
  8
3
 10
107.9889720433813
 20
96.075544130766545
 30
0.0
  0
VERTEX
  5
5803B
  8
3
 10
107.88474810062991
 20
96.036103195849122
 30
0.0
  0
VERTEX
  5
5803C
  8
3
 10
107.7810101561473
 20
95.995354504853964
 30
0.0
  0
VERTEX
  5
5803D
  8
3
 10
107.58309663808571
 20
95.913290928956116
 30
0.0
  0
VERTEX
  5
5803E
  8
3
 10
107.38730334078529
 20
95.826299864173507
 30
0.0
  0
VERTEX
  5
5803F
  8
3
 10
107.29157037756561
 20
95.781594898028615
 30
0.0
  0
SEQEND
  5
58040
  8
3
  0
POLYLINE
  5
57610
  8
3
 66
     1
 10
0.0
 20
0.0
 30
0.0
  0
VERTEX
  5
58041
  8
3
 10
107.28412183302849
 20
95.778076013656076
 30
0.0
  0
VERTEX
  5
58042
  8
3
 10
107.24338594762111
 20
95.758608379176493
 30
0.0
  0
VERTEX
  5
58043
  8
3
 10
107.1600945819807
 20
95.717973013258117
 30
0.0
  0
VERTEX
  5
58044
  8
3
 10
107.0759145314521
 20
95.675760155331915
 30
0.0
  0
VERTEX
  5
58045
  8
3
 10
107.03178572817239
 20
95.653171662279803
 30
0.0
  0
VERTEX
  5
58046
  8
3
 10
106.9874042727857
 20
95.630139716949799
 30
0.0
  0
VERTEX
  5
58047
  8
3
 10
106.9015123283324
 20
95.584636531911727
 30
0.0
  0
VERTEX
  5
58048
  8
3
 10
106.81374851857061
 20
95.536848030006965
 30
0.0
  0
VERTEX
  5
58049
  8
3
 10
106.7253231560623
 20
95.487360505413776
 30
0.0
  0
VERTEX
  5
5804A
  8
3
 10
106.63631301207479
 20
95.436161630266668
 30
0.0
  0
VERTEX
  5
5804B
  8
3
 10
106.54800437431889
 20
95.383956127443426
 30
0.0
  0
VERTEX
  5
5804C
  8
3
 10
106.5019000259701
 20
95.356136323390757
 30
0.0
  0
VERTEX
  5
5804D
  8
3
 10
106.45566816912179
 20
95.327855502678275
 30
0.0
  0
VERTEX
  5
5804E
  8
3
 10
106.3665591888256
 20
95.272215505867209
 30
0.0
  0
VERTEX
  5
5804F
  8
3
 10
106.275998216752
 20
95.214103386679511
 30
0.0
  0
VERTEX
  5
58050
  8
3
 10
106.18524799505551
 20
95.154259075604685
 30
0.0
  0
VERTEX
  5
58051
  8
3
 10
106.09438158744589
 20
95.092682061144302
 30
0.0
  0
VERTEX
  5
58052
  8
3
 10
106.0046621937359
 20
95.030202753508107
 30
0.0
  0
VERTEX
  5
58053
  8
3
 10
105.9579853341515
 20
94.997027318731597
 30
0.0
  0
VERTEX
  5
58054
  8
3
 10
105.91129607387781
 20
94.963387853444459
 30
0.0
  0
VERTEX
  5
58055
  8
3
 10
105.82161929238551
 20
94.897440491100184
 30
0.0
  0
VERTEX
  5
58056
  8
3
 10
105.7321210412
 20
94.829806030502553
 30
0.0
  0
VERTEX
  5
58057
  8
3
 10
105.65757224631309
 20
94.784884634748266
 30
0.0
  0
SEQEND
  5
58058
  8
3
  0
POLYLINE
  5
57611
  8
3
 66
     1
 10
0.0
 20
0.0
 30
0.0
  0
VERTEX
  5
58059
  8
3
 10
107.28412183302849
 20
104.6105441346283
 30
0.0
  0
VERTEX
  5
5805A
  8
3
 10
107.24338594762111
 20
104.6300117691079
 30
0.0
  0
VERTEX
  5
5805B
  8
3
 10
107.1600945819807
 20
104.6706471350263
 30
0.0
  0
VERTEX
  5
5805C
  8
3
 10
107.0759145314521
 20
104.7128599929525
 30
0.0
  0
VERTEX
  5
5805D
  8
3
 10
107.03178572817239
 20
104.7354484860046
 30
0.0
  0
VERTEX
  5
5805E
  8
3
 10
106.9874042727857
 20
104.7584804313346
 30
0.0
  0
VERTEX
  5
5805F
  8
3
 10
106.9015123283324
 20
104.80398361637261
 30
0.0
  0
VERTEX
  5
58060
  8
3
 10
106.81374851857061
 20
104.8517721182774
 30
0.0
  0
VERTEX
  5
58061
  8
3
 10
106.7253231560623
 20
104.9012596428706
 30
0.0
  0
VERTEX
  5
58062
  8
3
 10
106.63631301207479
 20
104.95245851801771
 30
0.0
  0
VERTEX
  5
58063
  8
3
 10
106.54800437431889
 20
105.00466402084091
 30
0.0
  0
VERTEX
  5
58064
  8
3
 10
106.5019000259701
 20
105.0324838248936
 30
0.0
  0
VERTEX
  5
58065
  8
3
 10
106.45566816912179
 20
105.0607646456061
 30
0.0
  0
VERTEX
  5
58066
  8
3
 10
106.3665591888256
 20
105.11640464241719
 30
0.0
  0
VERTEX
  5
58067
  8
3
 10
106.275998216752
 20
105.17451676160491
 30
0.0
  0
VERTEX
  5
58068
  8
3
 10
106.18524799505551
 20
105.2343610726797
 30
0.0
  0
VERTEX
  5
58069
  8
3
 10
106.09438158744589
 20
105.2959380871401
 30
0.0
  0
VERTEX
  5
5806A
  8
3
 10
106.0046621937359
 20
105.3584173947763
 30
0.0
  0
VERTEX
  5
5806B
  8
3
 10
105.9579853341515
 20
105.39159282955281
 30
0.0
  0
VERTEX
  5
5806C
  8
3
 10
105.91129607387781
 20
105.4252322948399
 30
0.0
  0
VERTEX
  5
5806D
  8
3
 10
105.82161929238551
 20
105.4911796571842
 30
0.0
  0
VERTEX
  5
5806E
  8
3
 10
105.7321210412
 20
105.55881411778179
 30
0.0
  0
VERTEX
  5
5806F
  8
3
 10
105.65757224631309
 20
105.60373551353609
 30
0.0
  0
SEQEND
  5
58070
  8
3
  0
POLYLINE
  5
57612
  8
3
 66
     1
 10
0.0
 20
0.0
 30
0.0
  0
VERTEX
  5
58071
  8
3
 10
110.9994747702485
 20
103.7718261271103
 30
0.0
  0
VERTEX
  5
58072
  8
3
 10
110.8998388252847
 20
103.7724139292924
 30
0.0
  0
VERTEX
  5
58073
  8
3
 10
110.6967020697867
 20
103.77722313659319
 30
0.0
  0
VERTEX
  5
58074
  8
3
 10
110.4922458384479
 20
103.7869428362773
 30
0.0
  0
VERTEX
  5
58075
  8
3
 10
110.3854381387733
 20
103.793946359912
 30
0.0
  0
VERTEX
  5
58076
  8
3
 10
110.2783362675214
 20
103.80226578351839
 30
0.0
  0
VERTEX
  5
58077
  8
3
 10
110.0718519413705
 20
103.82208137779681
 30
0.0
  0
VERTEX
  5
58078
  8
3
 10
109.86198826173811
 20
103.8473824509698
 30
0.0
  0
VERTEX
  5
58079
  8
3
 10
109.65176120606939
 20
103.8779554620763
 30
0.0
  0
VERTEX
  5
5807A
  8
3
 10
109.4414220354259
 20
103.9138379010964
 30
0.0
  0
VERTEX
  5
5807B
  8
3
 10
109.2340235551852
 20
103.9545036799918
 30
0.0
  0
VERTEX
  5
5807C
  8
3
 10
109.1262638112985
 20
103.9777153789623
 30
0.0
  0
VERTEX
  5
5807D
  8
3
 10
109.0186135439575
 20
104.0023032154964
 30
0.0
  0
VERTEX
  5
5807E
  8
3
 10
108.8121700521566
 20
104.05352012333771
 30
0.0
  0
VERTEX
  5
5807F
  8
3
 10
108.60381111376481
 20
104.1107519463749
 30
0.0
  0
VERTEX
  5
58080
  8
3
 10
108.3965483578263
 20
104.1732812536695
 30
0.0
  0
VERTEX
  5
58081
  8
3
 10
108.1906183111965
 20
104.2410649476451
 30
0.0
  0
VERTEX
  5
58082
  8
3
 10
107.9889720433813
 20
104.3130760175178
 30
0.0
  0
VERTEX
  5
58083
  8
3
 10
107.88474810062991
 20
104.35251695243529
 30
0.0
  0
VERTEX
  5
58084
  8
3
 10
107.7810101561473
 20
104.3932656434304
 30
0.0
  0
VERTEX
  5
58085
  8
3
 10
107.58309663808571
 20
104.4753292193283
 30
0.0
  0
VERTEX
  5
58086
  8
3
 10
107.38730334078529
 20
104.5623202841109
 30
0.0
  0
VERTEX
  5
58087
  8
3
 10
107.29157037756561
 20
104.6070252502558
 30
0.0
  0
SEQEND
  5
58088
  8
3
  0
ARC
  5
57613
  8
3
 10
93.722027391283916
 20
100.19431007414219
 30
0.0
 40
14.48250673635196
 50
342.75155316026019
 51
17.248446839739831
  0
ARC
  5
57614
  8
3
 10
101.4918943104139
 20
100.19431007414219
 30
0.0
 40
6.8274999999999988
 50
52.400933895312868
 51
307.59906610468789
  0
LINE
  5
57615
  8
0
 10
124.63561515724329
 20
51.609474636058749
 30
0.0
 11
121.2265659034983
 21
51.01806629585586
 31
0.0
  0
POLYLINE
  5
57617
  8
0
 66
     1
 10
0.0
 20
0.0
 30
0.0
  0
VERTEX
  5
58089
  8
0
 10
128.51189431041391
 20
49.330050778254403
 30
0.0
  0
VERTEX
  5
5808A
  8
0
 10
128.59328225778481
 20
49.330050778254403
 30
0.0
  0
VERTEX
  5
5808B
  8
0
 10
128.61894663948749
 20
49.330050778254403
 30
0.0
  0
VERTEX
  5
5808C
  8
0
 10
128.68285088402959
 20
49.330050778254403
 30
0.0
  0
VERTEX
  5
5808D
  8
0
 10
128.74622096728919
 20
49.330050778254403
 30
0.0
  0
VERTEX
  5
5808E
  8
0
 10
128.84739435782959
 20
49.330050778254403
 30
0.0
  0
VERTEX
  5
5808F
  8
0
 10
128.8949199416154
 20
49.330050778254403
 30
0.0
  0
VERTEX
  5
58090
  8
0
 10
129.03531452093759
 20
49.3363966841574
 30
0.0
  0
VERTEX
  5
58091
  8
0
 10
129.22065863647049
 20
49.369798613878963
 30
0.0
  0
VERTEX
  5
58092
  8
0
 10
129.47002123577809
 20
49.424543972431238
 30
0.0
  0
VERTEX
  5
58093
  8
0
 10
129.69631361830241
 20
49.510599306389487
 30
0.0
  0
VERTEX
  5
58094
  8
0
 10
130.0097767693498
 20
49.668855192442933
 30
0.0
  0
VERTEX
  5
58095
  8
0
 10
130.35425796364251
 20
50.016166707196007
 30
0.0
  0
VERTEX
  5
58096
  8
0
 10
130.61399395370631
 20
50.4316871839154
 30
0.0
  0
VERTEX
  5
58097
  8
0
 10
130.8340783506232
 20
50.859955629895794
 30
0.0
  0
VERTEX
  5
58098
  8
0
 10
131.02342555910781
 20
51.406735446516542
 30
0.0
  0
VERTEX
  5
58099
  8
0
 10
131.14965520769849
 20
51.848365449359207
 30
0.0
  0
VERTEX
  5
5809A
  8
0
 10
131.21422445870391
 20
52.388677084532318
 30
0.0
  0
VERTEX
  5
5809B
  8
0
 10
131.2418943104139
 20
53.306161933800112
 30
0.0
  0
SEQEND
  5
5809C
  8
0
  0
LINE
  5
5763B
  8
0
 10
173.97266600334851
 20
26.530050778254409
 30
0.0
 11
173.97266600334851
 21
26.330050778254389
 31
0.0
  0
LINE
  5
5763C
  8
0
 10
166.97266600334839
 20
26.530050778254409
 30
0.0
 11
166.97266600334839
 21
26.330050778254389
 31
0.0
  0
LINE
  5
5763D
  8
0
 10
166.97266600334839
 20
26.330050778254389
 30
0.0
 11
173.97266600334851
 21
26.330050778254389
 31
0.0
  0
LINE
  5
5763E
  8
0
 10
176.47266600334839
 20
32.330050778254389
 30
0.0
 11
176.47266600334839
 21
27.03005077825452
 31
0.0
  0
LINE
  5
5763F
  8
0
 10
175.97266600334851
 20
26.530050778254409
 30
0.0
 11
176.47266600334839
 21
27.03005077825452
 31
0.0
  0
LINE
  5
57640
  8
0
 10
164.47266600334839
 20
32.330050778254389
 30
0.0
 11
164.47266600334839
 21
27.03005077825452
 31
0.0
  0
LINE
  5
57641
  8
0
 10
164.97266600334831
 20
26.530050778254409
 30
0.0
 11
175.97266600334851
 21
26.530050778254409
 31
0.0
  0
LINE
  5
57642
  8
0
 10
164.97266600334831
 20
26.530050778254409
 30
0.0
 11
164.47266600334839
 21
27.03005077825452
 31
0.0
  0
LINE
  5
57643
  8
0
 10
176.47266600334839
 20
31.530050778254409
 30
0.0
 11
164.47266600334839
 21
31.530050778254409
 31
0.0
  0
LINE
  5
5767A
  8
0
 10
38.511122617479373
 20
31.530050778254392
 30
0.0
 11
26.511122617479369
 21
31.530050778254392
 31
0.0
  0
LINE
  5
5767B
  8
0
 10
27.01112261747932
 20
26.530050778254392
 30
0.0
 11
26.511122617479369
 21
27.030050778254509
 31
0.0
  0
LINE
  5
5767C
  8
0
 10
27.01112261747932
 20
26.530050778254392
 30
0.0
 11
38.01112261747943
 21
26.530050778254392
 31
0.0
  0
LINE
  5
5767D
  8
0
 10
26.511122617479369
 20
32.330050778254382
 30
0.0
 11
26.511122617479369
 21
27.030050778254509
 31
0.0
  0
LINE
  5
5767E
  8
0
 10
38.01112261747943
 20
26.530050778254392
 30
0.0
 11
38.511122617479373
 21
27.030050778254509
 31
0.0
  0
LINE
  5
5767F
  8
0
 10
38.511122617479373
 20
32.330050778254382
 30
0.0
 11
38.511122617479373
 21
27.030050778254509
 31
0.0
  0
LINE
  5
57680
  8
0
 10
29.011122617479369
 20
26.330050778254371
 30
0.0
 11
36.01112261747943
 21
26.330050778254371
 31
0.0
  0
LINE
  5
57681
  8
0
 10
29.011122617479369
 20
26.530050778254392
 30
0.0
 11
29.011122617479369
 21
26.330050778254371
 31
0.0
  0
LINE
  5
57682
  8
0
 10
36.01112261747943
 20
26.530050778254392
 30
0.0
 11
36.01112261747943
 21
26.330050778254371
 31
0.0
  0
ARC
  5
576A6
  8
0
 10
128.68913904700341
 20
53.777295514843829
 30
0.0
 40
2.560195098730937
 50
4.3690597804382021
 51
85.630940219576473
  0
POLYLINE
  5
576A7
  8
0
 66
     1
 10
0.0
 20
0.0
 30
0.0
  0
VERTEX
  5
5809D
  8
0
 10
128.48189431041391
 20
49.330050778254403
 30
0.0
  0
VERTEX
  5
5809E
  8
0
 10
128.38884679464331
 20
49.334276877287131
 30
0.0
  0
VERTEX
  5
5809F
  8
0
 10
128.3275456322753
 20
49.347728298852061
 30
0.0
  0
VERTEX
  5
580A0
  8
0
 10
128.27670844419339
 20
49.364167769402549
 30
0.0
  0
VERTEX
  5
580A1
  8
0
 10
128.20195075227431
 20
49.397049311068351
 30
0.0
  0
VERTEX
  5
580A2
  8
0
 10
128.1421431486819
 20
49.432918901719951
 30
0.0
  0
VERTEX
  5
580A3
  8
0
 10
128.07340138100611
 20
49.470490562050472
 30
0.0
  0
VERTEX
  5
580A4
  8
0
 10
127.9922761260061
 20
49.517794836243958
 30
0.0
  0
VERTEX
  5
580A5
  8
0
 10
127.917909949494
 20
49.568477244146933
 30
0.0
  0
VERTEX
  5
580A6
  8
0
 10
127.8570655551013
 20
49.636055521727577
 30
0.0
  0
VERTEX
  5
580A7
  8
0
 10
127.816503833887
 20
49.703632499025943
 30
0.0
  0
VERTEX
  5
580A8
  8
0
 10
127.7348746840573
 20
49.873321954517998
 30
0.0
  0
VERTEX
  5
580A9
  8
0
 10
127.6584004870892
 20
50.116984476498928
 30
0.0
  0
VERTEX
  5
580AA
  8
0
 10
127.5819262901209
 20
50.33675951026644
 30
0.0
  0
VERTEX
  5
580AB
  8
0
 10
127.4719938389792
 20
50.537422993124082
 30
0.0
  0
VERTEX
  5
580AC
  8
0
 10
127.3620632004088
 20
50.747642251436538
 30
0.0
  0
VERTEX
  5
580AD
  8
0
 10
127.24181721840159
 20
50.924160790162993
 30
0.0
  0
VERTEX
  5
580AE
  8
0
 10
127.0714101374183
 20
51.147727447447423
 30
0.0
  0
VERTEX
  5
580AF
  8
0
 10
126.9489328801041
 20
51.291448962864798
 30
0.0
  0
VERTEX
  5
580B0
  8
0
 10
126.9287027714943
 20
51.314158395211827
 30
0.0
  0
SEQEND
  5
580B1
  8
0
  0
ARC
  5
576A8
  8
0
 10
126.06809788965199
 20
35.087274469850641
 30
0.0
 40
16.650242045581901
 50
106.9045679124865
 51
141.50226456205539
  0
LINE
  5
576A9
  8
0
 10
109.2418943104139
 20
32.33005077825441
 30
0.0
 11
109.2418943104139
 21
40.054374540342558
 31
0.0
  0
ARC
  5
576AA
  8
2
 10
131.8541772616301
 20
-15.07540428618792
 30
0.0
 40
68.85572414054829
 50
93.278675296640387
 51
108.16445797253181
  0
LINE
  5
576AB
  8
2
 10
109.2418958553873
 20
48.830069638713631
 30
0.0
 11
109.2418943104139
 21
40.054374540342323
 31
0.0
  0
ARC
  5
576AC
  8
2
 10
110.8267729643452
 20
48.825797547718757
 30
0.0
 40
1.5848828667319399
 50
106.04549319204069
 51
179.8455576211629
  0
ARC
  5
576AD
  8
2
 10
127.93233371109611
 20
52.707751309665618
 30
0.0
 40
0.9599999999999999
 50
1.0000000000001461
 51
90.965973498775256
  0
LINE
  5
576AE
  8
2
 10
128.89789109824741
 20
49.330185076034986
 30
0.0
 11
128.85089168584329
 21
52.022779609330023
 31
0.0
  0
CIRCLE
  5
576AF
  8
0
 10
111.7418943104139
 20
100.19431007414219
 30
0.0
 40
0.5
  0
CIRCLE
  5
576B0
  8
0
 10
115.7418943104138
 20
100.19431007414219
 30
0.0
 40
0.5
  0
CIRCLE
  5
576B1
  8
0
 10
117.7418943104138
 20
100.19431007414219
 30
0.0
 40
0.5
  0
CIRCLE
  5
576B2
  8
0
 10
109.7418943104139
 20
100.19431007414219
 30
0.0
 40
0.5
  0
CIRCLE
  5
576B3
  8
0
 10
113.7418943104139
 20
100.19431007414219
 30
0.0
 40
0.5
  0
LINE
  5
576B4
  8
0
 10
27.25362276397334
 20
53.588316783292818
 30
0.0
 11
28.636122617479369
 21
53.588316783292818
 31
0.0
  0
LINE
  5
576B5
  8
0
 10
37.768622470985413
 20
53.588316783292818
 30
0.0
 11
36.386122617479373
 21
53.588316783292818
 31
0.0
  0
LINE
  5
576B6
  8
0
 10
36.386122617479373
 20
55.53505077825438
 30
0.0
 11
36.386122617479373
 21
51.405050778254392
 31
0.0
  0
LINE
  5
576B7
  8
0
 10
36.091122617479421
 20
55.830050778254368
 30
0.0
 11
28.931122617479389
 21
55.830050778254368
 31
0.0
  0
ARC
  5
576B8
  8
0
 10
36.091122617479421
 20
55.53505077825438
 30
0.0
 40
0.2950000000000048
 50
0.0
 51
90.0
  0
LINE
  5
576B9
  8
0
 10
28.636122617479369
 20
55.53505077825438
 30
0.0
 11
28.636122617479369
 21
51.405050778254392
 31
0.0
  0
ARC
  5
576BA
  8
0
 10
28.931122617479389
 20
55.53505077825438
 30
0.0
 40
0.2950000000000088
 50
90.0
 51
180.0
  0
LINE
  5
576BB
  8
0
 10
24.76112261747938
 20
51.405050778254392
 30
0.0
 11
40.261122617479373
 21
51.405050778254392
 31
0.0
  0
LINE
  5
576BC
  8
0
 10
40.261122617479373
 20
51.40505077825437
 30
0.0
 11
40.261122617479373
 21
32.330050778254382
 31
0.0
  0
LINE
  5
576BD
  8
0
 10
24.76112261747938
 20
32.330050778254382
 30
0.0
 11
24.76112261747938
 21
51.40505077825437
 31
0.0
  0
LINE
  5
576BE
  8
1
 10
32.511122617479373
 20
61.330050778254368
 30
0.0
 11
32.511122617479373
 21
21.33005077825441
 31
0.0
  0
LINE
  5
576BF
  8
0
 10
28.011122617479369
 20
55.407550778254162
 30
0.0
 11
28.011122617479369
 21
53.74838138470453
 31
0.0
  0
POLYLINE
  5
576C0
  8
0
 66
     1
 10
0.0
 20
0.0
 30
0.0
  0
VERTEX
  5
580B2
  8
0
 10
27.262552503325761
 20
53.607550778254392
 30
0.0
  0
VERTEX
  5
580B3
  8
0
 10
27.24469302462359
 20
53.569082788336821
 30
0.0
  0
VERTEX
  5
580B4
  8
0
 10
27.20790101651971
 20
53.493122732146887
 30
0.0
  0
VERTEX
  5
580B5
  8
0
 10
27.169659369231798
 20
53.418496272538754
 30
0.0
  0
VERTEX
  5
580B6
  8
0
 10
27.149988355652631
 20
53.381694903045457
 30
0.0
  0
VERTEX
  5
580B7
  8
0
 10
27.129947330826329
 20
53.345240829910509
 30
0.0
  0
VERTEX
  5
580B8
  8
0
 10
27.08874648690437
 20
53.273391998755848
 30
0.0
  0
VERTEX
  5
580B9
  8
0
 10
27.046040841154309
 20
53.202983251202681
 30
0.0
  0
VERTEX
  5
580BA
  8
0
 10
27.001816872849531
 20
53.13404566702836
 30
0.0
  0
VERTEX
  5
580BB
  8
0
 10
26.956063568250102
 20
53.066607690067173
 30
0.0
  0
VERTEX
  5
580BC
  8
0
 10
26.90877242317185
 20
53.000694911508759
 30
0.0
  0
VERTEX
  5
580BD
  8
0
 10
26.884548182670422
 20
52.968317641698889
 30
0.0
  0
VERTEX
  5
580BE
  8
0
 10
26.859937414057871
 20
52.936329880584118
 30
0.0
  0
VERTEX
  5
580BF
  8
0
 10
26.809554935017669
 20
52.8735319431173
 30
0.0
  0
VERTEX
  5
580C0
  8
0
 10
26.75762369847542
 20
52.812317108382537
 30
0.0
  0
VERTEX
  5
580C1
  8
0
 10
26.704144597305969
 20
52.75269794464792
 30
0.0
  0
VERTEX
  5
580C2
  8
0
 10
26.649117670774331
 20
52.694680575435051
 30
0.0
  0
VERTEX
  5
580C3
  8
0
 10
26.592522784884299
 20
52.638246905930963
 30
0.0
  0
VERTEX
  5
580C4
  8
0
 10
26.56363724254863
 20
52.610624184724372
 30
0.0
  0
VERTEX
  5
580C5
  8
0
 10
26.534361087206779
 20
52.583398557075931
 30
0.0
  0
VERTEX
  5
580C6
  8
0
 10
26.474642401223601
 20
52.530140592936903
 30
0.0
  0
VERTEX
  5
580C7
  8
0
 10
26.413379427814
 20
52.478475243412149
 30
0.0
  0
VERTEX
  5
580C8
  8
0
 10
26.38217355236009
 20
52.453239699470103
 30
0.0
  0
SEQEND
  5
580C9
  8
0
  0
POLYLINE
  5
576C1
  8
0
 66
     1
 10
0.0
 20
0.0
 30
0.0
  0
VERTEX
  5
580CA
  8
0
 10
28.011122617479369
 20
53.748381384704551
 30
0.0
  0
VERTEX
  5
580CB
  8
0
 10
28.01058317283832
 20
53.742988946362729
 30
0.0
  0
VERTEX
  5
580CC
  8
0
 10
28.00622817084491
 20
53.732401282919959
 30
0.0
  0
VERTEX
  5
580CD
  8
0
 10
27.997424201289959
 20
53.722093595923432
 30
0.0
  0
VERTEX
  5
580CE
  8
0
 10
27.99132665389067
 20
53.717050770097991
 30
0.0
  0
VERTEX
  5
580CF
  8
0
 10
27.984085890856591
 20
53.712084967379297
 30
0.0
  0
VERTEX
  5
580D0
  8
0
 10
27.966141184488269
 20
53.702392821608868
 30
0.0
  0
VERTEX
  5
580D1
  8
0
 10
27.943531236934291
 20
53.6930328179211
 30
0.0
  0
VERTEX
  5
580D2
  8
0
 10
27.916210120436521
 20
53.684018767094138
 30
0.0
  0
VERTEX
  5
580D3
  8
0
 10
27.884144344414381
 20
53.675362571388789
 30
0.0
  0
VERTEX
  5
580D4
  8
0
 10
27.847312188308191
 20
53.667074189346941
 30
0.0
  0
VERTEX
  5
580D5
  8
0
 10
27.82710502669886
 20
53.663070521922371
 30
0.0
  0
VERTEX
  5
580D6
  8
0
 10
27.805703337022749
 20
53.659161710759591
 30
0.0
  0
VERTEX
  5
580D7
  8
0
 10
27.759319633027651
 20
53.651631577669818
 30
0.0
  0
VERTEX
  5
580D8
  8
0
 10
27.708175361501279
 20
53.644488602271551
 30
0.0
  0
VERTEX
  5
580D9
  8
0
 10
27.652297089650752
 20
53.637735925936447
 30
0.0
  0
VERTEX
  5
580DA
  8
0
 10
27.59172333871874
 20
53.631375001486148
 30
0.0
  0
VERTEX
  5
580DB
  8
0
 10
27.526504092049379
 20
53.62540559815158
 30
0.0
  0
VERTEX
  5
580DC
  8
0
 10
27.492171003350219
 20
53.622567190473013
 30
0.0
  0
VERTEX
  5
580DD
  8
0
 10
27.456700137277782
 20
53.619825827804377
 30
0.0
  0
VERTEX
  5
580DE
  8
0
 10
27.38237790715414
 20
53.614631907943448
 30
0.0
  0
VERTEX
  5
580DF
  8
0
 10
27.303592855662149
 20
53.609817511629188
 30
0.0
  0
VERTEX
  5
580E0
  8
0
 10
27.262552503325761
 20
53.607550778254407
 30
0.0
  0
SEQEND
  5
580E1
  8
0
  0
LINE
  5
576C2
  8
0
 10
37.011122617479373
 20
55.407550778254162
 30
0.0
 11
37.011122617479373
 21
53.74838138470453
 31
0.0
  0
LINE
  5
576C3
  8
0
 10
36.088622617479359
 20
56.330050778254368
 30
0.0
 11
28.93362261747939
 21
56.330050778254368
 31
0.0
  0
POLYLINE
  5
576C4
  8
0
 66
     1
 10
0.0
 20
0.0
 30
0.0
  0
VERTEX
  5
580E2
  8
0
 10
37.759692731632981
 20
53.607550778254421
 30
0.0
  0
VERTEX
  5
580E3
  8
0
 10
37.718652379296657
 20
53.609817511629188
 30
0.0
  0
VERTEX
  5
580E4
  8
0
 10
37.639867327804609
 20
53.614631907943462
 30
0.0
  0
VERTEX
  5
580E5
  8
0
 10
37.565545097680968
 20
53.619825827804377
 30
0.0
  0
VERTEX
  5
580E6
  8
0
 10
37.530074231608523
 20
53.622567190473013
 30
0.0
  0
VERTEX
  5
580E7
  8
0
 10
37.495741142909367
 20
53.62540559815158
 30
0.0
  0
VERTEX
  5
580E8
  8
0
 10
37.430521896240009
 20
53.631375001486148
 30
0.0
  0
VERTEX
  5
580E9
  8
0
 10
37.369948145308001
 20
53.637735925936447
 30
0.0
  0
VERTEX
  5
580EA
  8
0
 10
37.31406987345747
 20
53.644488602271551
 30
0.0
  0
VERTEX
  5
580EB
  8
0
 10
37.262925601931101
 20
53.651631577669818
 30
0.0
  0
VERTEX
  5
580EC
  8
0
 10
37.216541897935997
 20
53.659161710759591
 30
0.0
  0
VERTEX
  5
580ED
  8
0
 10
37.195140208259893
 20
53.663070521922371
 30
0.0
  0
VERTEX
  5
580EE
  8
0
 10
37.174933046650551
 20
53.667074189346941
 30
0.0
  0
VERTEX
  5
580EF
  8
0
 10
37.138100890544372
 20
53.675362571388789
 30
0.0
  0
VERTEX
  5
580F0
  8
0
 10
37.106035114522228
 20
53.684018767094138
 30
0.0
  0
VERTEX
  5
580F1
  8
0
 10
37.078713998024462
 20
53.6930328179211
 30
0.0
  0
VERTEX
  5
580F2
  8
0
 10
37.056104050470481
 20
53.702392821608868
 30
0.0
  0
VERTEX
  5
580F3
  8
0
 10
37.038159344102148
 20
53.712084967379297
 30
0.0
  0
VERTEX
  5
580F4
  8
0
 10
37.030918581068079
 20
53.717050770097991
 30
0.0
  0
VERTEX
  5
580F5
  8
0
 10
37.024821033668793
 20
53.722093595923432
 30
0.0
  0
VERTEX
  5
580F6
  8
0
 10
37.016017064113839
 20
53.732401282919959
 30
0.0
  0
VERTEX
  5
580F7
  8
0
 10
37.011662062120422
 20
53.742988946362729
 30
0.0
  0
VERTEX
  5
580F8
  8
0
 10
37.011122617479373
 20
53.74838138470453
 30
0.0
  0
SEQEND
  5
580F9
  8
0
  0
POLYLINE
  5
576C5
  8
0
 66
     1
 10
0.0
 20
0.0
 30
0.0
  0
VERTEX
  5
580FA
  8
0
 10
38.640071682598659
 20
52.453239699470103
 30
0.0
  0
VERTEX
  5
580FB
  8
0
 10
38.608865807144923
 20
52.478475243412028
 30
0.0
  0
VERTEX
  5
580FC
  8
0
 10
38.547602833735482
 20
52.530140592936561
 30
0.0
  0
VERTEX
  5
580FD
  8
0
 10
38.487884147752652
 20
52.583398557075341
 30
0.0
  0
VERTEX
  5
580FE
  8
0
 10
38.458607992410862
 20
52.610624184723662
 30
0.0
  0
VERTEX
  5
580FF
  8
0
 10
38.42972245007536
 20
52.638246905930131
 30
0.0
  0
VERTEX
  5
58100
  8
0
 10
38.373127564185502
 20
52.694680575433949
 30
0.0
  0
VERTEX
  5
58101
  8
0
 10
38.318100637654076
 20
52.752697944646521
 30
0.0
  0
VERTEX
  5
58102
  8
0
 10
38.26462153648481
 20
52.812317108380839
 30
0.0
  0
VERTEX
  5
58103
  8
0
 10
38.212690299942722
 20
52.873531943115289
 30
0.0
  0
VERTEX
  5
58104
  8
0
 10
38.162307820902697
 20
52.936329880581788
 30
0.0
  0
VERTEX
  5
58105
  8
0
 10
38.137697052290257
 20
52.96831764169638
 30
0.0
  0
VERTEX
  5
58106
  8
0
 10
38.113472811788938
 20
53.000694911506081
 30
0.0
  0
VERTEX
  5
58107
  8
0
 10
38.066181666710811
 20
53.066607690064139
 30
0.0
  0
VERTEX
  5
58108
  8
0
 10
38.020428362111488
 20
53.134045667024978
 30
0.0
  0
VERTEX
  5
58109
  8
0
 10
37.976204393806768
 20
53.202983251198923
 30
0.0
  0
VERTEX
  5
5810A
  8
0
 10
37.933498748056877
 20
53.273391998751698
 30
0.0
  0
VERTEX
  5
5810B
  8
0
 10
37.892297904134921
 20
53.345240829905961
 30
0.0
  0
VERTEX
  5
5810C
  8
0
 10
37.872256879308679
 20
53.381694903040717
 30
0.0
  0
VERTEX
  5
5810D
  8
0
 10
37.852585865729573
 20
53.418496272533801
 30
0.0
  0
VERTEX
  5
5810E
  8
0
 10
37.814344218441761
 20
53.493122732141543
 30
0.0
  0
VERTEX
  5
5810F
  8
0
 10
37.777552210337767
 20
53.569082788331272
 30
0.0
  0
VERTEX
  5
58110
  8
0
 10
37.759692731632981
 20
53.607550778254392
 30
0.0
  0
SEQEND
  5
58111
  8
0
  0
POLYLINE
  5
576C6
  8
0
 66
     1
 10
0.0
 20
0.0
 30
0.0
  0
VERTEX
  5
58112
  8
0
 10
26.38217355236009
 20
52.453239699470103
 30
0.0
  0
VERTEX
  5
58113
  8
0
 10
26.313375249130729
 20
52.398424700785299
 30
0.0
  0
VERTEX
  5
58114
  8
0
 10
26.179270408494769
 20
52.291904970836562
 30
0.0
  0
VERTEX
  5
58115
  8
0
 10
26.049989987065519
 20
52.189755497502361
 30
0.0
  0
VERTEX
  5
58116
  8
0
 10
25.98722165548509
 20
52.140401869596531
 30
0.0
  0
VERTEX
  5
58117
  8
0
 10
25.925734305109639
 20
52.092238712179082
 30
0.0
  0
VERTEX
  5
58118
  8
0
 10
25.806700262957978
 20
51.999610471421427
 30
0.0
  0
VERTEX
  5
58119
  8
0
 10
25.693080398081751
 20
51.912119751286802
 30
0.0
  0
VERTEX
  5
5811A
  8
0
 10
25.585062104076489
 20
51.830008476330001
 30
0.0
  0
VERTEX
  5
5811B
  8
0
 10
25.482827056329938
 20
51.753511539874388
 30
0.0
  0
VERTEX
  5
5811C
  8
0
 10
25.386550791708551
 20
51.682857001637373
 30
0.0
  0
VERTEX
  5
5811D
  8
0
 10
25.3407008470673
 20
51.649790512469131
 30
0.0
  0
VERTEX
  5
5811E
  8
0
 10
25.296404658551381
 20
51.618268067224548
 30
0.0
  0
VERTEX
  5
5811F
  8
0
 10
25.21255717571881
 20
51.559964523491658
 30
0.0
  0
VERTEX
  5
58120
  8
0
 10
25.135173359038479
 20
51.508162682361743
 30
0.0
  0
VERTEX
  5
58121
  8
0
 10
25.0644146081593
 20
51.463075806265039
 30
0.0
  0
VERTEX
  5
58122
  8
0
 10
25.000438835109492
 20
51.424914787006301
 30
0.0
  0
VERTEX
  5
58123
  8
0
 10
24.963920612046341
 20
51.40505077825437
 30
0.0
  0
SEQEND
  5
58124
  8
0
  0
LINE
  5
576C7
  8
0
 10
40.261122617479373
 20
51.40505077825437
 30
0.0
 11
40.057660808327107
 21
51.40505077825437
 31
0.0
  0
LINE
  5
576C8
  8
0
 10
24.964584426631632
 20
51.40505077825437
 30
0.0
 11
24.76112261747938
 21
51.40505077825437
 31
0.0
  0
LINE
  5
576C9
  8
0
 10
24.76112261747938
 20
32.330050778254382
 30
0.0
 11
40.261122617479373
 21
32.330050778254382
 31
0.0
  0
POLYLINE
  5
576CA
  8
0
 66
     1
 10
0.0
 20
0.0
 30
0.0
  0
VERTEX
  5
58125
  8
0
 10
40.058324622912437
 20
51.40505077825437
 30
0.0
  0
VERTEX
  5
58126
  8
0
 10
40.021806399849247
 20
51.424914787006301
 30
0.0
  0
VERTEX
  5
58127
  8
0
 10
39.957830626799478
 20
51.463075806265039
 30
0.0
  0
VERTEX
  5
58128
  8
0
 10
39.887071875920242
 20
51.508162682361743
 30
0.0
  0
VERTEX
  5
58129
  8
0
 10
39.809688059239932
 20
51.559964523491672
 30
0.0
  0
VERTEX
  5
5812A
  8
0
 10
39.725840576407343
 20
51.618268067224548
 30
0.0
  0
VERTEX
  5
5812B
  8
0
 10
39.681544387891449
 20
51.649790512469131
 30
0.0
  0
VERTEX
  5
5812C
  8
0
 10
39.635694443250202
 20
51.682857001637373
 30
0.0
  0
VERTEX
  5
5812D
  8
0
 10
39.539418178628807
 20
51.753511539874388
 30
0.0
  0
VERTEX
  5
5812E
  8
0
 10
39.437183130882211
 20
51.830008476330001
 30
0.0
  0
VERTEX
  5
5812F
  8
0
 10
39.329164836876998
 20
51.912119751286802
 30
0.0
  0
VERTEX
  5
58130
  8
0
 10
39.215544972000771
 20
51.999610471421427
 30
0.0
  0
VERTEX
  5
58131
  8
0
 10
39.09651092984911
 20
52.092238712179082
 30
0.0
  0
VERTEX
  5
58132
  8
0
 10
39.035023579473659
 20
52.140401869596531
 30
0.0
  0
VERTEX
  5
58133
  8
0
 10
38.972255247893258
 20
52.189755497502361
 30
0.0
  0
VERTEX
  5
58134
  8
0
 10
38.842974826464001
 20
52.291904970836562
 30
0.0
  0
VERTEX
  5
58135
  8
0
 10
38.70886998582796
 20
52.398424700785299
 30
0.0
  0
VERTEX
  5
58136
  8
0
 10
38.640071682598659
 20
52.453239699470103
 30
0.0
  0
SEQEND
  5
58137
  8
0
  0
POLYLINE
  5
576E5
  8
0
 66
     1
 10
0.0
 20
0.0
 30
0.0
  0
VERTEX
  5
58138
  8
0
 10
162.9254639979153
 20
51.405050778254392
 30
0.0
  0
VERTEX
  5
58139
  8
0
 10
162.96198222097851
 20
51.424914787006308
 30
0.0
  0
VERTEX
  5
5813A
  8
0
 10
163.02595799402829
 20
51.463075806265053
 30
0.0
  0
VERTEX
  5
5813B
  8
0
 10
163.0967167449075
 20
51.508162682361757
 30
0.0
  0
VERTEX
  5
5813C
  8
0
 10
163.17410056158789
 20
51.559964523491679
 30
0.0
  0
VERTEX
  5
5813D
  8
0
 10
163.2579480444204
 20
51.618268067224562
 30
0.0
  0
VERTEX
  5
5813E
  8
0
 10
163.30224423293629
 20
51.649790512469139
 30
0.0
  0
VERTEX
  5
5813F
  8
0
 10
163.34809417757759
 20
51.682857001637387
 30
0.0
  0
VERTEX
  5
58140
  8
0
 10
163.44437044219899
 20
51.75351153987441
 30
0.0
  0
VERTEX
  5
58141
  8
0
 10
163.54660548994559
 20
51.830008476330001
 30
0.0
  0
VERTEX
  5
58142
  8
0
 10
163.6546237839508
 20
51.912119751286802
 30
0.0
  0
VERTEX
  5
58143
  8
0
 10
163.768243648827
 20
51.999610471421448
 30
0.0
  0
VERTEX
  5
58144
  8
0
 10
163.88727769097869
 20
52.092238712179089
 30
0.0
  0
VERTEX
  5
58145
  8
0
 10
163.94876504135411
 20
52.140401869596538
 30
0.0
  0
VERTEX
  5
58146
  8
0
 10
164.01153337293451
 20
52.189755497502368
 30
0.0
  0
VERTEX
  5
58147
  8
0
 10
164.14081379436379
 20
52.291904970836583
 30
0.0
  0
VERTEX
  5
58148
  8
0
 10
164.27491863499981
 20
52.398424700785313
 30
0.0
  0
VERTEX
  5
58149
  8
0
 10
164.34371693822911
 20
52.453239699470117
 30
0.0
  0
SEQEND
  5
5814A
  8
0
  0
LINE
  5
576E6
  8
0
 10
178.22266600334839
 20
32.330050778254389
 30
0.0
 11
162.72266600334839
 21
32.330050778254389
 31
0.0
  0
LINE
  5
576E7
  8
0
 10
178.01920419419611
 20
51.405050778254392
 30
0.0
 11
178.22266600334839
 21
51.405050778254392
 31
0.0
  0
LINE
  5
576E8
  8
0
 10
162.72266600334839
 20
51.405050778254392
 30
0.0
 11
162.92612781250071
 21
51.405050778254392
 31
0.0
  0
POLYLINE
  5
576E9
  8
0
 66
     1
 10
0.0
 20
0.0
 30
0.0
  0
VERTEX
  5
5814B
  8
0
 10
176.60161506846771
 20
52.453239699470117
 30
0.0
  0
VERTEX
  5
5814C
  8
0
 10
176.67041337169701
 20
52.398424700785313
 30
0.0
  0
VERTEX
  5
5814D
  8
0
 10
176.80451821233299
 20
52.291904970836583
 30
0.0
  0
VERTEX
  5
5814E
  8
0
 10
176.93379863376231
 20
52.189755497502368
 30
0.0
  0
VERTEX
  5
5814F
  8
0
 10
176.99656696534271
 20
52.140401869596538
 30
0.0
  0
VERTEX
  5
58150
  8
0
 10
177.0580543157181
 20
52.092238712179089
 30
0.0
  0
VERTEX
  5
58151
  8
0
 10
177.17708835786979
 20
51.999610471421448
 30
0.0
  0
VERTEX
  5
58152
  8
0
 10
177.29070822274599
 20
51.912119751286802
 30
0.0
  0
VERTEX
  5
58153
  8
0
 10
177.39872651675131
 20
51.830008476330001
 30
0.0
  0
VERTEX
  5
58154
  8
0
 10
177.5009615644978
 20
51.75351153987441
 30
0.0
  0
VERTEX
  5
58155
  8
0
 10
177.59723782911919
 20
51.682857001637387
 30
0.0
  0
VERTEX
  5
58156
  8
0
 10
177.6430877737605
 20
51.649790512469139
 30
0.0
  0
VERTEX
  5
58157
  8
0
 10
177.68738396227641
 20
51.618268067224562
 30
0.0
  0
VERTEX
  5
58158
  8
0
 10
177.77123144510901
 20
51.559964523491672
 30
0.0
  0
VERTEX
  5
58159
  8
0
 10
177.84861526178929
 20
51.508162682361757
 30
0.0
  0
VERTEX
  5
5815A
  8
0
 10
177.9193740126685
 20
51.463075806265053
 30
0.0
  0
VERTEX
  5
5815B
  8
0
 10
177.9833497857183
 20
51.424914787006308
 30
0.0
  0
VERTEX
  5
5815C
  8
0
 10
178.01986800878149
 20
51.405050778254392
 30
0.0
  0
SEQEND
  5
5815D
  8
0
  0
POLYLINE
  5
576EA
  8
0
 66
     1
 10
0.0
 20
0.0
 30
0.0
  0
VERTEX
  5
5815E
  8
0
 10
164.34371693822911
 20
52.453239699470117
 30
0.0
  0
VERTEX
  5
5815F
  8
0
 10
164.37492281368279
 20
52.478475243412049
 30
0.0
  0
VERTEX
  5
58160
  8
0
 10
164.43618578709231
 20
52.530140592936583
 30
0.0
  0
VERTEX
  5
58161
  8
0
 10
164.49590447307509
 20
52.583398557075363
 30
0.0
  0
VERTEX
  5
58162
  8
0
 10
164.5251806284169
 20
52.610624184723669
 30
0.0
  0
VERTEX
  5
58163
  8
0
 10
164.55406617075241
 20
52.638246905930153
 30
0.0
  0
VERTEX
  5
58164
  8
0
 10
164.6106610566423
 20
52.694680575433956
 30
0.0
  0
VERTEX
  5
58165
  8
0
 10
164.66568798317371
 20
52.752697944646542
 30
0.0
  0
VERTEX
  5
58166
  8
0
 10
164.71916708434301
 20
52.812317108380853
 30
0.0
  0
VERTEX
  5
58167
  8
0
 10
164.7710983208851
 20
52.87353194311531
 30
0.0
  0
VERTEX
  5
58168
  8
0
 10
164.8214807999251
 20
52.936329880581809
 30
0.0
  0
VERTEX
  5
58169
  8
0
 10
164.8460915685375
 20
52.968317641696402
 30
0.0
  0
VERTEX
  5
5816A
  8
0
 10
164.8703158090388
 20
53.000694911506102
 30
0.0
  0
VERTEX
  5
5816B
  8
0
 10
164.91760695411699
 20
53.06660769006416
 30
0.0
  0
VERTEX
  5
5816C
  8
0
 10
164.96336025871631
 20
53.134045667024992
 30
0.0
  0
VERTEX
  5
5816D
  8
0
 10
165.007584227021
 20
53.202983251198923
 30
0.0
  0
VERTEX
  5
5816E
  8
0
 10
165.05028987277089
 20
53.27339199875172
 30
0.0
  0
VERTEX
  5
5816F
  8
0
 10
165.09149071669279
 20
53.345240829905968
 30
0.0
  0
VERTEX
  5
58170
  8
0
 10
165.11153174151909
 20
53.381694903040739
 30
0.0
  0
VERTEX
  5
58171
  8
0
 10
165.1312027550982
 20
53.418496272533808
 30
0.0
  0
VERTEX
  5
58172
  8
0
 10
165.16944440238601
 20
53.493122732141558
 30
0.0
  0
VERTEX
  5
58173
  8
0
 10
165.20623641048999
 20
53.569082788331279
 30
0.0
  0
VERTEX
  5
58174
  8
0
 10
165.22409588919481
 20
53.607550778254407
 30
0.0
  0
SEQEND
  5
58175
  8
0
  0
POLYLINE
  5
576EB
  8
0
 66
     1
 10
0.0
 20
0.0
 30
0.0
  0
VERTEX
  5
58176
  8
0
 10
165.22409588919481
 20
53.607550778254442
 30
0.0
  0
VERTEX
  5
58177
  8
0
 10
165.26513624153111
 20
53.609817511629203
 30
0.0
  0
VERTEX
  5
58178
  8
0
 10
165.34392129302319
 20
53.614631907943469
 30
0.0
  0
VERTEX
  5
58179
  8
0
 10
165.4182435231468
 20
53.619825827804391
 30
0.0
  0
VERTEX
  5
5817A
  8
0
 10
165.45371438921919
 20
53.622567190473021
 30
0.0
  0
VERTEX
  5
5817B
  8
0
 10
165.4880474779184
 20
53.625405598151602
 30
0.0
  0
VERTEX
  5
5817C
  8
0
 10
165.55326672458779
 20
53.631375001486163
 30
0.0
  0
VERTEX
  5
5817D
  8
0
 10
165.61384047551979
 20
53.637735925936468
 30
0.0
  0
VERTEX
  5
5817E
  8
0
 10
165.6697187473703
 20
53.644488602271558
 30
0.0
  0
VERTEX
  5
5817F
  8
0
 10
165.72086301889669
 20
53.651631577669832
 30
0.0
  0
VERTEX
  5
58180
  8
0
 10
165.7672467228918
 20
53.659161710759598
 30
0.0
  0
VERTEX
  5
58181
  8
0
 10
165.78864841256791
 20
53.663070521922378
 30
0.0
  0
VERTEX
  5
58182
  8
0
 10
165.80885557417719
 20
53.667074189346962
 30
0.0
  0
VERTEX
  5
58183
  8
0
 10
165.8456877302834
 20
53.675362571388803
 30
0.0
  0
VERTEX
  5
58184
  8
0
 10
165.87775350630551
 20
53.684018767094159
 30
0.0
  0
VERTEX
  5
58185
  8
0
 10
165.90507462280331
 20
53.6930328179211
 30
0.0
  0
VERTEX
  5
58186
  8
0
 10
165.92768457035729
 20
53.702392821608882
 30
0.0
  0
VERTEX
  5
58187
  8
0
 10
165.94562927672561
 20
53.712084967379312
 30
0.0
  0
VERTEX
  5
58188
  8
0
 10
165.95287003975969
 20
53.717050770098012
 30
0.0
  0
VERTEX
  5
58189
  8
0
 10
165.95896758715901
 20
53.72209359592344
 30
0.0
  0
VERTEX
  5
5818A
  8
0
 10
165.9677715567139
 20
53.73240128291998
 30
0.0
  0
VERTEX
  5
5818B
  8
0
 10
165.97212655870729
 20
53.742988946362743
 30
0.0
  0
VERTEX
  5
5818C
  8
0
 10
165.97266600334839
 20
53.748381384704551
 30
0.0
  0
SEQEND
  5
5818D
  8
0
  0
LINE
  5
576EC
  8
0
 10
165.97266600334839
 20
54.708429156632747
 30
0.0
 11
165.97266600334839
 21
51.523161877600458
 31
0.0
  0
POLYLINE
  5
576ED
  8
0
 66
     1
 10
0.0
 20
0.0
 30
0.0
  0
VERTEX
  5
5818E
  8
0
 10
174.97266600334839
 20
53.748381384704551
 30
0.0
  0
VERTEX
  5
5818F
  8
0
 10
174.97320544798939
 20
53.742988946362743
 30
0.0
  0
VERTEX
  5
58190
  8
0
 10
174.97756044998289
 20
53.73240128291998
 30
0.0
  0
VERTEX
  5
58191
  8
0
 10
174.98636441953781
 20
53.72209359592344
 30
0.0
  0
VERTEX
  5
58192
  8
0
 10
174.9924619669371
 20
53.717050770098012
 30
0.0
  0
VERTEX
  5
58193
  8
0
 10
174.9997027299712
 20
53.712084967379312
 30
0.0
  0
VERTEX
  5
58194
  8
0
 10
175.0176474363395
 20
53.702392821608882
 30
0.0
  0
VERTEX
  5
58195
  8
0
 10
175.0402573838935
 20
53.6930328179211
 30
0.0
  0
VERTEX
  5
58196
  8
0
 10
175.06757850039119
 20
53.684018767094159
 30
0.0
  0
VERTEX
  5
58197
  8
0
 10
175.09964427641339
 20
53.675362571388803
 30
0.0
  0
VERTEX
  5
58198
  8
0
 10
175.1364764325196
 20
53.667074189346962
 30
0.0
  0
VERTEX
  5
58199
  8
0
 10
175.15668359412891
 20
53.663070521922378
 30
0.0
  0
VERTEX
  5
5819A
  8
0
 10
175.17808528380499
 20
53.659161710759598
 30
0.0
  0
VERTEX
  5
5819B
  8
0
 10
175.22446898780009
 20
53.651631577669832
 30
0.0
  0
VERTEX
  5
5819C
  8
0
 10
175.27561325932649
 20
53.644488602271558
 30
0.0
  0
VERTEX
  5
5819D
  8
0
 10
175.33149153117699
 20
53.637735925936468
 30
0.0
  0
VERTEX
  5
5819E
  8
0
 10
175.392065282109
 20
53.631375001486163
 30
0.0
  0
VERTEX
  5
5819F
  8
0
 10
175.45728452877839
 20
53.625405598151602
 30
0.0
  0
VERTEX
  5
581A0
  8
0
 10
175.49161761747749
 20
53.622567190473021
 30
0.0
  0
VERTEX
  5
581A1
  8
0
 10
175.52708848354999
 20
53.619825827804391
 30
0.0
  0
VERTEX
  5
581A2
  8
0
 10
175.6014107136736
 20
53.614631907943462
 30
0.0
  0
VERTEX
  5
581A3
  8
0
 10
175.68019576516559
 20
53.609817511629203
 30
0.0
  0
VERTEX
  5
581A4
  8
0
 10
175.721236117502
 20
53.607550778254421
 30
0.0
  0
SEQEND
  5
581A5
  8
0
  0
POLYLINE
  5
576EE
  8
0
 66
     1
 10
0.0
 20
0.0
 30
0.0
  0
VERTEX
  5
581A6
  8
0
 10
175.721236117502
 20
53.607550778254407
 30
0.0
  0
VERTEX
  5
581A7
  8
0
 10
175.73909559620421
 20
53.569082788336829
 30
0.0
  0
VERTEX
  5
581A8
  8
0
 10
175.77588760430811
 20
53.493122732146901
 30
0.0
  0
VERTEX
  5
581A9
  8
0
 10
175.814129251596
 20
53.418496272538761
 30
0.0
  0
VERTEX
  5
581AA
  8
0
 10
175.83380026517511
 20
53.381694903045471
 30
0.0
  0
VERTEX
  5
581AB
  8
0
 10
175.8538412900015
 20
53.345240829910523
 30
0.0
  0
VERTEX
  5
581AC
  8
0
 10
175.8950421339234
 20
53.273391998755869
 30
0.0
  0
VERTEX
  5
581AD
  8
0
 10
175.93774777967349
 20
53.202983251202689
 30
0.0
  0
VERTEX
  5
581AE
  8
0
 10
175.98197174797821
 20
53.134045667028367
 30
0.0
  0
VERTEX
  5
581AF
  8
0
 10
176.02772505257769
 20
53.06660769006718
 30
0.0
  0
VERTEX
  5
581B0
  8
0
 10
176.07501619765591
 20
53.000694911508774
 30
0.0
  0
VERTEX
  5
581B1
  8
0
 10
176.09924043815741
 20
52.968317641698903
 30
0.0
  0
VERTEX
  5
581B2
  8
0
 10
176.1238512067699
 20
52.93632988058414
 30
0.0
  0
VERTEX
  5
581B3
  8
0
 10
176.17423368581009
 20
52.873531943117307
 30
0.0
  0
VERTEX
  5
581B4
  8
0
 10
176.22616492235241
 20
52.812317108382551
 30
0.0
  0
VERTEX
  5
581B5
  8
0
 10
176.2796440235218
 20
52.752697944647942
 30
0.0
  0
VERTEX
  5
581B6
  8
0
 10
176.33467095005341
 20
52.694680575435072
 30
0.0
  0
VERTEX
  5
581B7
  8
0
 10
176.3912658359435
 20
52.638246905930977
 30
0.0
  0
VERTEX
  5
581B8
  8
0
 10
176.4201513782792
 20
52.610624184724379
 30
0.0
  0
VERTEX
  5
581B9
  8
0
 10
176.44942753362099
 20
52.583398557075931
 30
0.0
  0
VERTEX
  5
581BA
  8
0
 10
176.50914621960419
 20
52.530140592936917
 30
0.0
  0
VERTEX
  5
581BB
  8
0
 10
176.5704091930138
 20
52.478475243412163
 30
0.0
  0
VERTEX
  5
581BC
  8
0
 10
176.60161506846771
 20
52.453239699470117
 30
0.0
  0
SEQEND
  5
581BD
  8
0
  0
LINE
  5
576EF
  8
0
 10
174.97266600334839
 20
54.708429156632747
 30
0.0
 11
174.97266600334839
 21
51.523161877600458
 31
0.0
  0
LINE
  5
576F8
  8
1
 10
170.47266600334839
 20
61.330050778254368
 30
0.0
 11
170.47266600334839
 21
21.33005077825441
 31
0.0
  0
LINE
  5
576F9
  8
0
 10
178.22266600334839
 20
32.330050778254389
 30
0.0
 11
178.22266600334839
 21
51.405050778254392
 31
0.0
  0
LINE
  5
576FA
  8
0
 10
162.72266600334839
 20
51.405050778254392
 30
0.0
 11
162.72266600334839
 21
32.330050778254389
 31
0.0
  0
LINE
  5
5772B
  8
0
 10
104.9918943104139
 20
26.53005077825442
 30
0.0
 11
104.9918943104139
 21
26.33005077825441
 31
0.0
  0
LINE
  5
5772C
  8
0
 10
97.991894310413912
 20
26.53005077825442
 30
0.0
 11
97.991894310413912
 21
26.33005077825441
 31
0.0
  0
LINE
  5
5772D
  8
0
 10
97.991894310413912
 20
26.33005077825441
 30
0.0
 11
104.9918943104139
 21
26.33005077825441
 31
0.0
  0
LINE
  5
5772E
  8
0
 10
107.4918943104139
 20
32.33005077825441
 30
0.0
 11
107.4918943104139
 21
27.030050778254541
 31
0.0
  0
LINE
  5
5772F
  8
0
 10
106.9918943104139
 20
26.53005077825442
 30
0.0
 11
107.4918943104139
 21
27.030050778254541
 31
0.0
  0
LINE
  5
57730
  8
0
 10
95.491894310413883
 20
32.33005077825441
 30
0.0
 11
95.491894310413883
 21
27.030050778254541
 31
0.0
  0
LINE
  5
57731
  8
0
 10
95.991894310413841
 20
26.53005077825442
 30
0.0
 11
106.9918943104139
 21
26.53005077825442
 31
0.0
  0
LINE
  5
57732
  8
0
 10
95.991894310413841
 20
26.53005077825442
 30
0.0
 11
95.491894310413883
 21
27.030050778254541
 31
0.0
  0
LINE
  5
57733
  8
0
 10
107.4918943104138
 20
31.53005077825442
 30
0.0
 11
95.491894310413883
 21
31.53005077825442
 31
0.0
  0
POLYLINE
  5
5774F
  8
0
 66
     1
 10
0.0
 20
0.0
 30
0.0
  0
VERTEX
  5
581BE
  8
0
 10
103.297330485769
 20
51.40505077825442
 30
0.0
  0
VERTEX
  5
581BF
  8
0
 10
103.3180525555244
 20
51.407418829644918
 30
0.0
  0
VERTEX
  5
581C0
  8
0
 10
103.56032759717159
 20
51.443297423001759
 30
0.0
  0
VERTEX
  5
581C1
  8
0
 10
103.7992755675908
 20
51.486773798958929
 30
0.0
  0
VERTEX
  5
581C2
  8
0
 10
104.03471347187561
 20
51.537611891017683
 30
0.0
  0
VERTEX
  5
581C3
  8
0
 10
104.266459401608
 20
51.59557333353181
 30
0.0
  0
VERTEX
  5
581C4
  8
0
 10
104.3808916895893
 20
51.627149948500872
 30
0.0
  0
VERTEX
  5
581C5
  8
0
 10
104.49433401648101
 20
51.660416495160447
 30
0.0
  0
VERTEX
  5
581C6
  8
0
 10
104.7181620882818
 20
51.731895843045699
 30
0.0
  0
VERTEX
  5
581C7
  8
0
 10
104.9377744498389
 20
51.809761769261932
 30
0.0
  0
VERTEX
  5
581C8
  8
0
 10
105.1530075975555
 20
51.893759853750097
 30
0.0
  0
VERTEX
  5
581C9
  8
0
 10
105.3636988094418
 20
51.983628018865453
 30
0.0
  0
VERTEX
  5
581CA
  8
0
 10
105.56968842664349
 20
52.079096004163638
 30
0.0
  0
VERTEX
  5
581CB
  8
0
 10
105.6708716749939
 20
52.128843214246231
 30
0.0
  0
VERTEX
  5
581CC
  8
0
 10
105.7708222343111
 20
52.179885300968706
 30
0.0
  0
VERTEX
  5
581CD
  8
0
 10
105.9669534796072
 20
52.285709326839289
 30
0.0
  0
VERTEX
  5
581CE
  8
0
 10
106.1579445577985
 20
52.396273779628892
 30
0.0
  0
VERTEX
  5
581CF
  8
0
 10
106.25147237545001
 20
52.453239699470132
 30
0.0
  0
SEQEND
  5
581D0
  8
0
  0
ARC
  5
57750
  8
0
 10
126.7418943104139
 20
100.19431007414219
 30
0.0
 40
4.4999999999999538
 50
270.0
 51
90.0
  0
ARC
  5
57751
  8
0
 10
101.4918943104139
 20
100.19431007414219
 30
0.0
 40
7.7499999999999982
 50
85.88286395676748
 51
274.1171360432316
  0
CIRCLE
  5
57752
  8
0
 10
101.4918943104139
 20
100.19431007414219
 30
0.0
 40
3.8749999999999991
  0
LINE
  5
57753
  8
0
 10
102.1735833891001
 20
92.464310074142176
 30
0.0
 11
102.04831142014361
 21
92.464310074142176
 31
0.0
  0
LINE
  5
57754
  8
0
 10
102.1735833891001
 20
107.9243100741422
 30
0.0
 11
102.04831142014361
 21
107.9243100741422
 31
0.0
  0
POLYLINE
  5
57755
  8
0
 66
     1
 10
0.0
 20
0.0
 30
0.0
  0
VERTEX
  5
581D1
  8
0
 10
106.25147237545001
 20
106.32325913926149
 30
0.0
  0
VERTEX
  5
581D2
  8
0
 10
106.1579445577984
 20
106.3947596617836
 30
0.0
  0
VERTEX
  5
581D3
  8
0
 10
105.9669534796072
 20
106.53398241837409
 30
0.0
  0
VERTEX
  5
581D4
  8
0
 10
105.7708222343111
 20
106.6679779542619
 30
0.0
  0
VERTEX
  5
581D5
  8
0
 10
105.6708716749939
 20
106.73294511414311
 30
0.0
  0
VERTEX
  5
581D6
  8
0
 10
105.56968842664349
 20
106.7965214571291
 30
0.0
  0
VERTEX
  5
581D7
  8
0
 10
105.3636988094417
 20
106.9193922239235
 30
0.0
  0
VERTEX
  5
581D8
  8
0
 10
105.1530075975555
 20
107.0363747843532
 30
0.0
  0
VERTEX
  5
581D9
  8
0
 10
104.9377744498389
 20
107.1472598125422
 30
0.0
  0
VERTEX
  5
581DA
  8
0
 10
104.7181620882818
 20
107.2518447871628
 30
0.0
  0
VERTEX
  5
581DB
  8
0
 10
104.49433401648101
 20
107.3499341427634
 30
0.0
  0
VERTEX
  5
581DC
  8
0
 10
104.3808916895893
 20
107.39648295065091
 30
0.0
  0
VERTEX
  5
581DD
  8
0
 10
104.266459401608
 20
107.44133626111891
 30
0.0
  0
VERTEX
  5
581DE
  8
0
 10
104.03471347187561
 20
107.5258631641841
 30
0.0
  0
VERTEX
  5
581DF
  8
0
 10
103.7992755675908
 20
107.60333104415091
 30
0.0
  0
VERTEX
  5
581E0
  8
0
 10
103.56032759717149
 20
107.6735602864451
 30
0.0
  0
VERTEX
  5
581E1
  8
0
 10
103.3180525555244
 20
107.7363751801867
 30
0.0
  0
VERTEX
  5
581E2
  8
0
 10
103.0726332276254
 20
107.79160330763089
 30
0.0
  0
VERTEX
  5
581E3
  8
0
 10
102.9488012711392
 20
107.8163191339498
 30
0.0
  0
VERTEX
  5
581E4
  8
0
 10
102.8236312391454
 20
107.83918265337149
 30
0.0
  0
VERTEX
  5
581E5
  8
0
 10
102.567881045253
 20
107.87935090334079
 30
0.0
  0
VERTEX
  5
581E6
  8
0
 10
102.30618214404051
 20
107.9114685747827
 30
0.0
  0
VERTEX
  5
581E7
  8
0
 10
102.1735833891001
 20
107.9243100741422
 30
0.0
  0
SEQEND
  5
581E8
  8
0
  0
POLYLINE
  5
57756
  8
0
 66
     1
 10
0.0
 20
0.0
 30
0.0
  0
VERTEX
  5
581E9
  8
0
 10
102.1735833891001
 20
92.464310074142176
 30
0.0
  0
VERTEX
  5
581EA
  8
0
 10
102.30618214404051
 20
92.477151573501686
 30
0.0
  0
VERTEX
  5
581EB
  8
0
 10
102.5678810452531
 20
92.509269244943553
 30
0.0
  0
VERTEX
  5
581EC
  8
0
 10
102.8236312391455
 20
92.549437494912851
 30
0.0
  0
VERTEX
  5
581ED
  8
0
 10
102.9488012711392
 20
92.572301014334514
 30
0.0
  0
VERTEX
  5
581EE
  8
0
 10
103.0726332276255
 20
92.597016840653524
 30
0.0
  0
VERTEX
  5
581EF
  8
0
 10
103.3180525555244
 20
92.652244968097634
 30
0.0
  0
VERTEX
  5
581F0
  8
0
 10
103.56032759717149
 20
92.715059861839322
 30
0.0
  0
VERTEX
  5
581F1
  8
0
 10
103.7992755675908
 20
92.785289104133497
 30
0.0
  0
VERTEX
  5
581F2
  8
0
 10
104.03471347187561
 20
92.862756984100301
 30
0.0
  0
VERTEX
  5
581F3
  8
0
 10
104.266459401608
 20
92.947283887165426
 30
0.0
  0
VERTEX
  5
581F4
  8
0
 10
104.3808916895893
 20
92.992137197633497
 30
0.0
  0
VERTEX
  5
581F5
  8
0
 10
104.49433401648101
 20
93.038686005520944
 30
0.0
  0
VERTEX
  5
581F6
  8
0
 10
104.7181620882818
 20
93.136775361121565
 30
0.0
  0
VERTEX
  5
581F7
  8
0
 10
104.9377744498389
 20
93.241360335742215
 30
0.0
  0
VERTEX
  5
581F8
  8
0
 10
105.1530075975555
 20
93.352245363931146
 30
0.0
  0
VERTEX
  5
581F9
  8
0
 10
105.3636988094418
 20
93.469227924360865
 30
0.0
  0
VERTEX
  5
581FA
  8
0
 10
105.56968842664349
 20
93.592098691155215
 30
0.0
  0
VERTEX
  5
581FB
  8
0
 10
105.6708716749939
 20
93.655675034141254
 30
0.0
  0
VERTEX
  5
581FC
  8
0
 10
105.7708222343111
 20
93.720642194022545
 30
0.0
  0
VERTEX
  5
581FD
  8
0
 10
105.9669534796072
 20
93.854637729910323
 30
0.0
  0
VERTEX
  5
581FE
  8
0
 10
106.1579445577984
 20
93.993860486500793
 30
0.0
  0
VERTEX
  5
581FF
  8
0
 10
106.25147237545001
 20
94.065361009022908
 30
0.0
  0
SEQEND
  5
58200
  8
0
  0
POLYLINE
  5
57757
  8
0
 66
     1
 10
0.0
 20
0.0
 30
0.0
  0
VERTEX
  5
58201
  8
0
 10
106.25147237545001
 20
94.065361009022908
 30
0.0
  0
VERTEX
  5
58202
  8
0
 10
106.2919310587082
 20
94.096566884476644
 30
0.0
  0
VERTEX
  5
58203
  8
0
 10
106.3729981498642
 20
94.157829857886057
 30
0.0
  0
VERTEX
  5
58204
  8
0
 10
106.4542050300719
 20
94.217548543868944
 30
0.0
  0
VERTEX
  5
58205
  8
0
 10
106.4948383167455
 20
94.246824699210677
 30
0.0
  0
VERTEX
  5
58206
  8
0
 10
106.5354794240195
 20
94.275710241546207
 30
0.0
  0
VERTEX
  5
58207
  8
0
 10
106.6167488721172
 20
94.332305127436072
 30
0.0
  0
VERTEX
  5
58208
  8
0
 10
106.69794961202849
 20
94.387332053967484
 30
0.0
  0
VERTEX
  5
58209
  8
0
 10
106.779047383898
 20
94.440811155136728
 30
0.0
  0
VERTEX
  5
5820A
  8
0
 10
106.8599761699751
 20
94.492742391678846
 30
0.0
  0
VERTEX
  5
5820B
  8
0
 10
106.940665091423
 20
94.543124870718856
 30
0.0
  0
VERTEX
  5
5820C
  8
0
 10
106.98089735847719
 20
94.567735639331303
 30
0.0
  0
VERTEX
  5
5820D
  8
0
 10
107.0210429619633
 20
94.591959879832658
 30
0.0
  0
VERTEX
  5
5820E
  8
0
 10
107.1010386783899
 20
94.639251024910806
 30
0.0
  0
VERTEX
  5
5820F
  8
0
 10
107.18058160230341
 20
94.685004329510079
 30
0.0
  0
VERTEX
  5
58210
  8
0
 10
107.2596019303768
 20
94.729228297814785
 30
0.0
  0
VERTEX
  5
58211
  8
0
 10
107.33803105077089
 20
94.77193394356469
 30
0.0
  0
VERTEX
  5
58212
  8
0
 10
107.41580188361699
 20
94.813134787486618
 30
0.0
  0
VERTEX
  5
58213
  8
0
 10
107.4544199784625
 20
94.833175812312874
 30
0.0
  0
VERTEX
  5
58214
  8
0
 10
107.49284920375629
 20
94.852846825892016
 30
0.0
  0
VERTEX
  5
58215
  8
0
 10
107.5691099441829
 20
94.891088473179835
 30
0.0
  0
VERTEX
  5
58216
  8
0
 10
107.64452347942169
 20
94.927880481283793
 30
0.0
  0
VERTEX
  5
58217
  8
0
 10
107.6818943104139
 20
94.945739959988586
 30
0.0
  0
SEQEND
  5
58218
  8
0
  0
POLYLINE
  5
57758
  8
0
 66
     1
 10
0.0
 20
0.0
 30
0.0
  0
VERTEX
  5
58219
  8
0
 10
107.6818943104139
 20
94.945739959988586
 30
0.0
  0
VERTEX
  5
5821A
  8
0
 10
107.7697797262759
 20
94.986780312324925
 30
0.0
  0
VERTEX
  5
5821B
  8
0
 10
107.94710351289871
 20
95.065565363816958
 30
0.0
  0
VERTEX
  5
5821C
  8
0
 10
108.126347152638
 20
95.139887593940585
 30
0.0
  0
VERTEX
  5
5821D
  8
0
 10
108.2166488198943
 20
95.175358460013058
 30
0.0
  0
VERTEX
  5
5821E
  8
0
 10
108.3073751142519
 20
95.2096915487122
 30
0.0
  0
VERTEX
  5
5821F
  8
0
 10
108.4900028366817
 20
95.274910795381558
 30
0.0
  0
VERTEX
  5
58220
  8
0
 10
108.6740287376376
 20
95.335484546313566
 30
0.0
  0
VERTEX
  5
58221
  8
0
 10
108.85924564026929
 20
95.391362818164069
 30
0.0
  0
VERTEX
  5
58222
  8
0
 10
109.04544215742639
 20
95.442507089690494
 30
0.0
  0
VERTEX
  5
58223
  8
0
 10
109.2324041240695
 20
95.48889079368557
 30
0.0
  0
VERTEX
  5
58224
  8
0
 10
109.3261048289683
 20
95.510292483361695
 30
0.0
  0
VERTEX
  5
58225
  8
0
 10
109.4199160817538
 20
95.530499644971016
 30
0.0
  0
VERTEX
  5
58226
  8
0
 10
109.6077628022129
 20
95.567331801077231
 30
0.0
  0
VERTEX
  5
58227
  8
0
 10
109.7957290865217
 20
95.599397577099367
 30
0.0
  0
VERTEX
  5
58228
  8
0
 10
109.983595366977
 20
95.626718693597084
 30
0.0
  0
VERTEX
  5
58229
  8
0
 10
110.1711370873433
 20
95.649328641151115
 30
0.0
  0
VERTEX
  5
5822A
  8
0
 10
110.35812621067571
 20
95.667273347519426
 30
0.0
  0
VERTEX
  5
5822B
  8
0
 10
110.4513417153704
 20
95.674514110553488
 30
0.0
  0
VERTEX
  5
5822C
  8
0
 10
110.54433276464
 20
95.680611657952781
 30
0.0
  0
VERTEX
  5
5822D
  8
0
 10
110.7295263914524
 20
95.689415627507714
 30
0.0
  0
VERTEX
  5
5822E
  8
0
 10
110.91347790774449
 20
95.693770629501174
 30
0.0
  0
VERTEX
  5
5822F
  8
0
 10
111.0049169635983
 20
95.694310074142194
 30
0.0
  0
SEQEND
  5
58230
  8
0
  0
LINE
  5
57759
  8
0
 10
111.0049169635983
 20
95.694310074142194
 30
0.0
 11
126.7418943103936
 21
95.694310074142237
 31
0.0
  0
POLYLINE
  5
5775A
  8
0
 66
     1
 10
0.0
 20
0.0
 30
0.0
  0
VERTEX
  5
58231
  8
0
 10
111.0049169635983
 20
104.69431007414219
 30
0.0
  0
VERTEX
  5
58232
  8
0
 10
110.91347790774449
 20
104.6948495187832
 30
0.0
  0
VERTEX
  5
58233
  8
0
 10
110.7295263914525
 20
104.6992045207767
 30
0.0
  0
VERTEX
  5
58234
  8
0
 10
110.54433276464
 20
104.70800849033159
 30
0.0
  0
VERTEX
  5
58235
  8
0
 10
110.4513417153704
 20
104.7141060377309
 30
0.0
  0
VERTEX
  5
58236
  8
0
 10
110.35812621067581
 20
104.72134680076491
 30
0.0
  0
VERTEX
  5
58237
  8
0
 10
110.1711370873433
 20
104.7392915071333
 30
0.0
  0
VERTEX
  5
58238
  8
0
 10
109.983595366977
 20
104.7619014546873
 30
0.0
  0
VERTEX
  5
58239
  8
0
 10
109.7957290865217
 20
104.78922257118499
 30
0.0
  0
VERTEX
  5
5823A
  8
0
 10
109.6077628022129
 20
104.8212883472071
 30
0.0
  0
VERTEX
  5
5823B
  8
0
 10
109.4199160817538
 20
104.8581205033134
 30
0.0
  0
VERTEX
  5
5823C
  8
0
 10
109.3261048289683
 20
104.87832766492269
 30
0.0
  0
VERTEX
  5
5823D
  8
0
 10
109.2324041240695
 20
104.8997293545988
 30
0.0
  0
VERTEX
  5
5823E
  8
0
 10
109.04544215742639
 20
104.94611305859389
 30
0.0
  0
VERTEX
  5
5823F
  8
0
 10
108.85924564026929
 20
104.99725733012031
 30
0.0
  0
VERTEX
  5
58240
  8
0
 10
108.6740287376376
 20
105.05313560197079
 30
0.0
  0
VERTEX
  5
58241
  8
0
 10
108.4900028366817
 20
105.1137093529028
 30
0.0
  0
VERTEX
  5
58242
  8
0
 10
108.3073751142519
 20
105.1789285995722
 30
0.0
  0
VERTEX
  5
58243
  8
0
 10
108.2166488198943
 20
105.2132616882713
 30
0.0
  0
VERTEX
  5
58244
  8
0
 10
108.126347152638
 20
105.2487325543438
 30
0.0
  0
VERTEX
  5
58245
  8
0
 10
107.94710351289871
 20
105.3230547844674
 30
0.0
  0
VERTEX
  5
58246
  8
0
 10
107.7697797262758
 20
105.40183983595939
 30
0.0
  0
VERTEX
  5
58247
  8
0
 10
107.6818943104139
 20
105.4428801882958
 30
0.0
  0
SEQEND
  5
58248
  8
0
  0
POLYLINE
  5
5775B
  8
0
 66
     1
 10
0.0
 20
0.0
 30
0.0
  0
VERTEX
  5
58249
  8
0
 10
107.6818943104139
 20
105.4428801882958
 30
0.0
  0
VERTEX
  5
5824A
  8
0
 10
107.64452347942721
 20
105.46073966699799
 30
0.0
  0
VERTEX
  5
5824B
  8
0
 10
107.5691099441883
 20
105.4975316751018
 30
0.0
  0
VERTEX
  5
5824C
  8
0
 10
107.49284920376139
 20
105.5357733223897
 30
0.0
  0
VERTEX
  5
5824D
  8
0
 10
107.4544199784675
 20
105.5554443359689
 30
0.0
  0
VERTEX
  5
5824E
  8
0
 10
107.4158018836219
 20
105.5754853607952
 30
0.0
  0
VERTEX
  5
5824F
  8
0
 10
107.3380310507755
 20
105.6166862047172
 30
0.0
  0
VERTEX
  5
58250
  8
0
 10
107.259601930381
 20
105.6593918504672
 30
0.0
  0
VERTEX
  5
58251
  8
0
 10
107.1805816023073
 20
105.70361581877199
 30
0.0
  0
VERTEX
  5
58252
  8
0
 10
107.10103867839349
 20
105.74936912337149
 30
0.0
  0
VERTEX
  5
58253
  8
0
 10
107.0210429619666
 20
105.7966602684497
 30
0.0
  0
VERTEX
  5
58254
  8
0
 10
106.98089735848031
 20
105.8208845089511
 30
0.0
  0
VERTEX
  5
58255
  8
0
 10
106.9406650914259
 20
105.8454952775637
 30
0.0
  0
VERTEX
  5
58256
  8
0
 10
106.8599761699777
 20
105.89587775660389
 30
0.0
  0
VERTEX
  5
58257
  8
0
 10
106.77904738390021
 20
105.9478089931461
 30
0.0
  0
VERTEX
  5
58258
  8
0
 10
106.6979496120304
 20
106.0012880943156
 30
0.0
  0
VERTEX
  5
58259
  8
0
 10
106.61674887211881
 20
106.05631502084719
 30
0.0
  0
VERTEX
  5
5825A
  8
0
 10
106.53547942402071
 20
106.1129099067372
 30
0.0
  0
VERTEX
  5
5825B
  8
0
 10
106.4948383167465
 20
106.1417954490729
 30
0.0
  0
VERTEX
  5
5825C
  8
0
 10
106.4542050300727
 20
106.17107160441481
 30
0.0
  0
VERTEX
  5
5825D
  8
0
 10
106.3729981498647
 20
106.23079029039791
 30
0.0
  0
VERTEX
  5
5825E
  8
0
 10
106.2919310587083
 20
106.2920532638076
 30
0.0
  0
VERTEX
  5
5825F
  8
0
 10
106.25147237545001
 20
106.32325913926149
 30
0.0
  0
SEQEND
  5
58260
  8
0
  0
LINE
  5
5775C
  8
0
 10
126.7418943104139
 20
104.69431007414219
 30
0.0
 11
111.0049169635983
 21
104.69431007414219
 31
0.0
  0
LINE
  5
5775D
  8
1
 10
88.741894310413898
 20
100.19431007414219
 30
0.0
 11
136.2418943104139
 21
100.19431007414219
 31
0.0
  0
LINE
  5
5775E
  8
1
 10
101.4918943104139
 20
87.444310074142194
 30
0.0
 11
101.4918943104139
 21
112.94431007414219
 31
0.0
  0
ARC
  5
5775F
  8
0
 10
97.911894310413913
 20
55.535050778254408
 30
0.0
 40
0.2950000000000088
 50
90.0
 51
180.0
  0
ARC
  5
57760
  8
0
 10
105.0718943104139
 20
55.535050778254408
 30
0.0
 40
0.2950000000000048
 50
0.0
 51
90.0
  0
LINE
  5
57761
  8
0
 10
93.741894310413898
 20
51.40505077825442
 30
0.0
 11
93.741894310413898
 21
32.33005077825441
 31
0.0
  0
LINE
  5
57762
  8
0
 10
105.3668943104139
 20
51.985052971216717
 30
0.0
 11
105.3668943104139
 21
55.535050778254408
 31
0.0
  0
LINE
  5
57763
  8
0
 10
97.616894310413883
 20
55.535050778254408
 30
0.0
 11
97.616894310413883
 21
51.40505077825442
 31
0.0
  0
ARC
  5
57764
  8
0
 10
122.7252558902524
 20
34.606554093584201
 30
0.0
 40
14.54234462226707
 50
131.7748372812251
 51
157.9993104670522
  0
LINE
  5
57765
  8
0
 10
105.0718943104139
 20
55.830050778254403
 30
0.0
 11
97.911894310413913
 21
55.830050778254403
 31
0.0
  0
LINE
  5
57766
  8
0
 10
109.2418943104139
 20
32.33005077825441
 30
0.0
 11
93.741894310413898
 21
32.33005077825441
 31
0.0
  0
LINE
  5
57767
  8
0
 10
103.29983063414829
 20
51.40505077825442
 30
0.0
 11
93.741894310413898
 21
51.40505077825442
 31
0.0
  0
POLYLINE
  5
57768
  8
0
 66
     1
 10
0.0
 20
0.0
 30
0.0
  0
VERTEX
  5
58261
  8
0
 10
106.25147237545011
 20
52.453239699470132
 30
0.0
  0
VERTEX
  5
58262
  8
0
 10
106.2919310587082
 20
52.478475243412092
 30
0.0
  0
VERTEX
  5
58263
  8
0
 10
106.3729981498642
 20
52.530140592936597
 30
0.0
  0
VERTEX
  5
58264
  8
0
 10
106.4542050300719
 20
52.58339855707537
 30
0.0
  0
VERTEX
  5
58265
  8
0
 10
106.4948383167455
 20
52.610624184723697
 30
0.0
  0
VERTEX
  5
58266
  8
0
 10
106.5354794240195
 20
52.638246905930181
 30
0.0
  0
VERTEX
  5
58267
  8
0
 10
106.6167488721172
 20
52.694680575433992
 30
0.0
  0
VERTEX
  5
58268
  8
0
 10
106.69794961202849
 20
52.752697944646549
 30
0.0
  0
VERTEX
  5
58269
  8
0
 10
106.779047383898
 20
52.812317108380888
 30
0.0
  0
VERTEX
  5
5826A
  8
0
 10
106.8599761699751
 20
52.873531943115339
 30
0.0
  0
VERTEX
  5
5826B
  8
0
 10
106.940665091423
 20
52.936329880581852
 30
0.0
  0
VERTEX
  5
5826C
  8
0
 10
106.98089735847719
 20
52.96831764169643
 30
0.0
  0
VERTEX
  5
5826D
  8
0
 10
107.0210429619633
 20
53.00069491150613
 30
0.0
  0
VERTEX
  5
5826E
  8
0
 10
107.1010386783899
 20
53.066607690064203
 30
0.0
  0
VERTEX
  5
5826F
  8
0
 10
107.1805816023035
 20
53.134045667025013
 30
0.0
  0
VERTEX
  5
58270
  8
0
 10
107.2596019303768
 20
53.202983251198972
 30
0.0
  0
VERTEX
  5
58271
  8
0
 10
107.33803105077089
 20
53.273391998751762
 30
0.0
  0
VERTEX
  5
58272
  8
0
 10
107.41580188361699
 20
53.345240829906011
 30
0.0
  0
VERTEX
  5
58273
  8
0
 10
107.4544199784626
 20
53.381694903040781
 30
0.0
  0
VERTEX
  5
58274
  8
0
 10
107.49284920375629
 20
53.418496272533851
 30
0.0
  0
VERTEX
  5
58275
  8
0
 10
107.5691099441829
 20
53.4931227321416
 30
0.0
  0
VERTEX
  5
58276
  8
0
 10
107.64452347942169
 20
53.569082788331329
 30
0.0
  0
VERTEX
  5
58277
  8
0
 10
107.6818943104139
 20
53.607550778254442
 30
0.0
  0
SEQEND
  5
58278
  8
0
  0
ARC
  5
57769
  8
0
 10
130.74521546830891
 20
-42.612157100158029
 30
0.0
 40
98.945181626186866
 50
94.833199302842644
 51
103.4791739195427
  0
ARC
  5
5776A
  8
0
 10
125.490206221062
 20
49.19484597008271
 30
0.0
 40
2.5613975640091562
 50
55.83305535438631
 51
109.49000965609569
  0
LINE
  5
5776B
  8
0
 10
122.4085660145589
 20
55.981195834633638
 30
0.0
 11
128.8841762452389
 21
56.33005077825441
 31
0.0
  0
LINE
  5
5776C
  8
0
 10
131.2418943104139
 20
53.972332713079979
 30
0.0
 11
131.2418943104139
 21
53.306161933800112
 31
0.0
  0
LINE
  5
5776D
  8
0
 10
128.54189431041391
 20
49.330050778254403
 30
0.0
 11
128.48189431041391
 21
49.330050778254403
 31
0.0
  0
LINE
  5
5776E
  8
1
 10
101.4918943104139
 20
60.830050778254403
 30
0.0
 11
101.4918943104139
 21
21.33005077825441
 31
0.0
  0
LINE
  5
57772
  8
2
 10
172.97266600334831
 20
39.53005077825452
 30
0.0
 11
173.97266600334831
 21
38.530050778254413
 31
0.0
  0
LINE
  5
57773
  8
2
 10
173.97266600334831
 20
26.530050778254409
 30
0.0
 11
173.97266600334831
 21
38.530050778254413
 31
0.0
  0
LINE
  5
57779
  8
2
 10
172.97266600334831
 20
39.53005077825452
 30
0.0
 11
167.97266600334831
 21
39.53005077825452
 31
0.0
  0
LINE
  5
5777A
  8
2
 10
167.97266600334831
 20
39.53005077825452
 30
0.0
 11
166.97266600334819
 21
38.530050778254413
 31
0.0
  0
LINE
  5
5777B
  8
2
 10
166.97266600334819
 20
26.530050778254409
 30
0.0
 11
166.97266600334819
 21
38.530050778254413
 31
0.0
  0
LINE
  5
5777C
  8
2
 10
104.9918943104137
 20
26.53005077825442
 30
0.0
 11
104.9918943104137
 21
38.53005077825442
 31
0.0
  0
LINE
  5
5777D
  8
2
 10
103.9918943104137
 20
39.530050778254541
 30
0.0
 11
104.9918943104137
 21
38.53005077825442
 31
0.0
  0
LINE
  5
5777E
  8
2
 10
103.9918943104139
 20
26.93005077825357
 30
0.0
 11
103.9918943104139
 21
36.33005077825441
 31
0.0
  0
LINE
  5
57781
  8
2
 10
97.991894310413684
 20
26.53005077825442
 30
0.0
 11
97.991894310413684
 21
38.53005077825442
 31
0.0
  0
LINE
  5
57782
  8
2
 10
98.991894310413727
 20
39.530050778254541
 30
0.0
 11
97.991894310413684
 21
38.53005077825442
 31
0.0
  0
LINE
  5
57783
  8
2
 10
103.9918943104137
 20
39.530050778254541
 30
0.0
 11
98.991894310413727
 21
39.530050778254541
 31
0.0
  0
LINE
  5
57784
  8
2
 10
98.991894310413954
 20
26.930050778253779
 30
0.0
 11
98.991894310413954
 21
36.33005077825441
 31
0.0
  0
LINE
  5
57785
  8
2
 10
103.9918943104139
 20
36.33005077825441
 30
0.0
 11
98.991894310413954
 21
36.33005077825441
 31
0.0
  0
LINE
  5
57791
  8
2
 10
35.011122617479259
 20
39.530050778254513
 30
0.0
 11
36.011122617479259
 21
38.530050778254392
 31
0.0
  0
LINE
  5
57792
  8
2
 10
36.011122617479259
 20
26.530050778254392
 30
0.0
 11
36.011122617479259
 21
38.530050778254392
 31
0.0
  0
LINE
  5
57793
  8
2
 10
35.011122617479259
 20
39.530050778254513
 30
0.0
 11
30.011122617479259
 21
39.530050778254513
 31
0.0
  0
LINE
  5
57794
  8
2
 10
30.011122617479259
 20
39.530050778254513
 30
0.0
 11
29.011122617479149
 21
38.530050778254392
 31
0.0
  0
LINE
  5
57795
  8
2
 10
29.011122617479149
 20
26.530050778254392
 30
0.0
 11
29.011122617479149
 21
38.530050778254392
 31
0.0
  0
LINE
  5
57985
  8
0
 10
165.97266600334839
 20
51.523161877600458
 30
0.0
 11
165.97266600334839
 21
45.822092481845573
 31
0.0
  0
POLYLINE
  5
57986
  8
0
 66
     1
 10
0.0
 20
0.0
 30
0.0
  0
VERTEX
  5
58279
  8
0
 10
165.97266600334839
 20
45.822092481845573
 30
0.0
  0
VERTEX
  5
5827A
  8
0
 10
165.97233629810589
 20
45.767629633789603
 30
0.0
  0
VERTEX
  5
5827B
  8
0
 10
165.96969390094881
 20
45.659552878096349
 30
0.0
  0
VERTEX
  5
5827C
  8
0
 10
165.96439838898121
 20
45.552701551770333
 30
0.0
  0
VERTEX
  5
5827D
  8
0
 10
165.96075291859631
 20
45.499770828961232
 30
0.0
  0
SEQEND
  5
5827E
  8
0
  0
POLYLINE
  5
57987
  8
0
 66
     1
 10
0.0
 20
0.0
 30
0.0
  0
VERTEX
  5
5827F
  8
0
 10
164.89761194604191
 20
41.995490090846971
 30
0.0
  0
VERTEX
  5
58280
  8
0
 10
164.93780454343701
 20
42.067220682800503
 30
0.0
  0
VERTEX
  5
58281
  8
0
 10
165.01718234295569
 20
42.219687665330639
 30
0.0
  0
VERTEX
  5
58282
  8
0
 10
165.09534649012161
 20
42.383025619577793
 30
0.0
  0
VERTEX
  5
58283
  8
0
 10
165.13447477760729
 20
42.46948411560043
 30
0.0
  0
VERTEX
  5
58284
  8
0
 10
165.17361135452421
 20
42.559013795091971
 30
0.0
  0
VERTEX
  5
58285
  8
0
 10
165.25164101026451
 20
42.746523048822617
 30
0.0
  0
VERTEX
  5
58286
  8
0
 10
165.32888845452899
 20
42.944031337427781
 30
0.0
  0
VERTEX
  5
58287
  8
0
 10
165.4047866346281
 20
43.150030666367378
 30
0.0
  0
VERTEX
  5
58288
  8
0
 10
165.47874577772211
 20
43.363031835199422
 30
0.0
  0
VERTEX
  5
58289
  8
0
 10
165.5497356566546
 20
43.580250236976582
 30
0.0
  0
VERTEX
  5
5828A
  8
0
 10
165.58351180089591
 20
43.68857927896272
 30
0.0
  0
VERTEX
  5
5828B
  8
0
 10
165.61609008892299
 20
43.796500807068377
 30
0.0
  0
VERTEX
  5
5828C
  8
0
 10
165.67757838473199
 20
44.010782553150698
 30
0.0
  0
VERTEX
  5
5828D
  8
0
 10
165.73402425960791
 20
44.222450892304458
 30
0.0
  0
VERTEX
  5
5828E
  8
0
 10
165.78521402425901
 20
44.430906397600459
 30
0.0
  0
VERTEX
  5
5828F
  8
0
 10
165.83092229236479
 20
44.635680732874562
 30
0.0
  0
VERTEX
  5
58290
  8
0
 10
165.87090671896431
 20
44.836446485409333
 30
0.0
  0
VERTEX
  5
58291
  8
0
 10
165.88865010022971
 20
44.93515502335682
 30
0.0
  0
VERTEX
  5
58292
  8
0
 10
165.9048360325568
 20
45.032656610996632
 30
0.0
  0
VERTEX
  5
58293
  8
0
 10
165.93235160891899
 20
45.223774125181841
 30
0.0
  0
VERTEX
  5
58294
  8
0
 10
165.95306981570189
 20
45.40928013887563
 30
0.0
  0
VERTEX
  5
58295
  8
0
 10
165.96075291859631
 20
45.499770828961232
 30
0.0
  0
SEQEND
  5
58296
  8
0
  0
LINE
  5
57988
  8
0
 10
164.89761194604191
 20
40.054374540342323
 30
0.0
 11
164.89761194604191
 21
41.995490090846971
 31
0.0
  0
LINE
  5
57989
  8
0
 10
168.97266600334839
 20
40.054374540342323
 30
0.0
 11
168.97266600334839
 21
49.587378651958993
 31
0.0
  0
LINE
  5
5798A
  8
0
 10
171.97266600334839
 20
40.054374540342323
 30
0.0
 11
171.97266600334839
 21
49.587378651957572
 31
0.0
  0
LINE
  5
5798B
  8
0
 10
174.97266600334839
 20
51.523161877600458
 30
0.0
 11
174.97266600334839
 21
45.822092481845573
 31
0.0
  0
POLYLINE
  5
5798C
  8
0
 66
     1
 10
0.0
 20
0.0
 30
0.0
  0
VERTEX
  5
58297
  8
0
 10
174.9845790881005
 20
45.499770828961232
 30
0.0
  0
VERTEX
  5
58298
  8
0
 10
174.9809336239567
 20
45.5527014517263
 30
0.0
  0
VERTEX
  5
58299
  8
0
 10
174.9756381109062
 20
45.65955273834868
 30
0.0
  0
VERTEX
  5
5829A
  8
0
 10
174.97299570925651
 20
45.767629578973292
 30
0.0
  0
VERTEX
  5
5829B
  8
0
 10
174.97266600334839
 20
45.822092481845573
 30
0.0
  0
SEQEND
  5
5829C
  8
0
  0
POLYLINE
  5
5798D
  8
0
 66
     1
 10
0.0
 20
0.0
 30
0.0
  0
VERTEX
  5
5829D
  8
0
 10
174.9845790881005
 20
45.499770828961232
 30
0.0
  0
VERTEX
  5
5829E
  8
0
 10
174.99258851925671
 20
45.4058266581618
 30
0.0
  0
VERTEX
  5
5829F
  8
0
 10
175.01436571563829
 20
45.213058178524278
 30
0.0
  0
VERTEX
  5
582A0
  8
0
 10
175.04344687533401
 20
45.014242661269293
 30
0.0
  0
VERTEX
  5
582A1
  8
0
 10
175.06059366200259
 20
44.912743506109713
 30
0.0
  0
VERTEX
  5
582A2
  8
0
 10
175.0794109082949
 20
44.809946495526901
 30
0.0
  0
VERTEX
  5
582A3
  8
0
 10
175.1218669189638
 20
44.600756591640732
 30
0.0
  0
VERTEX
  5
582A4
  8
0
 10
175.17045390510299
 20
44.387284445487857
 30
0.0
  0
VERTEX
  5
582A5
  8
0
 10
175.22482434688581
 20
44.170236904748229
 30
0.0
  0
VERTEX
  5
582A6
  8
0
 10
175.28391031157301
 20
43.953003293238289
 30
0.0
  0
VERTEX
  5
582A7
  8
0
 10
175.34673539626931
 20
43.73811036005749
 30
0.0
  0
VERTEX
  5
582A8
  8
0
 10
175.37934577043271
 20
43.631939464652788
 30
0.0
  0
VERTEX
  5
582A9
  8
0
 10
175.41264831416541
 20
43.526832799423268
 30
0.0
  0
VERTEX
  5
582AA
  8
0
 10
175.4810179724912
 20
43.32045792139791
 30
0.0
  0
VERTEX
  5
582AB
  8
0
 10
175.55123139723071
 20
43.120282766250632
 30
0.0
  0
VERTEX
  5
582AC
  8
0
 10
175.62269107200879
 20
42.927610630763489
 30
0.0
  0
VERTEX
  5
582AD
  8
0
 10
175.69481126761741
 20
42.743746188613457
 30
0.0
  0
VERTEX
  5
582AE
  8
0
 10
175.76701270471011
 20
42.569987759520167
 30
0.0
  0
VERTEX
  5
582AF
  8
0
 10
175.80362016095441
 20
42.485810957039369
 30
0.0
  0
VERTEX
  5
582B0
  8
0
 10
175.8415603038853
 20
42.401381887828727
 30
0.0
  0
VERTEX
  5
582B1
  8
0
 10
175.92104904615641
 20
42.233997409882761
 30
0.0
  0
VERTEX
  5
582B2
  8
0
 10
176.00464935193591
 20
42.072501932942536
 30
0.0
  0
VERTEX
  5
582B3
  8
0
 10
176.04772006065491
 20
41.995490090846928
 30
0.0
  0
SEQEND
  5
582B4
  8
0
  0
LINE
  5
5798E
  8
0
 10
176.04772006065491
 20
41.995490090846928
 30
0.0
 11
176.04772006065491
 21
40.054374540342323
 31
0.0
  0
LINE
  5
57D34
  8
3
 10
170.1696660033484
 20
26.530050778254409
 30
0.0
 11
170.1696660033484
 21
31.530050778254409
 31
0.0
  0
LINE
  5
57D35
  8
3
 10
170.77566600334831
 20
26.530050778254409
 30
0.0
 11
170.77566600334831
 21
31.530050778254409
 31
0.0
  0
LINE
  5
57D39
  8
3
 10
171.45108684149901
 20
26.530050778254409
 30
0.0
 11
171.45108684149901
 21
31.530050778254409
 31
0.0
  0
LINE
  5
57D3A
  8
3
 10
172.057086841499
 20
26.530050778254409
 30
0.0
 11
172.05708684149889
 21
31.530050778254409
 31
0.0
  0
LINE
  5
57D3E
  8
3
 10
172.73250767964959
 20
26.530050778254409
 30
0.0
 11
172.73250767964959
 21
31.530050778254409
 31
0.0
  0
LINE
  5
57D3F
  8
3
 10
173.33850767964961
 20
26.530050778254409
 30
0.0
 11
173.3385076796495
 21
31.530050778254409
 31
0.0
  0
LINE
  5
57D43
  8
3
 10
174.0139285178002
 20
26.530050778254409
 30
0.0
 11
174.0139285178002
 21
31.530050778254409
 31
0.0
  0
LINE
  5
57D44
  8
3
 10
174.6199285178001
 20
26.530050778254409
 30
0.0
 11
174.6199285178001
 21
31.530050778254409
 31
0.0
  0
LINE
  5
57D48
  8
3
 10
175.2953493559508
 20
26.530050778254409
 30
0.0
 11
175.2953493559508
 21
31.530050778254409
 31
0.0
  0
LINE
  5
57D49
  8
3
 10
175.90134935595071
 20
26.530050778254409
 30
0.0
 11
175.90134935595071
 21
31.530050778254409
 31
0.0
  0
LINE
  5
57D4D
  8
3
 10
169.49424516519781
 20
26.530050778254409
 30
0.0
 11
169.49424516519781
 21
31.530050778254409
 31
0.0
  0
LINE
  5
57D4E
  8
3
 10
168.88824516519779
 20
26.530050778254409
 30
0.0
 11
168.88824516519779
 21
31.530050778254409
 31
0.0
  0
LINE
  5
57D52
  8
3
 10
168.2128243270472
 20
26.530050778254409
 30
0.0
 11
168.2128243270472
 21
31.530050778254409
 31
0.0
  0
LINE
  5
57D53
  8
3
 10
167.60682432704721
 20
26.530050778254409
 30
0.0
 11
167.60682432704721
 21
31.530050778254409
 31
0.0
  0
LINE
  5
57D57
  8
3
 10
166.93140348889659
 20
26.530050778254409
 30
0.0
 11
166.93140348889651
 21
31.530050778254409
 31
0.0
  0
LINE
  5
57D58
  8
3
 10
166.3254034888966
 20
26.530050778254409
 30
0.0
 11
166.3254034888966
 21
31.530050778254409
 31
0.0
  0
LINE
  5
57D5C
  8
3
 10
165.6499826507459
 20
26.530050778254409
 30
0.0
 11
165.6499826507459
 21
31.530050778254409
 31
0.0
  0
LINE
  5
57D5D
  8
3
 10
165.04398265074599
 20
26.530050778254409
 30
0.0
 11
165.04398265074599
 21
31.530050778254409
 31
0.0
  0
LINE
  5
57D61
  8
3
 10
101.1888943104138
 20
26.53005077825442
 30
0.0
 11
101.1888943104138
 21
31.53005077825442
 31
0.0
  0
LINE
  5
57D62
  8
3
 10
101.7948943104137
 20
26.53005077825442
 30
0.0
 11
101.7948943104137
 21
31.53005077825442
 31
0.0
  0
LINE
  5
57D66
  8
3
 10
102.4703151485644
 20
26.53005077825442
 30
0.0
 11
102.4703151485644
 21
31.53005077825442
 31
0.0
  0
LINE
  5
57D67
  8
3
 10
103.0763151485644
 20
26.53005077825442
 30
0.0
 11
103.0763151485644
 21
31.53005077825442
 31
0.0
  0
LINE
  5
57D6B
  8
3
 10
103.751735986715
 20
26.53005077825442
 30
0.0
 11
103.751735986715
 21
31.53005077825442
 31
0.0
  0
LINE
  5
57D6C
  8
3
 10
104.357735986715
 20
26.53005077825442
 30
0.0
 11
104.357735986715
 21
31.53005077825442
 31
0.0
  0
LINE
  5
57D70
  8
3
 10
105.0331568248656
 20
26.53005077825442
 30
0.0
 11
105.0331568248656
 21
31.53005077825442
 31
0.0
  0
LINE
  5
57D71
  8
3
 10
105.63915682486559
 20
26.53005077825442
 30
0.0
 11
105.63915682486559
 21
31.53005077825442
 31
0.0
  0
LINE
  5
57D75
  8
3
 10
106.31457766301629
 20
26.53005077825442
 30
0.0
 11
106.31457766301629
 21
31.53005077825442
 31
0.0
  0
LINE
  5
57D76
  8
3
 10
106.9205776630162
 20
26.53005077825442
 30
0.0
 11
106.9205776630162
 21
31.53005077825442
 31
0.0
  0
LINE
  5
57D7A
  8
3
 10
100.5134734722632
 20
26.53005077825442
 30
0.0
 11
100.5134734722632
 21
31.53005077825442
 31
0.0
  0
LINE
  5
57D7B
  8
3
 10
99.907473472263305
 20
26.53005077825442
 30
0.0
 11
99.907473472263305
 21
31.53005077825442
 31
0.0
  0
LINE
  5
57D7F
  8
3
 10
99.232052634112605
 20
26.53005077825442
 30
0.0
 11
99.232052634112605
 21
31.53005077825442
 31
0.0
  0
LINE
  5
57D80
  8
3
 10
98.626052634112682
 20
26.53005077825442
 30
0.0
 11
98.626052634112682
 21
31.53005077825442
 31
0.0
  0
LINE
  5
57D84
  8
3
 10
97.950631795962025
 20
26.53005077825442
 30
0.0
 11
97.950631795962011
 21
31.53005077825442
 31
0.0
  0
LINE
  5
57D85
  8
3
 10
97.344631795962087
 20
26.53005077825442
 30
0.0
 11
97.344631795962073
 21
31.53005077825442
 31
0.0
  0
LINE
  5
57D89
  8
3
 10
96.669210957811416
 20
26.53005077825442
 30
0.0
 11
96.669210957811416
 21
31.53005077825442
 31
0.0
  0
LINE
  5
57D8A
  8
3
 10
96.063210957811464
 20
26.53005077825442
 30
0.0
 11
96.063210957811464
 21
31.53005077825442
 31
0.0
  0
LINE
  5
57D8E
  8
3
 10
32.208122617479319
 20
26.530050778254392
 30
0.0
 11
32.208122617479319
 21
31.530050778254392
 31
0.0
  0
LINE
  5
57D8F
  8
3
 10
32.814122617479264
 20
26.530050778254392
 30
0.0
 11
32.814122617479264
 21
31.530050778254392
 31
0.0
  0
LINE
  5
57D93
  8
3
 10
33.489543455629928
 20
26.530050778254392
 30
0.0
 11
33.489543455629928
 21
31.530050778254392
 31
0.0
  0
LINE
  5
57D94
  8
3
 10
34.095543455629873
 20
26.530050778254392
 30
0.0
 11
34.095543455629873
 21
31.530050778254392
 31
0.0
  0
LINE
  5
57D98
  8
3
 10
34.770964293780537
 20
26.530050778254392
 30
0.0
 11
34.770964293780537
 21
31.530050778254392
 31
0.0
  0
LINE
  5
57D99
  8
3
 10
35.376964293780482
 20
26.530050778254392
 30
0.0
 11
35.376964293780482
 21
31.530050778254392
 31
0.0
  0
LINE
  5
57D9D
  8
3
 10
36.052385131931153
 20
26.530050778254392
 30
0.0
 11
36.052385131931153
 21
31.530050778254392
 31
0.0
  0
LINE
  5
57D9E
  8
3
 10
36.658385131931077
 20
26.530050778254392
 30
0.0
 11
36.658385131931077
 21
31.530050778254392
 31
0.0
  0
LINE
  5
57DA2
  8
3
 10
37.333805970081762
 20
26.530050778254392
 30
0.0
 11
37.333805970081762
 21
31.530050778254392
 31
0.0
  0
LINE
  5
57DA3
  8
3
 10
37.939805970081693
 20
26.530050778254392
 30
0.0
 11
37.939805970081693
 21
31.530050778254392
 31
0.0
  0
LINE
  5
57DA7
  8
3
 10
31.532701779328711
 20
26.530050778254392
 30
0.0
 11
31.532701779328711
 21
31.530050778254392
 31
0.0
  0
LINE
  5
57DA8
  8
3
 10
30.92670177932877
 20
26.530050778254392
 30
0.0
 11
30.92670177932877
 21
31.530050778254392
 31
0.0
  0
LINE
  5
57DAC
  8
3
 10
30.251280941178099
 20
26.530050778254392
 30
0.0
 11
30.251280941178099
 21
31.530050778254392
 31
0.0
  0
LINE
  5
57DAD
  8
3
 10
29.645280941178161
 20
26.530050778254392
 30
0.0
 11
29.645280941178161
 21
31.530050778254392
 31
0.0
  0
LINE
  5
57DB1
  8
3
 10
28.969860103027489
 20
26.530050778254392
 30
0.0
 11
28.969860103027489
 21
31.530050778254392
 31
0.0
  0
LINE
  5
57DB2
  8
3
 10
28.363860103027552
 20
26.530050778254392
 30
0.0
 11
28.363860103027552
 21
31.530050778254392
 31
0.0
  0
LINE
  5
57DB6
  8
3
 10
27.68843926487688
 20
26.530050778254392
 30
0.0
 11
27.68843926487688
 21
31.530050778254392
 31
0.0
  0
LINE
  5
57DB7
  8
3
 10
27.082439264876939
 20
26.530050778254392
 30
0.0
 11
27.082439264876939
 21
31.530050778254392
 31
0.0
  0
LINE
  5
57E2D
  8
2
 10
103.59189431041391
 20
37.78745956218215
 30
0.0
 11
101.4918943104139
 21
38.999895127480322
 31
0.0
  0
LINE
  5
57E2E
  8
2
 10
103.59189431041401
 20
27.330050778253931
 30
0.0
 11
103.59189431041391
 21
37.78745956218215
 31
0.0
  0
LINE
  5
57E2F
  8
2
 10
99.391894310413932
 20
37.78745956218215
 30
0.0
 11
101.4918943104139
 21
38.999895127480251
 31
0.0
  0
LINE
  5
57E30
  8
2
 10
103.59189431041391
 20
37.78745956218215
 30
0.0
 11
99.391894310413932
 21
37.78745956218215
 31
0.0
  0
LINE
  5
57E31
  8
2
 10
99.391894310414045
 20
27.330050778253931
 30
0.0
 11
99.391894310413932
 21
37.78745956218215
 31
0.0
  0
LINE
  5
57F24
  8
2
 10
103.59189431041359
 20
37.022871101282618
 30
0.0
 11
103.9918943104136
 21
36.330050778254943
 31
0.0
  0
LINE
  5
57F25
  8
2
 10
99.391894310414116
 20
37.022871101282618
 30
0.0
 11
98.991894310414054
 21
36.330050778254943
 31
0.0
  0
LINE
  5
57F26
  8
2
 10
99.391894310414116
 20
27.330050778253941
 30
0.0
 11
98.391894310414557
 21
26.330050778254389
 31
0.0
  0
LINE
  5
57F27
  8
2
 10
99.391894310414116
 20
27.330050778253941
 30
0.0
 11
103.59189431041359
 21
27.330050778253941
 31
0.0
  0
LINE
  5
57F28
  8
2
 10
103.59189431041359
 20
27.330050778253941
 30
0.0
 11
104.5918943104131
 21
26.330050778254389
 31
0.0
  0
LINE
  5
57F2F
  8
2
 10
35.01112261747943
 20
26.930050778253541
 30
0.0
 11
35.01112261747943
 21
36.330050778254368
 31
0.0
  0
LINE
  5
57F30
  8
2
 10
30.01112261747943
 20
26.930050778253761
 30
0.0
 11
30.01112261747943
 21
36.330050778254368
 31
0.0
  0
LINE
  5
57F31
  8
2
 10
35.01112261747943
 20
36.330050778254368
 30
0.0
 11
30.01112261747943
 21
36.330050778254368
 31
0.0
  0
LINE
  5
57F32
  8
2
 10
34.611122617479403
 20
37.787459562182121
 30
0.0
 11
32.511122617479401
 21
38.999895127480301
 31
0.0
  0
LINE
  5
57F33
  8
2
 10
34.611122617479488
 20
27.330050778253899
 30
0.0
 11
34.611122617479403
 21
37.787459562182121
 31
0.0
  0
LINE
  5
57F34
  8
2
 10
30.41112261747941
 20
37.787459562182121
 30
0.0
 11
32.511122617479401
 21
38.999895127480222
 31
0.0
  0
LINE
  5
57F35
  8
2
 10
34.611122617479403
 20
37.787459562182121
 30
0.0
 11
30.41112261747941
 21
37.787459562182121
 31
0.0
  0
LINE
  5
57F36
  8
2
 10
30.411122617479521
 20
27.330050778253899
 30
0.0
 11
30.41112261747941
 21
37.787459562182121
 31
0.0
  0
LINE
  5
57F37
  8
2
 10
34.611122617479047
 20
37.02287110128259
 30
0.0
 11
35.011122617479117
 21
36.330050778254922
 31
0.0
  0
LINE
  5
57F38
  8
2
 10
30.411122617479581
 20
37.02287110128259
 30
0.0
 11
30.011122617479518
 21
36.330050778254922
 31
0.0
  0
LINE
  5
57F39
  8
2
 10
30.411122617479581
 20
27.330050778253909
 30
0.0
 11
29.411122617480029
 21
26.33005077825436
 31
0.0
  0
LINE
  5
57F3A
  8
2
 10
30.411122617479581
 20
27.330050778253909
 30
0.0
 11
34.611122617479047
 21
27.330050778253909
 31
0.0
  0
LINE
  5
57F3B
  8
2
 10
34.611122617479047
 20
27.330050778253909
 30
0.0
 11
35.6111226174786
 21
26.33005077825436
 31
0.0
  0
LINE
  5
57F3C
  8
2
 10
172.97266600334839
 20
26.930050778253548
 30
0.0
 11
172.97266600334839
 21
36.330050778254389
 31
0.0
  0
LINE
  5
57F3D
  8
2
 10
167.97266600334839
 20
26.930050778253769
 30
0.0
 11
167.97266600334839
 21
36.330050778254389
 31
0.0
  0
LINE
  5
57F3E
  8
2
 10
172.97266600334839
 20
36.330050778254389
 30
0.0
 11
167.97266600334839
 21
36.330050778254389
 31
0.0
  0
LINE
  5
57F3F
  8
2
 10
172.57266600334839
 20
37.787459562182143
 30
0.0
 11
170.47266600334839
 21
38.999895127480308
 31
0.0
  0
LINE
  5
57F40
  8
2
 10
172.5726660033485
 20
27.33005077825392
 30
0.0
 11
172.57266600334839
 21
37.787459562182143
 31
0.0
  0
LINE
  5
57F41
  8
2
 10
168.3726660033484
 20
37.787459562182143
 30
0.0
 11
170.47266600334839
 21
38.999895127480237
 31
0.0
  0
LINE
  5
57F42
  8
2
 10
172.57266600334839
 20
37.787459562182143
 30
0.0
 11
168.3726660033484
 21
37.787459562182143
 31
0.0
  0
LINE
  5
57F43
  8
2
 10
168.37266600334851
 20
27.33005077825392
 30
0.0
 11
168.3726660033484
 21
37.787459562182143
 31
0.0
  0
LINE
  5
57F44
  8
2
 10
172.5726660033481
 20
37.022871101282597
 30
0.0
 11
172.97266600334811
 21
36.330050778254929
 31
0.0
  0
LINE
  5
57F45
  8
2
 10
168.3726660033486
 20
37.022871101282597
 30
0.0
 11
167.97266600334851
 21
36.330050778254929
 31
0.0
  0
LINE
  5
57F46
  8
2
 10
168.3726660033486
 20
27.33005077825392
 30
0.0
 11
167.372666003349
 21
26.330050778254371
 31
0.0
  0
LINE
  5
57F47
  8
2
 10
168.3726660033486
 20
27.33005077825392
 30
0.0
 11
172.5726660033481
 21
27.33005077825392
 31
0.0
  0
LINE
  5
57F48
  8
2
 10
172.5726660033481
 20
27.33005077825392
 30
0.0
 11
173.57266600334759
 21
26.330050778254371
 31
0.0
  0
TEXT
  5
58002
  8
0
 62
     3
 10
0.0
 20
0.0
 30
0.0
 40
10.0
  1
EAL30
  7
STANDARD1
  0
VIEWPORT
  5
1EC2F
 67
     1
  8
0
 10
261.51769911504419
 20
148.5
 30
0.0
 40
523.0353982300885
 41
297.0
 68
     1
 69
     1
1001
ACAD
1000
MVIEW
1002
{
1070
    16
1010
0.0
1020
0.0
1030
0.0
1010
0.0
1020
0.0
1030
1.0
1040
0.0
1040
297.0
1040
261.51769911504419
1040
148.5
1040
50.0
1040
0.0
1040
0.0
1070
     0
1070
   100
1070
     1
1070
     1
1070
     0
1070
     0
1070
     0
1070
     0
1040
0.0
1040
0.0
1040
0.0
1040
1.0
1040
1.0
1040
10.0
1040
10.0
1070
     0
1002
{
1002
}
1002
}
  0
ENDSEC
  0
EOF
