  0
SECTION
  2
HEADER
  9
$ACADVER
  1
AC1009
  9
$INSBASE
 10
0.0
 20
0.0
 30
0.0
  9
$EXTMIN
 10
0.0
 20
-2.960436562073669
 30
0.0
  9
$EXTMAX
 10
377.72122371238328
 20
280.68111257524748
 30
0.0
  9
$LIMMIN
 10
0.0
 20
0.0
  9
$LIMMAX
 10
375.0
 20
270.0
  9
$ORTHOMODE
 70
     0
  9
$REGENMODE
 70
     1
  9
$FILLMODE
 70
     1
  9
$QTEXTMODE
 70
     0
  9
$MIRRTEXT
 70
     0
  9
$DRAGMODE
 70
     2
  9
$LTSCALE
 40
10.0
  9
$OSMODE
 70
    37
  9
$ATTMODE
 70
     1
  9
$TEXTSIZE
 40
0.2
  9
$TRACEWID
 40
0.05
  9
$TEXTSTYLE
  7
STANDARD
  9
$CLAYER
  8
0
  9
$CELTYPE
  6
BYLAYER
  9
$CECOLOR
 62
   256
  9
$DIMSCALE
 40
1.0
  9
$DIMASZ
 40
3.0
  9
$DIMEXO
 40
0.0625
  9
$DIMDLI
 40
0.38
  9
$DIMRND
 40
0.0
  9
$DIMDLE
 40
0.0
  9
$DIMEXE
 40
0.18
  9
$DIMTP
 40
0.0
  9
$DIMTM
 40
0.0
  9
$DIMTXT
 40
3.0
  9
$DIMCEN
 40
0.09
  9
$DIMTSZ
 40
0.0
  9
$DIMTOL
 70
     0
  9
$DIMLIM
 70
     0
  9
$DIMTIH
 70
     1
  9
$DIMTOH
 70
     1
  9
$DIMSE1
 70
     0
  9
$DIMSE2
 70
     0
  9
$DIMTAD
 70
     0
  9
$DIMZIN
 70
     0
  9
$DIMBLK
  1

  9
$DIMASO
 70
     1
  9
$DIMSHO
 70
     1
  9
$DIMPOST
  1

  9
$DIMAPOST
  1

  9
$DIMALT
 70
     0
  9
$DIMALTD
 70
     2
  9
$DIMALTF
 40
25.399999999999999
  9
$DIMLFAC
 40
1.0
  9
$DIMTOFL
 70
     0
  9
$DIMTVP
 40
0.0
  9
$DIMTIX
 70
     0
  9
$DIMSOXD
 70
     0
  9
$DIMSAH
 70
     0
  9
$DIMBLK1
  1

  9
$DIMBLK2
  1

  9
$DIMSTYLE
  2
STANDARD
  9
$DIMCLRD
 70
     0
  9
$DIMCLRE
 70
     0
  9
$DIMCLRT
 70
     0
  9
$DIMTFAC
 40
1.0
  9
$DIMGAP
 40
0.09
  9
$LUNITS
 70
     2
  9
$LUPREC
 70
     4
  9
$SKETCHINC
 40
0.1
  9
$FILLETRAD
 40
3.0
  9
$AUNITS
 70
     0
  9
$AUPREC
 70
     0
  9
$MENU
  1
E:\r13\win\SUPPORT\ACAD
  9
$ELEVATION
 40
0.0
  9
$PELEVATION
 40
0.0
  9
$THICKNESS
 40
0.0
  9
$LIMCHECK
 70
     0
  9
$BLIPMODE
 70
     0
  9
$CHAMFERA
 40
0.0
  9
$CHAMFERB
 40
0.0
  9
$SKPOLY
 70
     0
  9
$TDCREATE
 40
2451600.4586799769
  9
$TDUPDATE
 40
2459429.6055757641
  9
$TDINDWG
 40
0.0367460069
  9
$TDUSRTIMER
 40
0.0367460069
  9
$USRTIMER
 70
     1
  9
$ANGBASE
 50
0.0
  9
$ANGDIR
 70
     0
  9
$PDMODE
 70
     0
  9
$PDSIZE
 40
0.0
  9
$PLINEWID
 40
0.0
  9
$COORDS
 70
     1
  9
$SPLFRAME
 70
     0
  9
$SPLINETYPE
 70
     6
  9
$SPLINESEGS
 70
     8
  9
$ATTDIA
 70
     0
  9
$ATTREQ
 70
     1
  9
$HANDLING
 70
     1
  9
$HANDSEED
  5
5E2
  9
$SURFTAB1
 70
     6
  9
$SURFTAB2
 70
     6
  9
$SURFTYPE
 70
     6
  9
$SURFU
 70
     6
  9
$SURFV
 70
     6
  9
$UCSNAME
  2

  9
$UCSORG
 10
0.0
 20
0.0
 30
0.0
  9
$UCSXDIR
 10
1.0
 20
0.0
 30
0.0
  9
$UCSYDIR
 10
0.0
 20
1.0
 30
0.0
  9
$PUCSNAME
  2

  9
$PUCSORG
 10
0.0
 20
0.0
 30
0.0
  9
$PUCSXDIR
 10
1.0
 20
0.0
 30
0.0
  9
$PUCSYDIR
 10
0.0
 20
1.0
 30
0.0
  9
$USERI1
 70
     3
  9
$USERI2
 70
     1
  9
$USERI3
 70
     1
  9
$USERI4
 70
     0
  9
$USERI5
 70
     0
  9
$USERR1
 40
1.0
  9
$USERR2
 40
3.0
  9
$USERR3
 40
3.0
  9
$USERR4
 40
3.0
  9
$USERR5
 40
10.0
  9
$WORLDVIEW
 70
     1
  9
$SHADEDGE
 70
     3
  9
$SHADEDIF
 70
    70
  9
$TILEMODE
 70
     1
  9
$MAXACTVP
 70
    16
  9
$PLIMCHECK
 70
     0
  9
$PEXTMIN
 10
1.0000000000000000E+020
 20
1.0000000000000000E+020
 30
1.0000000000000000E+020
  9
$PEXTMAX
 10
-1.0000000000000000E+020
 20
-1.0000000000000000E+020
 30
-1.0000000000000000E+020
  9
$PLIMMIN
 10
0.0
 20
0.0
  9
$PLIMMAX
 10
12.0
 20
9.0
  9
$UNITMODE
 70
     0
  9
$VISRETAIN
 70
     0
  9
$PLINEGEN
 70
     0
  9
$PSLTSCALE
 70
     0
  0
ENDSEC
  0
SECTION
  2
TABLES
  0
TABLE
  2
VPORT
 70
     1
  0
VPORT
  2
*ACTIVE
 70
     0
 10
0.0
 20
0.0
 11
1.0
 21
1.0
 12
328.5253265399956
 22
138.86297416340221
 13
0.0
 23
0.0
 14
10.0
 24
10.0
 15
10.0
 25
10.0
 16
0.0
 26
0.0
 36
1.0
 17
0.0
 27
0.0
 37
0.0
 40
286.12512617191948
 41
2.3805970149253728
 42
50.0
 43
0.0
 44
0.0
 50
0.0
 51
0.0
 71
     0
 72
   100
 73
     1
 74
     0
 75
     0
 76
     0
 77
     0
 78
     0
  0
ENDTAB
  0
TABLE
  2
LTYPE
 70
     4
  0
LTYPE
  2
CONTINUOUS
 70
     0
  3
Solid Line
 72
    65
 73
     0
 40
0.0
  0
LTYPE
  2
CENTER
 70
     0
  3
____ _ ____ _ ____ _ ____ _ ____ _ ____ _ ____
 72
    65
 73
     4
 40
2.0
 49
1.25
 49
-0.25
 49
0.25
 49
-0.25
  0
LTYPE
  2
HIDDEN
 70
     0
  3
_ _ _ _ _ _ _ _ _ _ _ _ _ _ _ _ _ _ _ _ _ _ _
 72
    65
 73
     2
 40
0.375
 49
0.25
 49
-0.125
  0
LTYPE
  2
PHANTOM2
 70
     0
  3
___ _ _ ___ _ _ ___ _ _ ___ _ _
 72
    65
 73
     6
 40
1.25
 49
0.625
 49
-0.125
 49
0.125
 49
-0.125
 49
0.125
 49
-0.125
  0
ENDTAB
  0
TABLE
  2
LAYER
 70
     3
  0
LAYER
  2
0
 70
     0
 62
     7
  6
CONTINUOUS
  0
LAYER
  2
1
 70
     0
 62
     1
  6
CENTER
  0
LAYER
  2
2
 70
     0
 62
     2
  6
HIDDEN
  0
ENDTAB
  0
TABLE
  2
STYLE
 70
     2
  0
STYLE
  2
STANDARD
 70
     0
 40
0.0
 41
1.0
 50
0.0
 71
     0
 42
0.2
  3
SIMPLEX
  4
BIGFONT
  0
STYLE
  2
STANDARD1
 70
     0
 40
0.0
 41
1.0
 50
0.0
 71
     0
 42
3.0
  3
txt
  4

  0
ENDTAB
  0
TABLE
  2
VIEW
 70
     0
  0
ENDTAB
  0
TABLE
  2
UCS
 70
     0
  0
ENDTAB
  0
TABLE
  2
APPID
 70
     4
  0
APPID
  2
ACAD
 70
     0
  0
APPID
  2
ACAD_MLEADERVER
 70
     0
  0
APPID
  2
ACAD_NAV_VCDISPLAY
 70
     0
  0
APPID
  2
ACAD_EXEMPT_FROM_CAD_STANDARDS
 70
     0
  0
ENDTAB
  0
TABLE
  2
DIMSTYLE
 70
     1
  0
DIMSTYLE
  2
STANDARD
 70
     0
  3

  4

  5

  6

  7

 40
1.0
 41
0.18
 42
0.0625
 43
0.38
 44
0.18
 45
0.0
 46
0.0
 47
0.0
 48
0.0
140
0.18
141
0.09
142
0.0
143
25.399999999999999
144
1.0
145
0.0
146
1.0
147
0.09
 71
     0
 72
     0
 73
     1
 74
     1
 75
     0
 76
     0
 77
     0
 78
     0
170
     0
171
     2
172
     0
173
     0
174
     0
175
     0
176
     0
177
     0
178
     0
  0
ENDTAB
  0
ENDSEC
  0
SECTION
  2
BLOCKS
  0
BLOCK
  8
0
  2
$MODEL_SPACE
 70
     0
 10
0.0
 20
0.0
 30
0.0
  3
$MODEL_SPACE
  1

  0
ENDBLK
  5
246
  8
0
  0
BLOCK
 67
     1
  8
0
  2
$PAPER_SPACE
 70
     0
 10
0.0
 20
0.0
 30
0.0
  3
$PAPER_SPACE
  1

  0
ENDBLK
  5
244
 67
     1
  8
0
  0
ENDSEC
  0
SECTION
  2
ENTITIES
  0
LINE
  5
182
  8
1
 10
189.72122371238331
 20
261.68111257524743
 30
0.0
 11
377.72122371238328
 21
261.68111257524743
 31
0.0
  0
LINE
  5
183
  8
0
 10
208.72122371238331
 20
247.6811125752474
 30
0.0
 11
358.72122371238328
 21
247.6811125752474
 31
0.0
  0
LINE
  5
184
  8
0
 10
208.72122371238331
 20
275.68111257524743
 30
0.0
 11
358.72122371238328
 21
275.68111257524743
 31
0.0
  0
LINE
  5
185
  8
0
 10
344.72122371238328
 20
122.6811125752476
 30
0.0
 11
372.72122371238351
 21
122.6811125752475
 31
0.0
1001
ACAD
1000
ASC_BOUNDS
1002
{
1070
    19
1002
}
  0
LINE
  5
18F
  8
1
 10
110.11831210512111
 20
172.6811125752474
 30
0.0
 11
110.11831210512111
 21
117.6811125752476
 31
0.0
  0
LINE
  5
190
  8
0
 10
96.118312105121163
 20
122.6811125752475
 30
0.0
 11
124.11831210512111
 21
122.6811125752476
 31
0.0
  0
ARC
  5
193
  8
0
 10
98.304445803668145
 20
164.3176629148835
 30
0.0
 40
2.186227853638524
 50
101.0584527380104
 51
179.46824279590831
1001
ACAD
1000
ASC_BOUNDS
1002
{
1070
    19
1002
}
  0
ARC
  5
194
  8
2
 10
99.106713127868147
 20
164.4177630970255
 30
0.0
 40
2.9894665667396469
 50
181.5298166133137
 51
222.2067220819452
1001
ACAD
1000
ASC_BOUNDS
1002
{
1070
    19
1002
}
  0
ARC
  5
196
  8
0
 10
121.932178406574
 20
164.3176629148835
 30
0.0
 40
2.186227853638524
 50
0.5317572040916837
 51
78.941547261989584
1001
ACAD
1000
ASC_BOUNDS
1002
{
1070
    19
1002
}
  0
ARC
  5
198
  8
2
 10
121.12991108237421
 20
164.4177630970255
 30
0.0
 40
2.9894665667396172
 50
317.7932779180552
 51
358.4701833866863
1001
ACAD
1000
ASC_BOUNDS
1002
{
1070
    19
1002
}
  0
LINE
  5
19F
  8
1
 10
208.72122371238359
 20
164.8925345650822
 30
0.0
 11
208.7212237123837
 21
117.68111257524821
 31
0.0
1001
ACAD
1000
ASC_BOUNDS
1002
{
1070
    19
1002
}
  0
LINE
  5
1A2
  8
0
 10
194.72122371238351
 20
122.6811125752476
 30
0.0
 11
222.72122371238339
 21
122.6811125752476
 31
0.0
1001
ACAD
1000
ASC_BOUNDS
1002
{
1070
    19
1005
0
1002
}
  0
LINE
  5
1A3
  8
2
 10
204.47122371238379
 20
122.6811125752476
 30
0.0
 11
204.47122371238379
 21
140.19702420509461
 31
0.0
  0
LINE
  5
1A4
  8
2
 10
212.97122371238379
 20
122.6811125752476
 30
0.0
 11
212.97122371238379
 21
140.19702420509461
 31
0.0
  0
ARC
  5
1A8
  8
2
 10
216.07820408733119
 20
156.19222274379231
 30
0.0
 40
0.9135335788596957
 50
314.73927394698308
 51
45.260726053018132
1001
ACAD
1000
ASC_BOUNDS
1002
{
1070
    19
1005
0
1002
}
  0
ARC
  5
1AA
  8
2
 10
201.36424333743301
 20
156.19222274379231
 30
0.0
 40
0.9135335788596957
 50
134.73927394698191
 51
225.2607260530169
1001
ACAD
1000
ASC_BOUNDS
1002
{
1070
    19
1005
0
1002
}
  0
LINE
  5
1AC
  8
2
 10
216.7212237123822
 20
154.6811125752476
 30
0.0
 11
200.7212237123822
 21
154.6811125752476
 31
0.0
1001
ACAD
1000
ASC_BOUNDS
1002
{
1070
    19
1005
0
1002
}
  0
LINE
  5
1AD
  8
2
 10
200.7212237123822
 20
155.54332416812471
 30
0.0
 11
200.7212237123822
 21
154.6811125752476
 31
0.0
1001
ACAD
1000
ASC_BOUNDS
1002
{
1070
    19
1005
0
1002
}
  0
LINE
  5
1AE
  8
2
 10
216.7212237123822
 20
155.54332416812471
 30
0.0
 11
216.7212237123822
 21
154.6811125752476
 31
0.0
1001
ACAD
1000
ASC_BOUNDS
1002
{
1070
    19
1005
0
1002
}
  0
LINE
  5
1B2
  8
2
 10
200.7212237123822
 20
157.9824114595074
 30
0.0
 11
200.7212237123822
 21
156.84112131946009
 31
0.0
1001
ACAD
1000
ASC_BOUNDS
1002
{
1070
    19
1005
0
1002
}
  0
LINE
  5
1B3
  8
2
 10
216.7212237123822
 20
161.39144604035801
 30
0.0
 11
216.7212237123822
 21
156.84112131946009
 31
0.0
1001
ACAD
1000
ASC_BOUNDS
1002
{
1070
    19
1005
0
1002
}
  0
LINE
  5
1B6
  8
1
 10
283.72122371238339
 20
172.6811125752474
 30
0.0
 11
283.72122371238339
 21
153.18111257524751
 31
0.0
  0
CIRCLE
  5
1B8
  8
2
 10
208.7212237123837
 20
261.68111257524743
 30
0.0
 40
4.25
  0
ARC
  5
1B9
  8
0
 10
208.72122371238331
 20
261.68111257524743
 30
0.0
 40
14.0
 50
90.0
 51
270.0
  0
CIRCLE
  5
1BA
  8
0
 10
208.7212237123837
 20
261.68111257524743
 30
0.0
 40
7.9999999999985221
  0
LINE
  5
1BB
  8
1
 10
208.72122371238359
 20
280.68111257524743
 30
0.0
 11
208.7212237123837
 21
242.6811125752474
 31
0.0
1001
ACAD
1000
ASC_BOUNDS
1002
{
1070
    19
1002
}
  0
CIRCLE
  5
1C0
  8
0
 10
283.72122371238339
 20
261.68111257524743
 30
0.0
 40
2.1665888346741431
  0
CIRCLE
  5
1C1
  8
0
 10
283.72122371238339
 20
261.68111257524743
 30
0.0
 40
2.1665888346741431
  0
CIRCLE
  5
1C2
  8
0
 10
266.64049445641132
 20
261.68111257524743
 30
0.0
 40
2.1665888346741431
  0
CIRCLE
  5
1C3
  8
0
 10
275.3940213482104
 20
261.68111257524743
 30
0.0
 40
2.1665888346741431
  0
CIRCLE
  5
1C4
  8
0
 10
292.04842607655632
 20
261.68111257524743
 30
0.0
 40
2.1665888346741431
  0
CIRCLE
  5
1C5
  8
0
 10
300.80195296835541
 20
261.68111257524743
 30
0.0
 40
2.1665888346741431
  0
LINE
  5
1D1
  8
1
 10
358.72122371238311
 20
164.8925345650828
 30
0.0
 11
358.72122371238288
 21
117.6811125752476
 31
0.0
1001
ACAD
1000
ASC_BOUNDS
1002
{
1070
    19
1002
}
  0
LINE
  5
1D2
  8
2
 10
354.47122371238288
 20
122.6811125752476
 30
0.0
 11
354.47122371238288
 21
140.6811125752474
 31
0.0
  0
LINE
  5
1D3
  8
2
 10
362.97122371238288
 20
122.6811125752476
 30
0.0
 11
362.97122371238288
 21
140.6811125752474
 31
0.0
  0
CIRCLE
  5
1E3
  8
2
 10
358.72122371238299
 20
261.68111257524743
 30
0.0
 40
4.25
  0
CIRCLE
  5
1E4
  8
0
 10
358.72122371238299
 20
261.68111257524743
 30
0.0
 40
7.9999999999985221
  0
ARC
  5
1E5
  8
0
 10
358.72122371238328
 20
261.68111257524743
 30
0.0
 40
14.0
 50
269.9999999999979
 51
90.0
  0
LINE
  5
1E6
  8
1
 10
358.72122371238322
 20
280.68111257524743
 30
0.0
 11
358.72122371238282
 21
242.6811125752474
 31
0.0
1001
ACAD
1000
ASC_BOUNDS
1002
{
1070
    19
1002
}
  0
LINE
  5
29B
  8
0
 10
194.72122371238351
 20
154.9490206807904
 30
0.0
 11
194.72122371238351
 21
122.6811125752476
 31
0.0
  0
LINE
  5
29D
  8
0
 10
372.72122371238362
 20
154.94902068079091
 30
0.0
 11
372.72122371238362
 21
122.6811125752475
 31
0.0
  0
LINE
  5
29F
  8
0
 10
344.72122371238328
 20
150.43812102220531
 30
0.0
 11
344.72122371238328
 21
122.6811125752476
 31
0.0
  0
LINE
  5
2A4
  8
0
 10
222.72122371238339
 20
150.438121022205
 30
0.0
 11
222.72122371238339
 21
122.6811125752476
 31
0.0
  0
LINE
  5
2A5
  8
0
 10
124.11831210512111
 20
164.33795281635571
 30
0.0
 11
124.11831210512111
 21
122.6811125752476
 31
0.0
  0
ARC
  5
2B0
  8
0
 10
110.11831210512111
 20
105.6296693783049
 30
0.0
 40
62.05144319694255
 50
78.629872907898175
 51
101.3701270921009
  0
ARC
  5
2B2
  8
2
 10
110.11831210512111
 20
180.98043400911939
 30
0.0
 40
22.799321433871981
 50
234.54215339010179
 51
305.45784660989818
  0
LINE
  5
2B3
  8
0
 10
96.118312105121163
 20
164.3379528163658
 30
0.0
 11
96.118312105121163
 21
122.6811125752475
 31
0.0
  0
ARC
  5
2D5
  8
0
 10
283.72122371238447
 20
-192.31888742475249
 30
0.0
 40
360.0
 50
75.935339366261843
 51
104.0646606337384
  0
ARC
  5
2D6
  8
0
 10
196.72122371238351
 20
154.9490206807904
 30
0.0
 40
2.0
 50
104.0646606337358
 51
180.0
  0
ARC
  5
2D7
  8
0
 10
370.72122371238362
 20
154.94902068079091
 30
0.0
 40
2.0
 50
359.9999999999996
 51
75.935339366261744
  0
ARC
  5
2D8
  8
0
 10
283.72122371238447
 20
-201.81888742475249
 30
0.0
 40
360.0
 50
80.649998115146715
 51
99.35000188485364
  0
ARC
  5
2D9
  8
0
 10
225.72122371238339
 20
150.438121022205
 30
0.0
 40
3.0
 50
99.350001884851267
 51
180.0
  0
ARC
  5
2DB
  8
0
 10
341.72122371238339
 20
150.43812102220531
 30
0.0
 40
3.0
 50
0.0
 51
80.649998115147284
  0
LINE
  5
2DD
  8
2
 10
201.9212237123821
 20
157.03222535435339
 30
0.0
 11
201.92122371238219
 21
154.6811125752476
 31
0.0
1001
ACAD
1000
ASC_BOUNDS
1002
{
1070
    19
1005
0
1002
}
  0
LINE
  5
2DE
  8
2
 10
215.52122371238221
 20
159.93982431989639
 30
0.0
 11
215.52122371238221
 21
154.6811125752476
 31
0.0
1001
ACAD
1000
ASC_BOUNDS
1002
{
1070
    19
1005
0
1002
}
  0
LINE
  5
2E2
  8
2
 10
215.52122371238221
 20
159.90883282018191
 30
0.0
 11
201.9212237123821
 21
157.01115342645889
 31
0.0
  0
LINE
  5
2E3
  8
2
 10
351.9212237123844
 20
159.90883282018169
 30
0.0
 11
365.5212237123846
 21
157.01115342645861
 31
0.0
  0
LINE
  5
2E4
  8
2
 10
351.92122371238452
 20
159.93982431989619
 30
0.0
 11
351.92122371238452
 21
154.6811125752474
 31
0.0
1001
ACAD
1000
ASC_BOUNDS
1002
{
1070
    19
1005
0
1002
}
  0
LINE
  5
2E5
  8
2
 10
365.5212237123846
 20
157.03222535435319
 30
0.0
 11
365.52122371238448
 21
154.6811125752474
 31
0.0
1001
ACAD
1000
ASC_BOUNDS
1002
{
1070
    19
1005
0
1002
}
  0
LINE
  5
2E6
  8
2
 10
350.72122371238441
 20
161.39144604035781
 30
0.0
 11
350.72122371238447
 21
156.84112131945989
 31
0.0
1001
ACAD
1000
ASC_BOUNDS
1002
{
1070
    19
1005
0
1002
}
  0
LINE
  5
2E7
  8
2
 10
366.72122371238447
 20
157.9824114595072
 30
0.0
 11
366.72122371238447
 21
156.84112131945989
 31
0.0
1001
ACAD
1000
ASC_BOUNDS
1002
{
1070
    19
1005
0
1002
}
  0
LINE
  5
2E8
  8
2
 10
350.72122371238447
 20
155.54332416812451
 30
0.0
 11
350.72122371238447
 21
154.6811125752474
 31
0.0
1001
ACAD
1000
ASC_BOUNDS
1002
{
1070
    19
1005
0
1002
}
  0
LINE
  5
2E9
  8
2
 10
366.72122371238447
 20
155.5433241681244
 30
0.0
 11
366.72122371238447
 21
154.6811125752474
 31
0.0
1001
ACAD
1000
ASC_BOUNDS
1002
{
1070
    19
1005
0
1002
}
  0
LINE
  5
2EA
  8
2
 10
350.72122371238447
 20
154.6811125752474
 30
0.0
 11
366.72122371238447
 21
154.6811125752474
 31
0.0
1001
ACAD
1000
ASC_BOUNDS
1002
{
1070
    19
1005
0
1002
}
  0
ARC
  5
2EB
  8
2
 10
366.07820408733369
 20
156.19222274379209
 30
0.0
 40
0.9135335788596957
 50
314.73927394698302
 51
45.260726053017962
1001
ACAD
1000
ASC_BOUNDS
1002
{
1070
    19
1005
0
1002
}
  0
ARC
  5
2EC
  8
2
 10
351.36424333743548
 20
156.1922227437922
 30
0.0
 40
0.9135335788596957
 50
134.73927394698171
 51
225.2607260530167
1001
ACAD
1000
ASC_BOUNDS
1002
{
1070
    19
1005
0
1002
}
  0
LINE
  5
301
  8
2
 10
352.22122371238299
 20
140.6811125752474
 30
0.0
 11
365.22122371238299
 21
140.6811125752474
 31
0.0
1001
ACAD
1000
ASC_BOUNDS
1002
{
1070
    19
1005
0
1002
}
  0
LINE
  5
302
  8
2
 10
202.2212237123837
 20
140.68111257524669
 30
0.0
 11
215.2212237123837
 21
140.6811125752466
 31
0.0
1001
ACAD
1000
ASC_BOUNDS
1002
{
1070
    19
1005
0
1002
}
  0
POLYLINE
  5
317
  8
1
 66
     1
 10
0.0
 20
0.0
 30
0.0
  0
VERTEX
  5
318
  8
1
 10
283.72122371238339
 20
280.68111257524748
 30
0.0
  0
VERTEX
  5
319
  8
1
 10
283.72122371238339
 20
242.68111257524751
 30
0.0
  0
SEQEND
  5
31A
  8
1
  0
TEXT
  5
432
  8
0
 62
     3
 10
0.0
 20
0.0
 30
0.0
 40
10.0
  1
EAG180C-LB
  7
STANDARD1
  0
LINE
  5
481
  8
2
 10
215.22122371238359
 20
154.6811125752476
 30
0.0
 11
215.2212237123837
 21
140.68111257524669
 31
0.0
1001
ACAD
1000
ASC_BOUNDS
1002
{
1070
    19
1002
}
  0
LINE
  5
483
  8
2
 10
202.22122371238359
 20
154.6811125752476
 30
0.0
 11
202.2212237123837
 21
140.68111257524669
 31
0.0
1001
ACAD
1000
ASC_BOUNDS
1002
{
1070
    19
1002
}
  0
LINE
  5
484
  8
2
 10
365.22122371238311
 20
154.6811125752474
 30
0.0
 11
365.22122371238299
 21
140.6811125752474
 31
0.0
1001
ACAD
1000
ASC_BOUNDS
1002
{
1070
    19
1002
}
  0
LINE
  5
485
  8
2
 10
352.22122371238311
 20
154.6811125752474
 30
0.0
 11
352.22122371238299
 21
140.6811125752474
 31
0.0
1001
ACAD
1000
ASC_BOUNDS
1002
{
1070
    19
1002
}
  0
LINE
  5
486
  8
2
 10
358.72122371238447
 20
154.6811125752474
 30
0.0
 11
358.72122371238299
 21
140.6811125752474
 31
0.0
  0
LINE
  5
487
  8
2
 10
208.7212237123822
 20
154.6811125752476
 30
0.0
 11
208.7212237123837
 21
140.68111257524669
 31
0.0
  0
ENDSEC
  0
EOF
