  0
SECTION
  2
HEADER
  9
$ACADVER
  1
AC1009
  9
$INSBASE
 10
0.0
 20
0.0
 30
0.0
  9
$EXTMIN
 10
0.0
 20
-2.960436562073669
 30
0.0
  9
$EXTMAX
 10
293.001290112275
 20
261.5
 30
0.0
  9
$LIMMIN
 10
0.0
 20
0.0
  9
$LIMMAX
 10
385.0
 20
270.0
  9
$ORTHOMODE
 70
     1
  9
$REGENMODE
 70
     1
  9
$FILLMODE
 70
     1
  9
$QTEXTMODE
 70
     0
  9
$MIRRTEXT
 70
     0
  9
$DRAGMODE
 70
     2
  9
$LTSCALE
 40
10.0
  9
$OSMODE
 70
    37
  9
$ATTMODE
 70
     1
  9
$TEXTSIZE
 40
0.2
  9
$TRACEWID
 40
0.05
  9
$TEXTSTYLE
  7
STANDARD
  9
$CLAYER
  8
0
  9
$CELTYPE
  6
BYLAYER
  9
$CECOLOR
 62
   256
  9
$DIMSCALE
 40
1.0
  9
$DIMASZ
 40
3.0
  9
$DIMEXO
 40
0.5
  9
$DIMDLI
 40
0.38
  9
$DIMRND
 40
0.0
  9
$DIMDLE
 40
0.0
  9
$DIMEXE
 40
1.0
  9
$DIMTP
 40
0.0
  9
$DIMTM
 40
0.0
  9
$DIMTXT
 40
3.0
  9
$DIMCEN
 40
0.0
  9
$DIMTSZ
 40
0.0
  9
$DIMTOL
 70
     0
  9
$DIMLIM
 70
     0
  9
$DIMTIH
 70
     0
  9
$DIMTOH
 70
     0
  9
$DIMSE1
 70
     0
  9
$DIMSE2
 70
     0
  9
$DIMTAD
 70
     1
  9
$DIMZIN
 70
     0
  9
$DIMBLK
  1

  9
$DIMASO
 70
     1
  9
$DIMSHO
 70
     1
  9
$DIMPOST
  1

  9
$DIMAPOST
  1

  9
$DIMALT
 70
     0
  9
$DIMALTD
 70
     2
  9
$DIMALTF
 40
25.399999999999999
  9
$DIMLFAC
 40
1.0
  9
$DIMTOFL
 70
     0
  9
$DIMTVP
 40
0.0
  9
$DIMTIX
 70
     0
  9
$DIMSOXD
 70
     0
  9
$DIMSAH
 70
     0
  9
$DIMBLK1
  1

  9
$DIMBLK2
  1

  9
$DIMSTYLE
  2
STANDARD
  9
$DIMCLRD
 70
     0
  9
$DIMCLRE
 70
     0
  9
$DIMCLRT
 70
     0
  9
$DIMTFAC
 40
1.0
  9
$DIMGAP
 40
0.5
  9
$LUNITS
 70
     2
  9
$LUPREC
 70
     1
  9
$SKETCHINC
 40
0.1
  9
$FILLETRAD
 40
2.399999999999999
  9
$AUNITS
 70
     0
  9
$AUPREC
 70
     1
  9
$MENU
  1
E:\r13\win\SUPPORT\ACAD
  9
$ELEVATION
 40
0.0
  9
$PELEVATION
 40
0.0
  9
$THICKNESS
 40
0.0
  9
$LIMCHECK
 70
     0
  9
$BLIPMODE
 70
     0
  9
$CHAMFERA
 40
0.0
  9
$CHAMFERB
 40
0.0
  9
$SKPOLY
 70
     0
  9
$TDCREATE
 40
2451600.4576087962
  9
$TDUPDATE
 40
2457534.4791019792
  9
$TDINDWG
 40
0.2076879282
  9
$TDUSRTIMER
 40
0.2076879282
  9
$USRTIMER
 70
     1
  9
$ANGBASE
 50
0.0
  9
$ANGDIR
 70
     0
  9
$PDMODE
 70
     0
  9
$PDSIZE
 40
0.0
  9
$PLINEWID
 40
0.0
  9
$COORDS
 70
     1
  9
$SPLFRAME
 70
     0
  9
$SPLINETYPE
 70
     6
  9
$SPLINESEGS
 70
     8
  9
$ATTDIA
 70
     0
  9
$ATTREQ
 70
     1
  9
$HANDLING
 70
     1
  9
$HANDSEED
  5
17A7
  9
$SURFTAB1
 70
     6
  9
$SURFTAB2
 70
     6
  9
$SURFTYPE
 70
     6
  9
$SURFU
 70
     6
  9
$SURFV
 70
     6
  9
$UCSNAME
  2

  9
$UCSORG
 10
0.0
 20
0.0
 30
0.0
  9
$UCSXDIR
 10
1.0
 20
0.0
 30
0.0
  9
$UCSYDIR
 10
0.0
 20
1.0
 30
0.0
  9
$PUCSNAME
  2

  9
$PUCSORG
 10
0.0
 20
0.0
 30
0.0
  9
$PUCSXDIR
 10
1.0
 20
0.0
 30
0.0
  9
$PUCSYDIR
 10
0.0
 20
1.0
 30
0.0
  9
$USERI1
 70
     3
  9
$USERI2
 70
     1
  9
$USERI3
 70
     1
  9
$USERI4
 70
     0
  9
$USERI5
 70
     0
  9
$USERR1
 40
1.0
  9
$USERR2
 40
3.0
  9
$USERR3
 40
3.0
  9
$USERR4
 40
3.0
  9
$USERR5
 40
10.0
  9
$WORLDVIEW
 70
     1
  9
$SHADEDGE
 70
     3
  9
$SHADEDIF
 70
    70
  9
$TILEMODE
 70
     1
  9
$MAXACTVP
 70
    16
  9
$PLIMCHECK
 70
     0
  9
$PEXTMIN
 10
1.0000000000000000E+020
 20
1.0000000000000000E+020
 30
1.0000000000000000E+020
  9
$PEXTMAX
 10
-1.0000000000000000E+020
 20
-1.0000000000000000E+020
 30
-1.0000000000000000E+020
  9
$PLIMMIN
 10
0.0
 20
0.0
  9
$PLIMMAX
 10
12.0
 20
9.0
  9
$UNITMODE
 70
     0
  9
$VISRETAIN
 70
     0
  9
$PLINEGEN
 70
     0
  9
$PSLTSCALE
 70
     0
  0
ENDSEC
  0
SECTION
  2
TABLES
  0
TABLE
  2
VPORT
 70
     1
  0
VPORT
  2
*ACTIVE
 70
     0
 10
0.0
 20
0.0
 11
1.0
 21
1.0
 12
326.92307692307691
 22
180.0
 13
0.0
 23
0.0
 14
5.0
 24
5.0
 15
0.0
 25
0.0
 16
0.0
 26
0.0
 36
1.0
 17
0.0
 27
0.0
 37
0.0
 40
360.0
 41
1.816239316239316
 42
50.0
 43
0.0
 44
0.0
 50
0.0
 51
0.0
 71
     0
 72
  1000
 73
     1
 74
     0
 75
     0
 76
     0
 77
     0
 78
     0
  0
ENDTAB
  0
TABLE
  2
LTYPE
 70
     4
  0
LTYPE
  2
CONTINUOUS
 70
     0
  3
Solid Line
 72
    65
 73
     0
 40
0.0
  0
LTYPE
  2
CENTER
 70
     0
  3
____ _ ____ _ ____ _ ____ _ ____ _ ____ _ ____
 72
    65
 73
     4
 40
2.0
 49
1.25
 49
-0.25
 49
0.25
 49
-0.25
  0
LTYPE
  2
HIDDEN
 70
     0
  3
_ _ _ _ _ _ _ _ _ _ _ _ _ _ _ _ _ _ _ _ _ _ _
 72
    65
 73
     2
 40
0.375
 49
0.25
 49
-0.125
  0
LTYPE
  2
PHANTOM2
 70
     0
  3
___ _ _ ___ _ _ ___ _ _ ___ _ _
 72
    65
 73
     6
 40
1.25
 49
0.625
 49
-0.125
 49
0.125
 49
-0.125
 49
0.125
 49
-0.125
  0
ENDTAB
  0
TABLE
  2
LAYER
 70
     5
  0
LAYER
  2
0
 70
     0
 62
     7
  6
CONTINUOUS
  0
LAYER
  2
1
 70
     0
 62
     1
  6
CENTER
  0
LAYER
  2
2
 70
     0
 62
     2
  6
HIDDEN
  0
LAYER
  2
3
 70
     0
 62
     3
  6
CONTINUOUS
  0
LAYER
  2
DEFPOINTS
 70
     0
 62
     7
  6
CONTINUOUS
  0
ENDTAB
  0
TABLE
  2
STYLE
 70
     2
  0
STYLE
  2
STANDARD
 70
     0
 40
0.0
 41
1.0
 50
0.0
 71
     0
 42
0.2
  3
SIMPLEX
  4
BIGFONT
  0
STYLE
  2
STANDARD1
 70
     0
 40
0.0
 41
1.0
 50
0.0
 71
     0
 42
3.0
  3
txt
  4

  0
ENDTAB
  0
TABLE
  2
VIEW
 70
     0
  0
ENDTAB
  0
TABLE
  2
UCS
 70
     0
  0
ENDTAB
  0
TABLE
  2
APPID
 70
    12
  0
APPID
  2
ACAD
 70
     0
  0
APPID
  2
ACAD_MLEADERVER
 70
     0
  0
APPID
  2
ACAD_EXEMPT_FROM_CAD_STANDARDS
 70
     0
  0
APPID
  2
ACAD_NAV_VCDISPLAY
 70
     0
  0
APPID
  2
ACAD_DSTYLE_DIMRADIAL_EXTENSION
 70
     0
  0
APPID
  2
ACAD_DSTYLE_DIMJAG
 70
     0
  0
APPID
  2
ACAD_DSTYLE_DIMTALN
 70
     0
  0
APPID
  2
GENIUS_GENODEF_13
 70
     0
  0
APPID
  2
GENIUS_GENOBJ-N-FIL_13
 70
     0
  0
APPID
  2
ACCMTRANSPARENCY
 70
     0
  0
APPID
  2
GRADIENTCOLOR1ACI
 70
     0
  0
APPID
  2
GRADIENTCOLOR2ACI
 70
     0
  0
ENDTAB
  0
TABLE
  2
DIMSTYLE
 70
     1
  0
DIMSTYLE
  2
STANDARD
 70
     0
  3

  4

  5

  6

  7

 40
1.0
 41
0.18
 42
0.0625
 43
0.38
 44
0.18
 45
0.0
 46
0.0
 47
0.0
 48
0.0
140
0.18
141
0.09
142
0.0
143
25.399999999999999
144
1.0
145
0.0
146
1.0
147
0.09
 71
     0
 72
     0
 73
     1
 74
     1
 75
     0
 76
     0
 77
     0
 78
     0
170
     0
171
     2
172
     0
173
     0
174
     0
175
     0
176
     0
177
     0
178
     0
  0
ENDTAB
  0
ENDSEC
  0
SECTION
  2
BLOCKS
  0
BLOCK
  8
0
  2
$MODEL_SPACE
 70
     0
 10
0.0
 20
0.0
 30
0.0
  3
$MODEL_SPACE
  1

  0
ENDBLK
  5
239
  8
0
  0
BLOCK
 67
     1
  8
0
  2
$PAPER_SPACE
 70
     0
 10
0.0
 20
0.0
 30
0.0
  3
$PAPER_SPACE
  1

  0
ENDBLK
  5
237
 67
     1
  8
0
  0
ENDSEC
  0
SECTION
  2
ENTITIES
  0
TEXT
  5
3FB
  8
0
 62
     3
 10
0.0
 20
0.0
 30
0.0
 40
10.0
  1
EAG160MV-3/2NC
  7
STANDARD1
  0
LINE
  5
61B
  8
0
 10
171.0
 20
50.0
 30
0.0
 11
171.0
 21
78.0
 31
0.0
  0
ARC
  5
61C
  8
0
 10
274.0
 20
64.0
 30
0.0
 40
13.999999999999989
 50
90.0
 51
270.0
  0
LINE
  5
625
  8
1
 10
154.82499999999999
 20
71.100000000000023
 30
0.0
 11
166.375
 21
71.100000000000023
 31
0.0
  0
LINE
  5
626
  8
1
 10
160.59999999999999
 20
65.325000000000045
 30
0.0
 11
160.59999999999999
 21
76.875
 31
0.0
  0
LINE
  5
627
  8
1
 10
122.99771369657481
 20
242.5
 30
0.0
 11
293.001290112275
 21
242.5
 31
0.0
  0
LINE
  5
62A
  8
1
 10
154.19999999999999
 20
58.225000000000023
 30
0.0
 11
154.19999999999999
 21
69.774999999999977
 31
0.0
  0
LINE
  5
62B
  8
1
 10
154.82499999999999
 20
56.89999999999997
 30
0.0
 11
166.375
 21
56.89999999999997
 31
0.0
  0
LINE
  5
62C
  8
1
 10
160.59999999999999
 20
51.125
 30
0.0
 11
160.59999999999999
 21
62.674999999999947
 31
0.0
  0
LINE
  5
632
  8
0
 10
142.0
 20
228.5
 30
0.0
 11
274.0
 21
228.5
 31
0.0
  0
POLYLINE
  5
633
  8
0
 66
     1
 10
0.0
 20
0.0
 30
0.0
  0
VERTEX
  5
1678
  8
0
 10
160.51307030125801
 20
231.9763751374617
 30
0.0
  0
VERTEX
  5
1679
  8
0
 10
159.55852537896951
 20
231.82651495995881
 30
0.0
  0
VERTEX
  5
167A
  8
0
 10
158.59296998508091
 20
231.767429922557
 30
0.0
  0
VERTEX
  5
167B
  8
0
 10
157.6290137678977
 20
231.79992122454621
 30
0.0
  0
VERTEX
  5
167C
  8
0
 10
156.7669751646516
 20
231.9085299867937
 30
0.0
  0
VERTEX
  5
167D
  8
0
 10
155.91447187859711
 20
232.0912463900504
 30
0.0
  0
VERTEX
  5
167E
  8
0
 10
155.0803551893523
 20
232.3456772931728
 30
0.0
  0
VERTEX
  5
167F
  8
0
 10
154.2734763765356
 20
232.6694295550177
 30
0.0
  0
VERTEX
  5
1680
  8
0
 10
153.49624941024919
 20
233.06248511929479
 30
0.0
  0
VERTEX
  5
1681
  8
0
 10
152.75174535026741
 20
233.52218353207721
 30
0.0
  0
VERTEX
  5
1682
  8
0
 10
152.04735464905099
 20
234.04327508029621
 30
0.0
  0
VERTEX
  5
1683
  8
0
 10
151.39046775906061
 20
234.6205100508831
 30
0.0
  0
VERTEX
  5
1684
  8
0
 10
150.7794167541187
 20
235.2573384955885
 30
0.0
  0
VERTEX
  5
1685
  8
0
 10
150.22068309480679
 20
235.94657534983739
 30
0.0
  0
VERTEX
  5
1686
  8
0
 10
149.71954991070419
 20
236.68073347310769
 30
0.0
  0
VERTEX
  5
1687
  8
0
 10
149.2813003313899
 20
237.452325724877
 30
0.0
  0
VERTEX
  5
1688
  8
0
 10
148.90458652996401
 20
238.26728384411871
 30
0.0
  0
VERTEX
  5
1689
  8
0
 10
148.59451980510599
 20
239.1146537232504
 30
0.0
  0
VERTEX
  5
168A
  8
0
 10
148.3538172359317
 20
239.9854548495214
 30
0.0
  0
VERTEX
  5
168B
  8
0
 10
148.185195901556
 20
240.87070671018159
 30
0.0
  0
VERTEX
  5
168C
  8
0
 10
148.08952029835689
 20
241.77482834484411
 30
0.0
  0
VERTEX
  5
168D
  8
0
 10
148.0679022855561
 20
242.68723511591099
 30
0.0
  0
VERTEX
  5
168E
  8
0
 10
148.12018971733519
 20
243.5983294792662
 30
0.0
  0
VERTEX
  5
168F
  8
0
 10
148.2462304478754
 20
244.49851389079419
 30
0.0
  0
VERTEX
  5
1690
  8
0
 10
148.44724998442791
 20
245.38709149534799
 30
0.0
  0
VERTEX
  5
1691
  8
0
 10
148.7215025769263
 20
246.2582353370895
 30
0.0
  0
VERTEX
  5
1692
  8
0
 10
149.06585919800381
 20
247.1027542481298
 30
0.0
  0
VERTEX
  5
1693
  8
0
 10
149.4771908202934
 20
247.91145706058029
 30
0.0
  0
VERTEX
  5
1694
  8
0
 10
149.95333506501811
 20
248.67839132724589
 30
0.0
  0
VERTEX
  5
1695
  8
0
 10
150.4932401883012
 20
249.403873479879
 30
0.0
  0
VERTEX
  5
1696
  8
0
 10
151.0910006345928
 20
250.08022998137889
 30
0.0
  0
VERTEX
  5
1697
  8
0
 10
151.74071084834279
 20
250.69978729464449
 30
0.0
  0
VERTEX
  5
1698
  8
0
 10
152.43470179370041
 20
251.2549069566073
 30
0.0
  0
VERTEX
  5
1699
  8
0
 10
153.17529455137671
 20
251.7496243509386
 30
0.0
  0
VERTEX
  5
169A
  8
0
 10
153.95442817925081
 20
252.17880167129829
 30
0.0
  0
VERTEX
  5
169B
  8
0
 10
154.76404173520231
 20
252.5373011113463
 30
0.0
  0
VERTEX
  5
169C
  8
0
 10
155.59300497831671
 20
252.82023131165991
 30
0.0
  0
VERTEX
  5
169D
  8
0
 10
156.446079638165
 20
253.0313425263619
 30
0.0
  0
VERTEX
  5
169E
  8
0
 10
157.3140627520269
 20
253.16869278262189
 30
0.0
  0
VERTEX
  5
169F
  8
0
 10
158.1877513571817
 20
253.23034010760989
 30
0.0
  0
VERTEX
  5
16A0
  8
0
 10
158.9664094783509
 20
253.22089804522781
 30
0.0
  0
VERTEX
  5
16A1
  8
0
 10
159.74372321746441
 20
253.15178921161601
 30
0.0
  0
VERTEX
  5
16A2
  8
0
 10
160.51307030125801
 20
253.0236248625383
 30
0.0
  0
SEQEND
  5
16A3
  8
0
  0
POLYLINE
  5
634
  8
0
 66
     1
 10
0.0
 20
0.0
 30
0.0
  0
VERTEX
  5
16A4
  8
0
 10
188.24116298472831
 20
246.1959092816345
 30
0.0
  0
VERTEX
  5
16A5
  8
0
 10
188.68646354283081
 20
245.8347614374311
 30
0.0
  0
VERTEX
  5
16A6
  8
0
 10
189.03693525938041
 20
245.47231371724871
 30
0.0
  0
VERTEX
  5
16A7
  8
0
 10
189.34599764588529
 20
245.07172831175239
 30
0.0
  0
VERTEX
  5
16A8
  8
0
 10
189.6079725386555
 20
244.64056720867191
 30
0.0
  0
VERTEX
  5
16A9
  8
0
 10
189.82043227642771
 20
244.1810180035925
 30
0.0
  0
VERTEX
  5
16AA
  8
0
 10
189.98122245868589
 20
243.69915508244381
 30
0.0
  0
VERTEX
  5
16AB
  8
0
 10
190.0874280035616
 20
243.20395422006379
 30
0.0
  0
VERTEX
  5
16AC
  8
0
 10
190.1374811507159
 20
242.69678739784891
 30
0.0
  0
VERTEX
  5
16AD
  8
0
 10
190.1308772318925
 20
242.18557060745991
 30
0.0
  0
VERTEX
  5
16AE
  8
0
 10
190.0677365708512
 20
241.6798737639842
 30
0.0
  0
VERTEX
  5
16AF
  8
0
 10
189.94749345949879
 20
241.18343157904999
 30
0.0
  0
VERTEX
  5
16B0
  8
0
 10
189.77209133382979
 20
240.702040385667
 30
0.0
  0
VERTEX
  5
16B1
  8
0
 10
189.54476881341611
 20
240.24483237229381
 30
0.0
  0
VERTEX
  5
16B2
  8
0
 10
189.2676298948906
 20
239.81760989543591
 30
0.0
  0
VERTEX
  5
16B3
  8
0
 10
188.94343209528139
 20
239.4229812883232
 30
0.0
  0
VERTEX
  5
16B4
  8
0
 10
188.5782572698688
 20
239.0685531707496
 30
0.0
  0
VERTEX
  5
16B5
  8
0
 10
188.24116298472831
 20
238.8040907183655
 30
0.0
  0
SEQEND
  5
16B6
  8
0
  0
LINE
  5
635
  8
0
 10
142.0
 20
256.5
 30
0.0
 11
274.0
 21
256.5
 31
0.0
  0
POLYLINE
  5
63A
  8
0
 66
     1
 10
0.0
 20
0.0
 30
0.0
  0
VERTEX
  5
16B7
  8
0
 10
160.51307030125801
 20
231.9763751374617
 30
0.0
  0
VERTEX
  5
16B8
  8
0
 10
164.90946429424309
 20
232.90159908140799
 30
0.0
  0
VERTEX
  5
16B9
  8
0
 10
169.31020065103129
 20
233.865748615272
 30
0.0
  0
VERTEX
  5
16BA
  8
0
 10
172.2496377893346
 20
234.5326392004998
 30
0.0
  0
VERTEX
  5
16BB
  8
0
 10
175.18872458627129
 20
235.2218787575498
 30
0.0
  0
VERTEX
  5
16BC
  8
0
 10
178.12546496563911
 20
235.93814509136001
 30
0.0
  0
VERTEX
  5
16BD
  8
0
 10
180.66749593943121
 20
236.58577726089121
 30
0.0
  0
VERTEX
  5
16BE
  8
0
 10
183.20315811370139
 20
237.26781849526489
 30
0.0
  0
VERTEX
  5
16BF
  8
0
 10
184.89127227058631
 20
237.7477713538691
 30
0.0
  0
VERTEX
  5
16C0
  8
0
 10
186.57211541608669
 20
238.25627819951481
 30
0.0
  0
VERTEX
  5
16C1
  8
0
 10
188.24116298472831
 20
238.8040907183655
 30
0.0
  0
SEQEND
  5
16C2
  8
0
  0
POLYLINE
  5
63C
  8
0
 66
     1
 10
0.0
 20
0.0
 30
0.0
  0
VERTEX
  5
16C3
  8
0
 10
188.24116298472831
 20
246.1959092816345
 30
0.0
  0
VERTEX
  5
16C4
  8
0
 10
186.17459289609761
 20
246.86686116375759
 30
0.0
  0
VERTEX
  5
16C5
  8
0
 10
184.09204108818849
 20
247.4821684868426
 30
0.0
  0
VERTEX
  5
16C6
  8
0
 10
181.99654726549471
 20
248.0619924468109
 30
0.0
  0
VERTEX
  5
16C7
  8
0
 10
179.89528584625609
 20
248.61405029174711
 30
0.0
  0
VERTEX
  5
16C8
  8
0
 10
176.6711906046533
 20
249.42097981495519
 30
0.0
  0
VERTEX
  5
16C9
  8
0
 10
173.44270559732649
 20
250.19079322562371
 30
0.0
  0
VERTEX
  5
16CA
  8
0
 10
170.2130248726308
 20
250.93143617348889
 30
0.0
  0
VERTEX
  5
16CB
  8
0
 10
166.97771395608089
 20
251.6502920752686
 30
0.0
  0
VERTEX
  5
16CC
  8
0
 10
163.7439810856452
 20
252.3473010655182
 30
0.0
  0
VERTEX
  5
16CD
  8
0
 10
160.51307030125801
 20
253.0236248625383
 30
0.0
  0
SEQEND
  5
16CE
  8
0
  0
CIRCLE
  5
63F
  8
0
 10
158.40000000000001
 20
242.5
 30
0.0
 40
8.5
  0
LINE
  5
640
  8
2
 10
274.0
 20
147.91941563680271
 30
0.0
 11
271.5415000000001
 21
146.5
 31
0.0
  0
LINE
  5
641
  8
2
 10
276.45850000000002
 20
146.5
 30
0.0
 11
274.0
 21
147.91941563680271
 31
0.0
  0
LINE
  5
642
  8
2
 10
142.0
 20
147.91941563680271
 30
0.0
 11
139.54150000000001
 21
146.5
 31
0.0
  0
LINE
  5
643
  8
2
 10
144.45849999999999
 20
146.5
 30
0.0
 11
142.0
 21
147.91941563680271
 31
0.0
  0
LINE
  5
644
  8
2
 10
271.5415000000001
 20
146.5
 30
0.0
 11
271.5415000000001
 21
133.0414999999999
 31
0.0
  0
LINE
  5
645
  8
2
 10
276.45850000000002
 20
133.0414999999999
 30
0.0
 11
276.45850000000002
 21
146.5
 31
0.0
  0
LINE
  5
646
  8
2
 10
276.45850000000002
 20
146.5
 30
0.0
 11
271.5415000000001
 21
146.5
 31
0.0
  0
LINE
  5
647
  8
2
 10
139.54150000000001
 20
146.5
 30
0.0
 11
139.54150000000001
 21
133.0414999999999
 31
0.0
  0
LINE
  5
648
  8
2
 10
144.45849999999999
 20
133.0414999999999
 30
0.0
 11
144.45849999999999
 21
146.5
 31
0.0
  0
LINE
  5
649
  8
2
 10
144.45849999999999
 20
146.5
 30
0.0
 11
139.54150000000001
 21
146.5
 31
0.0
  0
LINE
  5
64A
  8
2
 10
139.54150000000001
 20
133.0414999999999
 30
0.0
 11
139.0
 21
132.5
 31
0.0
  0
LINE
  5
64B
  8
2
 10
145.0
 20
132.5
 30
0.0
 11
144.45849999999999
 21
133.0414999999999
 31
0.0
  0
LINE
  5
64C
  8
2
 10
144.45849999999999
 20
133.0414999999999
 30
0.0
 11
139.54150000000001
 21
133.0414999999999
 31
0.0
  0
LINE
  5
64D
  8
2
 10
271.5415000000001
 20
133.0414999999999
 30
0.0
 11
271.0
 21
132.5
 31
0.0
  0
LINE
  5
64E
  8
2
 10
277.0
 20
132.5
 30
0.0
 11
276.45850000000002
 21
133.0414999999999
 31
0.0
  0
LINE
  5
64F
  8
2
 10
276.45850000000002
 20
133.0414999999999
 30
0.0
 11
271.5415000000001
 21
133.0414999999999
 31
0.0
  0
LINE
  5
664
  8
2
 10
277.0
 20
132.5
 30
0.0
 11
277.0
 21
144.5
 31
0.0
  0
LINE
  5
665
  8
2
 10
276.45850000000002
 20
145.5
 30
0.0
 11
277.0
 21
144.5
 31
0.0
  0
LINE
  5
666
  8
2
 10
277.0
 20
144.5
 30
0.0
 11
271.0
 21
144.5
 31
0.0
  0
LINE
  5
667
  8
2
 10
271.0
 20
132.5
 30
0.0
 11
271.0
 21
144.5
 31
0.0
  0
LINE
  5
668
  8
2
 10
271.5415000000001
 20
145.5
 30
0.0
 11
271.0
 21
144.5
 31
0.0
  0
LINE
  5
669
  8
2
 10
145.0
 20
132.5
 30
0.0
 11
145.0
 21
144.5
 31
0.0
  0
LINE
  5
66A
  8
2
 10
144.45849999999999
 20
145.5
 30
0.0
 11
145.0
 21
144.5
 31
0.0
  0
LINE
  5
66B
  8
2
 10
145.0
 20
144.5
 30
0.0
 11
139.0
 21
144.5
 31
0.0
  0
LINE
  5
66C
  8
2
 10
139.0
 20
132.5
 30
0.0
 11
139.0
 21
144.5
 31
0.0
  0
LINE
  5
66D
  8
2
 10
139.54150000000001
 20
145.5
 30
0.0
 11
139.0
 21
144.5
 31
0.0
  0
LINE
  5
66E
  8
1
 10
274.0
 20
150.9194156368026
 30
0.0
 11
274.0
 21
129.50000000000011
 31
0.0
  0
LINE
  5
66F
  8
1
 10
142.0
 20
150.9194156368024
 30
0.0
 11
142.0
 21
129.5
 31
0.0
  0
LINE
  5
670
  8
1
 10
154.19999999999999
 20
135.5
 30
0.0
 11
154.19999999999999
 21
125.0
 31
0.0
  0
LINE
  5
671
  8
1
 10
160.59999999999999
 20
135.5
 30
0.0
 11
160.59999999999991
 21
125.0000000000001
 31
0.0
  0
LINE
  5
674
  8
0
 10
150.84
 20
130.6999999999999
 30
0.0
 11
150.84
 21
129.5
 31
0.0
  0
LINE
  5
676
  8
0
 10
149.4249999999999
 20
128.5
 30
0.0
 11
151.26602540378451
 21
128.0
 31
0.0
  0
LINE
  5
677
  8
0
 10
157.1339745962155
 20
128.0
 30
0.0
 11
151.26602540378451
 21
128.0
 31
0.0
  0
LINE
  5
678
  8
0
 10
165.375
 20
129.5
 30
0.0
 11
149.4249999999999
 21
129.5
 31
0.0
  0
LINE
  5
679
  8
0
 10
165.375
 20
128.5
 30
0.0
 11
149.4249999999999
 21
128.5
 31
0.0
  0
LINE
  5
67A
  8
0
 10
149.4249999999999
 20
129.5
 30
0.0
 11
149.4249999999999
 21
128.5
 31
0.0
  0
LINE
  5
67B
  8
0
 10
165.375
 20
130.6999999999999
 30
0.0
 11
149.4249999999999
 21
130.6999999999999
 31
0.0
  0
LINE
  5
67C
  8
0
 10
149.4249999999999
 20
132.5
 30
0.0
 11
149.4249999999999
 21
130.6999999999999
 31
0.0
  0
LINE
  5
67D
  8
0
 10
149.90000000000001
 20
172.0
 30
0.0
 11
149.90000000000001
 21
171.97678955239741
 31
0.0
  0
LINE
  5
67E
  8
0
 10
152.2505605409344
 20
172.5
 30
0.0
 11
150.40000000000001
 21
172.5
 31
0.0
  0
ARC
  5
67F
  8
0
 10
150.40000000000001
 20
172.0
 30
0.0
 40
0.5000000000000071
 50
90.0
 51
180.0
  0
LINE
  5
682
  8
0
 10
163.96000000000001
 20
129.5
 30
0.0
 11
163.96000000000001
 21
130.6999999999999
 31
0.0
  0
LINE
  5
683
  8
0
 10
163.53397459621559
 20
128.0
 30
0.0
 11
165.375
 21
128.5
 31
0.0
  0
LINE
  5
685
  8
0
 10
163.53397459621559
 20
128.0
 30
0.0
 11
157.6660254037848
 21
128.0
 31
0.0
  0
LINE
  5
687
  8
0
 10
165.375
 20
130.6999999999999
 30
0.0
 11
165.375
 21
132.5
 31
0.0
  0
LINE
  5
689
  8
0
 10
165.375
 20
128.5
 30
0.0
 11
165.375
 21
129.5
 31
0.0
  0
POLYLINE
  5
68A
  8
0
 66
     1
 10
0.0
 20
0.0
 30
0.0
  0
VERTEX
  5
16CF
  8
0
 10
142.0
 20
170.0507838678476
 30
0.0
  0
VERTEX
  5
16D0
  8
0
 10
140.78380201658021
 20
169.73099029918919
 30
0.0
  0
VERTEX
  5
16D1
  8
0
 10
139.5734794457797
 20
169.40655584183551
 30
0.0
  0
VERTEX
  5
16D2
  8
0
 10
138.38164142968321
 20
169.08114846073991
 30
0.0
  0
VERTEX
  5
16D3
  8
0
 10
137.2208971103756
 20
168.758436120856
 30
0.0
  0
VERTEX
  5
16D4
  8
0
 10
136.09540126877829
 20
168.4398604030456
 30
0.0
  0
VERTEX
  5
16D5
  8
0
 10
135.00915412086511
 20
168.127254221985
 30
0.0
  0
VERTEX
  5
16D6
  8
0
 10
133.97379924537131
 20
167.82466667608131
 30
0.0
  0
VERTEX
  5
16D7
  8
0
 10
133.00098022103191
 20
167.53614686374141
 30
0.0
  0
VERTEX
  5
16D8
  8
0
 10
132.10378749323601
 20
167.26633173793621
 30
0.0
  0
VERTEX
  5
16D9
  8
0
 10
131.2757758685438
 20
167.01422051613471
 30
0.0
  0
VERTEX
  5
16DA
  8
0
 10
130.52667885649231
 20
166.7835896835366
 30
0.0
  0
VERTEX
  5
16DB
  8
0
 10
129.86622996661839
 20
166.57821572534189
 30
0.0
  0
VERTEX
  5
16DC
  8
0
 10
129.31859505344059
 20
166.4064819721653
 30
0.0
  0
VERTEX
  5
16DD
  8
0
 10
128.85930248815001
 20
166.261436221102
 30
0.0
  0
VERTEX
  5
16DE
  8
0
 10
128.49384104419821
 20
166.14531969121089
 30
0.0
  0
VERTEX
  5
16DF
  8
0
 10
128.22769949503709
 20
166.06037360155131
 30
0.0
  0
VERTEX
  5
16E0
  8
0
 10
128.05722643057521
 20
166.0058244010481
 30
0.0
  0
VERTEX
  5
16E1
  8
0
 10
128.0
 20
165.98747463550151
 30
0.0
  0
SEQEND
  5
16E2
  8
0
  0
LINE
  5
68B
  8
0
 10
128.0
 20
165.98747463852629
 30
0.0
 11
128.0
 21
132.5
 31
0.0
  0
LINE
  5
68C
  8
0
 10
128.0
 20
132.5
 30
0.0
 11
171.0
 21
132.5
 31
0.0
  0
LINE
  5
68D
  8
0
 10
288.0
 20
132.5
 30
0.0
 11
288.0
 21
165.98747463819001
 31
0.0
  0
POLYLINE
  5
68E
  8
0
 66
     1
 10
0.0
 20
0.0
 30
0.0
  0
VERTEX
  5
16E3
  8
0
 10
288.0
 20
165.9874746355016
 30
0.0
  0
VERTEX
  5
16E4
  8
0
 10
287.95478406718797
 20
166.001973303623
 30
0.0
  0
VERTEX
  5
16E5
  8
0
 10
287.81989162324362
 20
166.04515603644489
 30
0.0
  0
VERTEX
  5
16E6
  8
0
 10
287.58821170062589
 20
166.1191468813123
 30
0.0
  0
VERTEX
  5
16E7
  8
0
 10
287.26490165775022
 20
166.22199615810209
 30
0.0
  0
VERTEX
  5
16E8
  8
0
 10
286.86576918973361
 20
166.34833674755561
 30
0.0
  0
VERTEX
  5
16E9
  8
0
 10
286.38631224223042
 20
166.49917210475641
 30
0.0
  0
VERTEX
  5
16EA
  8
0
 10
285.8135747422582
 20
166.6780317540632
 30
0.0
  0
VERTEX
  5
16EB
  8
0
 10
285.16466106267598
 20
166.8789429706147
 30
0.0
  0
VERTEX
  5
16EC
  8
0
 10
284.44777637108598
 20
167.09875588616109
 30
0.0
  0
VERTEX
  5
16ED
  8
0
 10
283.66561501774822
 20
167.33603151059839
 30
0.0
  0
VERTEX
  5
16EE
  8
0
 10
282.80024939277411
 20
167.59544107542311
 30
0.0
  0
VERTEX
  5
16EF
  8
0
 10
281.87796387049349
 20
167.8683481553515
 30
0.0
  0
VERTEX
  5
16F0
  8
0
 10
280.8883967585769
 20
168.15706508795839
 30
0.0
  0
VERTEX
  5
16F1
  8
0
 10
279.85320034915588
 20
168.45459432124679
 30
0.0
  0
VERTEX
  5
16F2
  8
0
 10
278.7492841317615
 20
168.76679217770641
 30
0.0
  0
VERTEX
  5
16F3
  8
0
 10
277.6119566969586
 20
169.08300711809721
 30
0.0
  0
VERTEX
  5
16F4
  8
0
 10
276.73000989506937
 20
169.32441361550849
 30
0.0
  0
VERTEX
  5
16F5
  8
0
 10
275.83659417096231
 20
169.56559721005959
 30
0.0
  0
VERTEX
  5
16F6
  8
0
 10
274.92059227589709
 20
169.80936127747449
 30
0.0
  0
VERTEX
  5
16F7
  8
0
 10
274.0
 20
170.05078386784771
 30
0.0
  0
SEQEND
  5
16F8
  8
0
  0
LINE
  5
68F
  8
0
 10
288.0
 20
132.5
 30
0.0
 11
260.0
 21
132.5
 31
0.0
  0
ARC
  5
690
  8
0
 10
208.0
 20
-83.500000000000455
 30
0.0
 40
252.00000000000051
 50
78.215952530023344
 51
98.309197758567194
  0
LINE
  5
691
  8
0
 10
171.0
 20
132.5
 30
0.0
 11
171.58220768382611
 21
165.85465586753341
 31
0.0
  0
ARC
  5
692
  8
0
 10
208.0
 20
-83.500000000000924
 30
0.0
 40
262.00000000000091
 50
75.409529932651125
 51
104.5904700673488
  0
LINE
  5
696
  8
0
 10
259.46432290112602
 20
163.18892044096481
 30
0.0
 11
260.0
 21
132.5
 31
0.0
  0
POLYLINE
  5
6A5
  8
0
 66
     1
 10
0.0
 20
0.0
 30
0.0
  0
VERTEX
  5
16F9
  8
0
 10
72.27558236364689
 20
172.40771079555509
 30
0.0
  0
VERTEX
  5
16FA
  8
0
 10
72.754906956607329
 20
172.5400013182867
 30
0.0
  0
VERTEX
  5
16FB
  8
0
 10
73.249624350938575
 20
172.699577426231
 30
0.0
  0
VERTEX
  5
16FC
  8
0
 10
73.678801671298231
 20
172.86509091022489
 30
0.0
  0
VERTEX
  5
16FD
  8
0
 10
74.037301111346324
 20
173.03446697788729
 30
0.0
  0
VERTEX
  5
16FE
  8
0
 10
74.320231311659938
 20
173.20505048073619
 30
0.0
  0
VERTEX
  5
16FF
  8
0
 10
74.531342526361811
 20
173.3776953077373
 30
0.0
  0
VERTEX
  5
1700
  8
0
 10
74.668692782621861
 20
173.55040638523059
 30
0.0
  0
VERTEX
  5
1701
  8
0
 10
74.682953754056996
 20
173.5755298941294
 30
0.0
  0
SEQEND
  5
1702
  8
0
  0
POLYLINE
  5
6A6
  8
0
 66
     1
 10
0.0
 20
0.0
 30
0.0
  0
VERTEX
  5
1703
  8
0
 10
70.246555718803393
 20
171.99935161710329
 30
0.0
  0
VERTEX
  5
1704
  8
0
 10
70.903873479879053
 20
172.1109690879824
 30
0.0
  0
VERTEX
  5
1705
  8
0
 10
71.58022998137892
 20
172.24472118276211
 30
0.0
  0
VERTEX
  5
1706
  8
0
 10
72.199787294644409
 20
172.38843737877301
 30
0.0
  0
VERTEX
  5
1707
  8
0
 10
72.27558236364689
 20
172.40771079555509
 30
0.0
  0
SEQEND
  5
1708
  8
0
  0
POLYLINE
  5
6A7
  8
0
 66
     1
 10
0.0
 20
0.0
 30
0.0
  0
VERTEX
  5
1709
  8
0
 10
57.760087511648059
 20
171.9983104796375
 30
0.0
  0
VERTEX
  5
170A
  8
0
 10
58.180733473107693
 20
171.93568367685899
 30
0.0
  0
VERTEX
  5
170B
  8
0
 10
58.952325724877028
 20
171.83529781294939
 30
0.0
  0
VERTEX
  5
170C
  8
0
 10
59.767283844118772
 20
171.7483903848574
 30
0.0
  0
VERTEX
  5
170D
  8
0
 10
60.614653723250399
 20
171.67641917366299
 30
0.0
  0
VERTEX
  5
170E
  8
0
 10
61.485454849521432
 20
171.62025042203231
 30
0.0
  0
VERTEX
  5
170F
  8
0
 10
62.370706710181587
 20
171.58075037263151
 30
0.0
  0
VERTEX
  5
1710
  8
0
 10
63.274828344844131
 20
171.55832156015649
 30
0.0
  0
VERTEX
  5
1711
  8
0
 10
64.187235115910994
 20
171.55326247318831
 30
0.0
  0
VERTEX
  5
1712
  8
0
 10
65.098329479266226
 20
171.56552346282359
 30
0.0
  0
VERTEX
  5
1713
  8
0
 10
65.998513890794129
 20
171.59505488015949
 30
0.0
  0
VERTEX
  5
1714
  8
0
 10
66.887091495347988
 20
171.6420758000005
 30
0.0
  0
VERTEX
  5
1715
  8
0
 10
67.758235337089445
 20
171.7059460408428
 30
0.0
  0
VERTEX
  5
1716
  8
0
 10
68.602754248129827
 20
171.785673747321
 30
0.0
  0
VERTEX
  5
1717
  8
0
 10
69.411457060580346
 20
171.8802670640699
 30
0.0
  0
VERTEX
  5
1718
  8
0
 10
70.178391327245834
 20
171.98890855992241
 30
0.0
  0
VERTEX
  5
1719
  8
0
 10
70.246555718803393
 20
171.99935161710329
 30
0.0
  0
SEQEND
  5
171A
  8
0
  0
POLYLINE
  5
6A8
  8
0
 66
     1
 10
0.0
 20
0.0
 30
0.0
  0
VERTEX
  5
171B
  8
0
 10
55.723411987082379
 20
172.4079692305591
 30
0.0
  0
VERTEX
  5
171C
  8
0
 10
56.120510050883126
 20
172.3111820453947
 30
0.0
  0
VERTEX
  5
171D
  8
0
 10
56.757338495588499
 20
172.17519090130361
 30
0.0
  0
VERTEX
  5
171E
  8
0
 10
57.44657534983741
 20
172.04950307571769
 30
0.0
  0
VERTEX
  5
171F
  8
0
 10
57.760087511648059
 20
171.9983104796375
 30
0.0
  0
SEQEND
  5
1720
  8
0
  0
POLYLINE
  5
6A9
  8
0
 66
     1
 10
0.0
 20
0.0
 30
0.0
  0
VERTEX
  5
1721
  8
0
 10
53.31708207942637
 20
173.5754598986517
 30
0.0
  0
VERTEX
  5
1722
  8
0
 10
53.408529986793717
 20
173.4419281058461
 30
0.0
  0
VERTEX
  5
1723
  8
0
 10
53.591246390050351
 20
173.27043778950511
 30
0.0
  0
VERTEX
  5
1724
  8
0
 10
53.845677293172798
 20
173.0998615340585
 30
0.0
  0
VERTEX
  5
1725
  8
0
 10
54.1694295550177
 20
172.93217555396069
 30
0.0
  0
VERTEX
  5
1726
  8
0
 10
54.56248511929482
 20
172.76807751773291
 30
0.0
  0
VERTEX
  5
1727
  8
0
 10
55.022183532077179
 20
172.6085842931501
 30
0.0
  0
VERTEX
  5
1728
  8
0
 10
55.543275080296148
 20
172.4556383218312
 30
0.0
  0
VERTEX
  5
1729
  8
0
 10
55.723411987082379
 20
172.4079692305591
 30
0.0
  0
SEQEND
  5
172A
  8
0
  0
POLYLINE
  5
6AA
  8
0
 66
     1
 10
0.0
 20
0.0
 30
0.0
  0
VERTEX
  5
172B
  8
0
 10
74.682953754056996
 20
173.5755298941294
 30
0.0
  0
VERTEX
  5
172C
  8
0
 10
74.730340107609933
 20
173.72118863955609
 30
0.0
  0
VERTEX
  5
172D
  8
0
 10
74.720898045227784
 20
173.87074414860771
 30
0.0
  0
VERTEX
  5
172E
  8
0
 10
74.651789211616062
 20
174.01762020748589
 30
0.0
  0
VERTEX
  5
172F
  8
0
 10
74.523624862538327
 20
174.1606130315356
 30
0.0
  0
SEQEND
  5
1730
  8
0
  0
LINE
  5
6B3
  8
0
 10
72.0
 20
172.5
 30
0.0
 11
56.000000000427683
 21
172.5
 31
0.0
  0
ARC
  5
6B4
  8
0
 10
56.0
 20
172.0
 30
0.0
 40
0.5
 50
90.0
 51
124.8414199859412
  0
ARC
  5
6B5
  8
0
 10
72.0
 20
172.0
 30
0.0
 40
0.5000000000000009
 50
55.176128325418041
 51
90.0
  0
LINE
  5
6B8
  8
0
 10
70.250374060059414
 20
172.0
 30
0.0
 11
57.749740601707742
 21
172.0
 31
0.0
  0
POLYLINE
  5
6C9
  8
0
 66
     1
 10
0.0
 20
0.0
 30
0.0
  0
VERTEX
  5
1731
  8
0
 10
53.47637513746168
 20
174.16061303153549
 30
0.0
  0
VERTEX
  5
1732
  8
0
 10
54.401599081407987
 20
174.93220140319829
 30
0.0
  0
VERTEX
  5
1733
  8
0
 10
55.365748615271912
 20
175.6275736511584
 30
0.0
  0
VERTEX
  5
1734
  8
0
 10
56.032639200499823
 20
176.0494267050253
 30
0.0
  0
VERTEX
  5
1735
  8
0
 10
56.721878757549803
 20
176.43732611939851
 30
0.0
  0
VERTEX
  5
1736
  8
0
 10
57.438145091360013
 20
176.79120645246689
 30
0.0
  0
VERTEX
  5
1737
  8
0
 10
58.085777260891177
 20
177.07039572763881
 30
0.0
  0
VERTEX
  5
1738
  8
0
 10
58.767818495264919
 20
177.3239188273688
 30
0.0
  0
VERTEX
  5
1739
  8
0
 10
59.247771353869098
 20
177.47888180732991
 30
0.0
  0
VERTEX
  5
173A
  8
0
 10
59.756278199514782
 20
177.62226224340691
 30
0.0
  0
VERTEX
  5
173B
  8
0
 10
60.304090718365501
 20
177.753877214873
 30
0.0
  0
SEQEND
  5
173C
  8
0
  0
POLYLINE
  5
6CA
  8
0
 66
     1
 10
0.0
 20
0.0
 30
0.0
  0
VERTEX
  5
173D
  8
0
 10
53.476375137461559
 20
174.16061303153569
 30
0.0
  0
VERTEX
  5
173E
  8
0
 10
53.326514959958793
 20
173.9828283121017
 30
0.0
  0
VERTEX
  5
173F
  8
0
 10
53.267429922556971
 20
173.79929785656341
 30
0.0
  0
VERTEX
  5
1740
  8
0
 10
53.299921224546161
 20
173.61235626862691
 30
0.0
  0
VERTEX
  5
1741
  8
0
 10
53.31708207942637
 20
173.5754598986517
 30
0.0
  0
SEQEND
  5
1742
  8
0
  0
POLYLINE
  5
6CB
  8
0
 66
     1
 10
0.0
 20
0.0
 30
0.0
  0
VERTEX
  5
1743
  8
0
 10
67.695909281634499
 20
177.753877214873
 30
0.0
  0
VERTEX
  5
1744
  8
0
 10
68.366861163757562
 20
177.5893429582344
 30
0.0
  0
VERTEX
  5
1745
  8
0
 10
68.982168486842625
 20
177.4068981469658
 30
0.0
  0
VERTEX
  5
1746
  8
0
 10
69.561992446810905
 20
177.2063837032878
 30
0.0
  0
VERTEX
  5
1747
  8
0
 10
70.114050291747049
 20
176.98824357797099
 30
0.0
  0
VERTEX
  5
1748
  8
0
 10
70.920979814955217
 20
176.62015223051969
 30
0.0
  0
VERTEX
  5
1749
  8
0
 10
71.690793225623665
 20
176.2109571990581
 30
0.0
  0
VERTEX
  5
174A
  8
0
 10
72.431436173488905
 20
175.760765467364
 30
0.0
  0
VERTEX
  5
174B
  8
0
 10
73.150292075268567
 20
175.2685613843957
 30
0.0
  0
VERTEX
  5
174C
  8
0
 10
73.847301065518252
 20
174.73516628064689
 30
0.0
  0
VERTEX
  5
174D
  8
0
 10
74.523624862538327
 20
174.16061303153549
 30
0.0
  0
SEQEND
  5
174E
  8
0
  0
POLYLINE
  5
6CC
  8
0
 66
     1
 10
0.0
 20
0.0
 30
0.0
  0
VERTEX
  5
174F
  8
0
 10
67.695909281634499
 20
177.753877214873
 30
0.0
  0
VERTEX
  5
1750
  8
0
 10
67.334761437431098
 20
177.78717402413301
 30
0.0
  0
VERTEX
  5
1751
  8
0
 10
66.972313717248596
 20
177.81284264269181
 30
0.0
  0
VERTEX
  5
1752
  8
0
 10
66.571728311752395
 20
177.8350874234682
 30
0.0
  0
VERTEX
  5
1753
  8
0
 10
66.140567208671882
 20
177.85365565811611
 30
0.0
  0
VERTEX
  5
1754
  8
0
 10
65.681018003592499
 20
177.86852427170001
 30
0.0
  0
VERTEX
  5
1755
  8
0
 10
65.199155082443781
 20
177.87965858499621
 30
0.0
  0
VERTEX
  5
1756
  8
0
 10
64.703954220063792
 20
177.88695408239559
 30
0.0
  0
VERTEX
  5
1757
  8
0
 10
64.19678739784888
 20
177.8903855153236
 30
0.0
  0
VERTEX
  5
1758
  8
0
 10
63.685570607459908
 20
177.88993413373541
 30
0.0
  0
VERTEX
  5
1759
  8
0
 10
63.17987376398424
 20
177.88560390409339
 30
0.0
  0
VERTEX
  5
175A
  8
0
 10
62.683431579049973
 20
177.87733106076621
 30
0.0
  0
VERTEX
  5
175B
  8
0
 10
62.20204038566709
 20
177.8651572314179
 30
0.0
  0
VERTEX
  5
175C
  8
0
 10
61.744832372293729
 20
177.84920019362929
 30
0.0
  0
VERTEX
  5
175D
  8
0
 10
61.317609895435901
 20
177.8294811729377
 30
0.0
  0
VERTEX
  5
175E
  8
0
 10
60.922981288323108
 20
177.80603984682159
 30
0.0
  0
VERTEX
  5
175F
  8
0
 10
60.568553170749617
 20
177.77915322375921
 30
0.0
  0
VERTEX
  5
1760
  8
0
 10
60.304090718365501
 20
177.753877214873
 30
0.0
  0
SEQEND
  5
1761
  8
0
  0
LINE
  5
6D2
  8
1
 10
64.0
 20
183.5
 30
0.0
 11
64.0
 21
123.0
 31
0.0
  0
LINE
  5
6D3
  8
1
 10
56.89999999999997
 20
135.5
 30
0.0
 11
56.89999999999997
 21
125.0000000000001
 31
0.0
  0
LINE
  5
6D5
  8
0
 10
60.639999999999993
 20
130.6999999999999
 30
0.0
 11
60.639999999999993
 21
129.5
 31
0.0
  0
LINE
  5
6D6
  8
0
 10
67.360000000000014
 20
129.5
 30
0.0
 11
67.360000000000014
 21
130.6999999999999
 31
0.0
  0
LINE
  5
6DC
  8
0
 10
53.539999999999957
 20
130.6999999999999
 30
0.0
 11
53.539999999999957
 21
129.5
 31
0.0
  0
LINE
  5
6DD
  8
0
 10
60.259999999999991
 20
129.5
 30
0.0
 11
60.259999999999991
 21
130.6999999999999
 31
0.0
  0
LINE
  5
6DE
  8
0
 10
52.124999999999979
 20
129.5
 30
0.0
 11
52.124999999999979
 21
128.5
 31
0.0
  0
LINE
  5
6E0
  8
0
 10
68.775000000000006
 20
129.5
 30
0.0
 11
52.124999999999979
 21
129.5
 31
0.0
  0
LINE
  5
6E1
  8
0
 10
59.833974596215562
 20
128.0
 30
0.0
 11
53.966025403784442
 21
128.0
 31
0.0
  0
LINE
  5
6E3
  8
0
 10
52.124999999999979
 20
128.5
 30
0.0
 11
53.966025403784442
 21
128.0
 31
0.0
  0
LINE
  5
6E4
  8
0
 10
68.775000000000006
 20
128.5
 30
0.0
 11
52.124999999999979
 21
128.5
 31
0.0
  0
LINE
  5
6E7
  8
0
 10
52.124999999999979
 20
132.5
 30
0.0
 11
52.124999999999979
 21
130.6999999999999
 31
0.0
  0
LINE
  5
6E9
  8
0
 10
68.775000000000006
 20
130.6999999999999
 30
0.0
 11
52.124999999999979
 21
130.6999999999999
 31
0.0
  0
LINE
  5
6EF
  8
0
 10
78.0
 20
178.5
 30
0.0
 11
50.0
 21
178.5
 31
0.0
  0
LINE
  5
6F0
  8
0
 10
78.0
 20
178.5
 30
0.0
 11
78.0
 21
132.5
 31
0.0
  0
LINE
  5
6F1
  8
0
 10
50.0
 20
178.5
 30
0.0
 11
50.0
 21
132.5
 31
0.0
  0
POLYLINE
  5
6F2
  8
0
 66
     1
 10
0.0
 20
0.0
 30
0.0
  0
VERTEX
  5
1762
  8
0
 10
78.0
 20
170.05078386784771
 30
0.0
  0
VERTEX
  5
1763
  8
0
 10
77.987166515336696
 20
169.89405573554509
 30
0.0
  0
VERTEX
  5
1764
  8
0
 10
77.948735666581911
 20
169.7361846082004
 30
0.0
  0
VERTEX
  5
1765
  8
0
 10
77.884253883065355
 20
169.57634550559021
 30
0.0
  0
VERTEX
  5
1766
  8
0
 10
77.794055106304199
 20
169.4159273391339
 30
0.0
  0
VERTEX
  5
1767
  8
0
 10
77.675495445809759
 20
169.2517448746579
 30
0.0
  0
VERTEX
  5
1768
  8
0
 10
77.530485245909503
 20
169.08760528294971
 30
0.0
  0
VERTEX
  5
1769
  8
0
 10
77.357904521157593
 20
168.92264948473371
 30
0.0
  0
VERTEX
  5
176A
  8
0
 10
77.159033990775455
 20
168.758436120856
 30
0.0
  0
VERTEX
  5
176B
  8
0
 10
76.942497540390832
 20
168.6010206367539
 30
0.0
  0
VERTEX
  5
176C
  8
0
 10
76.702116521024763
 20
168.4449656987625
 30
0.0
  0
VERTEX
  5
176D
  8
0
 10
76.436305548098915
 20
168.28953673858351
 30
0.0
  0
VERTEX
  5
176E
  8
0
 10
76.147082697800784
 20
168.13618044487629
 30
0.0
  0
VERTEX
  5
176F
  8
0
 10
75.827695019006285
 20
167.9819417332838
 30
0.0
  0
VERTEX
  5
1770
  8
0
 10
75.484807279654035
 20
167.8306242794846
 30
0.0
  0
VERTEX
  5
1771
  8
0
 10
75.116071094733684
 20
167.6815053170443
 30
0.0
  0
VERTEX
  5
1772
  8
0
 10
74.724627873159079
 20
167.53614686374141
 30
0.0
  0
VERTEX
  5
1773
  8
0
 10
74.330541636735347
 20
167.40133310807721
 30
0.0
  0
VERTEX
  5
1774
  8
0
 10
73.916968339303537
 20
167.2706591627271
 30
0.0
  0
VERTEX
  5
1775
  8
0
 10
73.481299993553762
 20
167.14357237078059
 30
0.0
  0
VERTEX
  5
1776
  8
0
 10
73.027204431721373
 20
167.02139559381209
 30
0.0
  0
VERTEX
  5
1777
  8
0
 10
72.544147134502964
 20
166.90181203410589
 30
0.0
  0
VERTEX
  5
1778
  8
0
 10
72.04341028612663
 20
166.78810997843831
 30
0.0
  0
VERTEX
  5
1779
  8
0
 10
71.521582937042012
 20
166.67980882423271
 30
0.0
  0
VERTEX
  5
177A
  8
0
 10
70.983668432637046
 20
166.57821572534189
 30
0.0
  0
VERTEX
  5
177B
  8
0
 10
70.472079362797274
 20
166.49043056098481
 30
0.0
  0
VERTEX
  5
177C
  8
0
 10
69.948429515616112
 20
166.40896179928589
 30
0.0
  0
VERTEX
  5
177D
  8
0
 10
69.409583889606722
 20
166.3335357289919
 30
0.0
  0
VERTEX
  5
177E
  8
0
 10
68.860361479810294
 20
166.26501700338719
 30
0.0
  0
VERTEX
  5
177F
  8
0
 10
68.288357231797022
 20
166.20226677197601
 30
0.0
  0
VERTEX
  5
1780
  8
0
 10
67.707622625991007
 20
166.1472094497002
 30
0.0
  0
VERTEX
  5
1781
  8
0
 10
67.114419441200525
 20
166.09969529568511
 30
0.0
  0
VERTEX
  5
1782
  8
0
 10
66.514704515643473
 20
166.06037360155131
 30
0.0
  0
VERTEX
  5
1783
  8
0
 10
65.894480804978116
 20
166.02872995812839
 30
0.0
  0
VERTEX
  5
1784
  8
0
 10
65.268672559823756
 20
166.0059377178261
 30
0.0
  0
VERTEX
  5
1785
  8
0
 10
64.635776933705188
 20
165.99210562282079
 30
0.0
  0
VERTEX
  5
1786
  8
0
 10
64.000000208616257
 20
165.98747463550151
 30
0.0
  0
VERTEX
  5
1787
  8
0
 10
62.880782127868201
 20
166.00183858618919
 30
0.0
  0
VERTEX
  5
1788
  8
0
 10
62.319674601781863
 20
166.01990612674871
 30
0.0
  0
VERTEX
  5
1789
  8
0
 10
61.761564045633349
 20
166.04515603644489
 30
0.0
  0
VERTEX
  5
178A
  8
0
 10
61.195173199146552
 20
166.0783153560545
 30
0.0
  0
VERTEX
  5
178B
  8
0
 10
60.633977807111883
 20
166.1187863970633
 30
0.0
  0
VERTEX
  5
178C
  8
0
 10
60.074896329410649
 20
166.1668262991011
 30
0.0
  0
VERTEX
  5
178D
  8
0
 10
59.523127876494868
 20
166.22199615810209
 30
0.0
  0
VERTEX
  5
178E
  8
0
 10
58.483480360956037
 20
166.34784430172991
 30
0.0
  0
VERTEX
  5
178F
  8
0
 10
57.47472076934821
 20
166.49917210475641
 30
0.0
  0
VERTEX
  5
1790
  8
0
 10
56.976563028067169
 20
166.58539495738609
 30
0.0
  0
VERTEX
  5
1791
  8
0
 10
56.490770953359629
 20
166.67736136639371
 30
0.0
  0
VERTEX
  5
1792
  8
0
 10
56.014910044273734
 20
166.7755071911335
 30
0.0
  0
VERTEX
  5
1793
  8
0
 10
55.553086755768952
 20
166.8789429706147
 30
0.0
  0
VERTEX
  5
1794
  8
0
 10
54.683772386709727
 20
167.09800073582349
 30
0.0
  0
VERTEX
  5
1795
  8
0
 10
53.872024569111538
 20
167.33603151059839
 30
0.0
  0
VERTEX
  5
1796
  8
0
 10
53.483941719751442
 20
167.46346150658749
 30
0.0
  0
VERTEX
  5
1797
  8
0
 10
53.114084182355612
 20
167.59455781695539
 30
0.0
  0
VERTEX
  5
1798
  8
0
 10
52.760729392547212
 20
167.729909990843
 30
0.0
  0
VERTEX
  5
1799
  8
0
 10
52.426854997227501
 20
167.8683481553515
 30
0.0
  0
VERTEX
  5
179A
  8
0
 10
52.109935313390046
 20
168.0109686564798
 30
0.0
  0
VERTEX
  5
179B
  8
0
 10
51.813794102989498
 20
168.1560967023407
 30
0.0
  0
VERTEX
  5
179C
  8
0
 10
51.53711457001117
 20
168.30439542444319
 30
0.0
  0
VERTEX
  5
179D
  8
0
 10
51.282294009034437
 20
168.45459432124679
 30
0.0
  0
VERTEX
  5
179E
  8
0
 10
51.045185408411953
 20
168.60949748810381
 30
0.0
  0
VERTEX
  5
179F
  8
0
 10
50.83156259407383
 20
168.76572185728691
 30
0.0
  0
VERTEX
  5
17A0
  8
0
 10
50.640548072148192
 20
168.9240210560217
 30
0.0
  0
VERTEX
  5
17A1
  8
0
 10
50.473959603073183
 20
169.08300711809721
 30
0.0
  0
VERTEX
  5
17A2
  8
0
 10
50.269103194049933
 20
169.32394302856619
 30
0.0
  0
VERTEX
  5
17A3
  8
0
 10
50.120989882157012
 20
169.56559721005959
 30
0.0
  0
VERTEX
  5
17A4
  8
0
 10
50.03042343580529
 20
169.80887169745409
 30
0.0
  0
VERTEX
  5
17A5
  8
0
 10
50.0
 20
170.05078386784771
 30
0.0
  0
SEQEND
  5
17A6
  8
0
  0
LINE
  5
6F3
  8
0
 10
78.0
 20
132.5
 30
0.0
 11
50.0
 21
132.5
 31
0.0
  0
LINE
  5
C5A
  8
0
 10
142.0
 20
50.0
 30
0.0
 11
274.0
 21
50.0
 31
0.0
  0
LINE
  5
C5D
  8
0
 10
142.0
 20
78.0
 30
0.0
 11
274.0
 21
78.0
 31
0.0
  0
CIRCLE
  5
C66
  8
0
 10
274.0
 20
64.0
 30
0.0
 40
2.458500000000003
  0
CIRCLE
  5
C67
  8
0
 10
142.0
 20
64.0
 30
0.0
 40
2.458500000000003
  0
CIRCLE
  5
C6C
  8
3
 10
274.0
 20
64.0
 30
0.0
 40
3.0
  0
CIRCLE
  5
C6D
  8
3
 10
142.0
 20
64.0
 30
0.0
 40
3.0
  0
ARC
  5
CC0
  8
0
 10
274.0
 20
242.5
 30
0.0
 40
14.0
 50
270.0
 51
90.0
  0
ARC
  5
CC4
  8
0
 10
142.0
 20
242.5
 30
0.0
 40
14.0
 50
90.0
 51
270.0
  0
LINE
  5
CC6
  8
1
 10
142.0
 20
58.0
 30
0.0
 11
142.0
 21
70.0
 31
0.0
  0
LINE
  5
CC7
  8
1
 10
122.99771369657481
 20
64.0
 30
0.0
 11
293.001290112275
 21
64.0
 31
0.0
  0
LINE
  5
CC8
  8
1
 10
274.0
 20
58.0
 30
0.0
 11
274.0
 21
70.0
 31
0.0
  0
ARC
  5
CC9
  8
0
 10
274.0
 20
64.0
 30
0.0
 40
14.0
 50
270.0
 51
90.0
  0
ARC
  5
CCA
  8
0
 10
142.0
 20
64.0
 30
0.0
 40
14.0
 50
90.0
 51
270.0
  0
CIRCLE
  5
D9A
  8
0
 10
154.19999999999999
 20
64.0
 30
0.0
 40
2.9339745962155548
  0
CIRCLE
  5
D9B
  8
0
 10
154.19999999999999
 20
64.0
 30
0.0
 40
4.7750000000000004
  0
CIRCLE
  5
D9C
  8
0
 10
154.19999999999999
 20
64.0
 30
0.0
 40
2.0
  0
CIRCLE
  5
D9D
  8
0
 10
160.59999999999999
 20
56.89999999999997
 30
0.0
 40
2.9339745962155548
  0
CIRCLE
  5
D9E
  8
0
 10
160.59999999999999
 20
56.89999999999997
 30
0.0
 40
4.7750000000000004
  0
CIRCLE
  5
D9F
  8
0
 10
160.59999999999999
 20
56.89999999999997
 30
0.0
 40
2.0
  0
LINE
  5
EE1
  8
2
 10
162.59999999999999
 20
128.0
 30
0.0
 11
162.59999999999999
 21
132.5
 31
0.0
  0
LINE
  5
EE2
  8
2
 10
158.59999999999999
 20
128.0
 30
0.0
 11
158.59999999999999
 21
132.5
 31
0.0
  0
LINE
  5
F32
  8
2
 10
156.19999999999999
 20
128.0
 30
0.0
 11
156.19999999999999
 21
132.5
 31
0.0
  0
LINE
  5
F33
  8
2
 10
152.19999999999999
 20
128.0
 30
0.0
 11
152.19999999999999
 21
132.5
 31
0.0
  0
LINE
  5
1064
  8
1
 10
207.9995019044249
 20
261.5
 30
0.0
 11
207.9995019044249
 21
223.5
 31
0.0
  0
LINE
  5
10DE
  8
1
 10
207.9995019044249
 20
183.49999999953531
 30
0.0
 11
207.9995019044249
 21
163.49999999949779
 31
0.0
  0
LINE
  5
10DF
  8
1
 10
207.9995019044249
 20
83.0
 30
0.0
 11
207.9995019044249
 21
45.0
 31
0.0
  0
LINE
  5
1255
  8
0
 10
59.225000000000001
 20
132.5
 30
0.0
 11
59.225000000000001
 21
130.6999999999999
 31
0.0
  0
LINE
  5
1256
  8
0
 10
68.775000000000006
 20
130.6999999999999
 30
0.0
 11
68.775000000000006
 21
132.5
 31
0.0
  0
LINE
  5
1257
  8
0
 10
59.225000000000001
 20
129.5
 30
0.0
 11
59.225000000000001
 21
128.5
 31
0.0
  0
LINE
  5
1258
  8
0
 10
68.775000000000006
 20
128.5
 30
0.0
 11
68.775000000000006
 21
129.5
 31
0.0
  0
LINE
  5
1259
  8
0
 10
66.933974596215535
 20
128.0
 30
0.0
 11
61.066025403784408
 21
128.0
 31
0.0
  0
LINE
  5
125A
  8
0
 10
66.933974596215535
 20
128.0
 30
0.0
 11
68.775000000000006
 21
128.5
 31
0.0
  0
LINE
  5
125B
  8
0
 10
59.225000000000001
 20
128.5
 30
0.0
 11
61.066025403784408
 21
128.0
 31
0.0
  0
LINE
  5
125D
  8
2
 10
58.900000000000063
 20
128.0
 30
0.0
 11
58.900000000000063
 21
132.5
 31
0.0
  0
LINE
  5
125E
  8
2
 10
54.900000000000063
 20
128.0
 30
0.0
 11
54.900000000000063
 21
132.5
 31
0.0
  0
LINE
  5
125F
  8
2
 10
66.000000000000057
 20
128.0
 30
0.0
 11
66.000000000000057
 21
132.5
 31
0.0
  0
LINE
  5
1260
  8
2
 10
62.000000000000057
 20
128.0
 30
0.0
 11
62.000000000000057
 21
132.5
 31
0.0
  0
CIRCLE
  5
12B6
  8
0
 10
160.59999999999999
 20
71.100000000000023
 30
0.0
 40
3.5
  0
CIRCLE
  5
12B7
  8
0
 10
160.59999999999999
 20
71.100000000000023
 30
0.0
 40
1.75
  0
LINE
  5
12B9
  8
0
 10
157.56000000000009
 20
129.5
 30
0.0
 11
157.56000000000009
 21
130.6999999999999
 31
0.0
  0
LINE
  5
12BA
  8
0
 10
157.13397459621561
 20
128.0
 30
0.0
 11
158.97500000000011
 21
128.5
 31
0.0
  0
LINE
  5
12BB
  8
0
 10
158.97500000000011
 20
130.6999999999999
 30
0.0
 11
158.97500000000011
 21
132.5
 31
0.0
  0
LINE
  5
12BC
  8
0
 10
158.97500000000011
 20
128.5
 30
0.0
 11
158.97500000000011
 21
129.5
 31
0.0
  0
LINE
  5
1500
  8
0
 10
157.66602540378429
 20
128.0
 30
0.0
 11
157.40000000000001
 21
128.07224924849959
 31
0.0
  0
LINE
  5
15EB
  8
0
 10
60.450000000000117
 20
128.16730497105519
 30
0.0
 11
59.833974596215491
 21
127.9999999999999
 31
0.0
  0
ENDSEC
  0
EOF
