  0
SECTION
  2
HEADER
  9
$ACADVER
  1
AC1009
  9
$INSBASE
 10
0.0
 20
0.0
 30
0.0
  9
$EXTMIN
 10
0.0
 20
-2.960436562073669
 30
0.0
  9
$EXTMAX
 10
339.95037488007478
 20
248.02402485480491
 30
0.0
  9
$LIMMIN
 10
0.0
 20
0.0
  9
$LIMMAX
 10
75.0
 20
54.0
  9
$ORTHOMODE
 70
     1
  9
$REGENMODE
 70
     1
  9
$FILLMODE
 70
     1
  9
$QTEXTMODE
 70
     0
  9
$MIRRTEXT
 70
     0
  9
$DRAGMODE
 70
     2
  9
$LTSCALE
 40
10.0
  9
$OSMODE
 70
    37
  9
$ATTMODE
 70
     1
  9
$TEXTSIZE
 40
0.2
  9
$TRACEWID
 40
0.05
  9
$TEXTSTYLE
  7
STANDARD
  9
$CLAYER
  8
0
  9
$CELTYPE
  6
BYLAYER
  9
$CECOLOR
 62
   256
  9
$DIMSCALE
 40
0.2
  9
$DIMASZ
 40
3.0
  9
$DIMEXO
 40
2.0
  9
$DIMDLI
 40
10.0
  9
$DIMRND
 40
0.0
  9
$DIMDLE
 40
0.0
  9
$DIMEXE
 40
2.0
  9
$DIMTP
 40
0.0
  9
$DIMTM
 40
0.0
  9
$DIMTXT
 40
3.0
  9
$DIMCEN
 40
0.09
  9
$DIMTSZ
 40
0.0
  9
$DIMTOL
 70
     0
  9
$DIMLIM
 70
     0
  9
$DIMTIH
 70
     0
  9
$DIMTOH
 70
     0
  9
$DIMSE1
 70
     0
  9
$DIMSE2
 70
     0
  9
$DIMTAD
 70
     1
  9
$DIMZIN
 70
     0
  9
$DIMBLK
  1

  9
$DIMASO
 70
     0
  9
$DIMSHO
 70
     0
  9
$DIMPOST
  1

  9
$DIMAPOST
  1

  9
$DIMALT
 70
     0
  9
$DIMALTD
 70
     2
  9
$DIMALTF
 40
25.399999999999999
  9
$DIMLFAC
 40
1.0
  9
$DIMTOFL
 70
     1
  9
$DIMTVP
 40
1.6000000000000001
  9
$DIMTIX
 70
     1
  9
$DIMSOXD
 70
     0
  9
$DIMSAH
 70
     0
  9
$DIMBLK1
  1

  9
$DIMBLK2
  1

  9
$DIMSTYLE
  2
STANDARD
  9
$DIMCLRD
 70
     0
  9
$DIMCLRE
 70
     0
  9
$DIMCLRT
 70
     0
  9
$DIMTFAC
 40
1.0
  9
$DIMGAP
 40
0.09
  9
$LUNITS
 70
     2
  9
$LUPREC
 70
     4
  9
$SKETCHINC
 40
0.1
  9
$FILLETRAD
 40
0.0
  9
$AUNITS
 70
     0
  9
$AUPREC
 70
     0
  9
$MENU
  1
E:\r13\win\SUPPORT\ACAD
  9
$ELEVATION
 40
0.0
  9
$PELEVATION
 40
0.0
  9
$THICKNESS
 40
0.0
  9
$LIMCHECK
 70
     0
  9
$BLIPMODE
 70
     0
  9
$CHAMFERA
 40
0.0
  9
$CHAMFERB
 40
0.0
  9
$SKPOLY
 70
     0
  9
$TDCREATE
 40
2449840.618888889
  9
$TDUPDATE
 40
2459429.6055115978
  9
$TDINDWG
 40
0.2657071875
  9
$TDUSRTIMER
 40
0.2657071875
  9
$USRTIMER
 70
     1
  9
$ANGBASE
 50
0.0
  9
$ANGDIR
 70
     0
  9
$PDMODE
 70
     0
  9
$PDSIZE
 40
0.0
  9
$PLINEWID
 40
0.0
  9
$COORDS
 70
     1
  9
$SPLFRAME
 70
     0
  9
$SPLINETYPE
 70
     6
  9
$SPLINESEGS
 70
     8
  9
$ATTDIA
 70
     0
  9
$ATTREQ
 70
     1
  9
$HANDLING
 70
     1
  9
$HANDSEED
  5
C14
  9
$SURFTAB1
 70
     6
  9
$SURFTAB2
 70
     6
  9
$SURFTYPE
 70
     6
  9
$SURFU
 70
     6
  9
$SURFV
 70
     6
  9
$UCSNAME
  2

  9
$UCSORG
 10
0.0
 20
0.0
 30
0.0
  9
$UCSXDIR
 10
1.0
 20
0.0
 30
0.0
  9
$UCSYDIR
 10
0.0
 20
1.0
 30
0.0
  9
$PUCSNAME
  2

  9
$PUCSORG
 10
0.0
 20
0.0
 30
0.0
  9
$PUCSXDIR
 10
1.0
 20
0.0
 30
0.0
  9
$PUCSYDIR
 10
0.0
 20
1.0
 30
0.0
  9
$USERI1
 70
     0
  9
$USERI2
 70
     1
  9
$USERI3
 70
     1
  9
$USERI4
 70
     0
  9
$USERI5
 70
     0
  9
$USERR1
 40
0.0
  9
$USERR2
 40
0.0
  9
$USERR3
 40
0.0
  9
$USERR4
 40
0.0
  9
$USERR5
 40
0.0
  9
$WORLDVIEW
 70
     1
  9
$SHADEDGE
 70
     3
  9
$SHADEDIF
 70
    70
  9
$TILEMODE
 70
     1
  9
$MAXACTVP
 70
    16
  9
$PLIMCHECK
 70
     0
  9
$PEXTMIN
 10
1.0000000000000000E+020
 20
1.0000000000000000E+020
 30
1.0000000000000000E+020
  9
$PEXTMAX
 10
-1.0000000000000000E+020
 20
-1.0000000000000000E+020
 30
-1.0000000000000000E+020
  9
$PLIMMIN
 10
0.0
 20
0.0
  9
$PLIMMAX
 10
12.0
 20
9.0
  9
$UNITMODE
 70
     0
  9
$VISRETAIN
 70
     0
  9
$PLINEGEN
 70
     0
  9
$PSLTSCALE
 70
     0
  0
ENDSEC
  0
SECTION
  2
TABLES
  0
TABLE
  2
VPORT
 70
     1
  0
VPORT
  2
*ACTIVE
 70
     0
 10
0.0
 20
0.0
 11
1.0
 21
1.0
 12
293.56574013743511
 22
122.53179531513869
 13
0.0
 23
0.0
 14
2.0
 24
2.0
 15
2.0
 25
2.0
 16
0.0
 26
0.0
 36
1.0
 17
0.0
 27
0.0
 37
0.0
 40
253.1946812911271
 41
2.3805970149253728
 42
50.0
 43
0.0
 44
0.0
 50
0.0
 51
0.0
 71
     0
 72
   100
 73
     1
 74
     0
 75
     0
 76
     0
 77
     0
 78
     2
  0
ENDTAB
  0
TABLE
  2
LTYPE
 70
     4
  0
LTYPE
  2
CONTINUOUS
 70
     0
  3
Solid Line
 72
    65
 73
     0
 40
0.0
  0
LTYPE
  2
CENTER
 70
     0
  3
____ _ ____ _ ____ _ ____ _ ____ _ ____ _ ____
 72
    65
 73
     4
 40
2.0
 49
1.25
 49
-0.25
 49
0.25
 49
-0.25
  0
LTYPE
  2
HIDDEN
 70
     0
  3
_ _ _ _ _ _ _ _ _ _ _ _ _ _ _ _ _ _ _ _ _ _ _
 72
    65
 73
     2
 40
0.375
 49
0.25
 49
-0.125
  0
LTYPE
  2
PHANTOM2
 70
     0
  3
___ _ _ ___ _ _ ___ _ _ ___ _ _
 72
    65
 73
     6
 40
1.25
 49
0.625
 49
-0.125
 49
0.125
 49
-0.125
 49
0.125
 49
-0.125
  0
ENDTAB
  0
TABLE
  2
LAYER
 70
     3
  0
LAYER
  2
0
 70
     0
 62
     7
  6
CONTINUOUS
  0
LAYER
  2
1
 70
     0
 62
     1
  6
CENTER
  0
LAYER
  2
2
 70
     0
 62
     2
  6
HIDDEN
  0
ENDTAB
  0
TABLE
  2
STYLE
 70
     2
  0
STYLE
  2
STANDARD
 70
     0
 40
0.0
 41
1.0
 50
0.0
 71
     0
 42
0.2
  3
TXT
  4
BIGFONT
  0
STYLE
  2
STANDARD1
 70
     0
 40
0.0
 41
1.0
 50
0.0
 71
     0
 42
3.0
  3
txt
  4

  0
ENDTAB
  0
TABLE
  2
VIEW
 70
     1
  0
VIEW
  2
ALL
 70
     0
 40
54.0
 10
44.198318999999998
 20
27.0
 41
0.0
 11
0.0
 21
0.0
 31
1.0
 12
0.0
 22
0.0
 32
0.0
 42
0.0
 43
0.0
 44
0.0
 50
0.0
 71
     0
  0
ENDTAB
  0
TABLE
  2
UCS
 70
     0
  0
ENDTAB
  0
TABLE
  2
APPID
 70
     5
  0
APPID
  2
ACAD
 70
     0
  0
APPID
  2
DCO15
 70
     0
  0
APPID
  2
ACAD_MLEADERVER
 70
     0
  0
APPID
  2
ACAD_NAV_VCDISPLAY
 70
     0
  0
APPID
  2
ACAD_EXEMPT_FROM_CAD_STANDARDS
 70
     0
  0
ENDTAB
  0
TABLE
  2
DIMSTYLE
 70
     1
  0
DIMSTYLE
  2
STANDARD
 70
     0
  3

  4

  5

  6

  7

 40
1.0
 41
0.18
 42
0.0625
 43
0.38
 44
0.18
 45
0.0
 46
0.0
 47
0.0
 48
0.0
140
0.18
141
0.09
142
0.0
143
25.399999999999999
144
1.0
145
0.0
146
1.0
147
0.09
 71
     0
 72
     0
 73
     1
 74
     1
 75
     0
 76
     0
 77
     0
 78
     0
170
     0
171
     2
172
     0
173
     0
174
     0
175
     0
176
     0
177
     0
178
     0
  0
ENDTAB
  0
ENDSEC
  0
SECTION
  2
BLOCKS
  0
BLOCK
  8
0
  2
$MODEL_SPACE
 70
     0
 10
0.0
 20
0.0
 30
0.0
  3
$MODEL_SPACE
  1

  0
ENDBLK
  5
2D4
  8
0
  0
BLOCK
 67
     1
  8
0
  2
$PAPER_SPACE
 70
     0
 10
0.0
 20
0.0
 30
0.0
  3
$PAPER_SPACE
  1

  0
ENDBLK
  5
2D2
 67
     1
  8
0
  0
ENDSEC
  0
SECTION
  2
ENTITIES
  0
CIRCLE
  5
78D
  8
0
 10
273.5503748800748
 20
230.02402485480479
 30
0.0
 40
1.5
  0
LINE
  5
78E
  8
1
 10
321.45037488007478
 20
212.0309706393584
 30
0.0
 11
321.45037488007478
 21
248.0170790702513
 31
0.0
  0
LINE
  5
78F
  8
2
 62
     2
 10
211.95037488007469
 20
129.04101216838899
 30
0.0
 11
211.95037488007469
 21
128.03830686130311
 31
0.0
  0
ARC
  5
790
  8
2
 62
     2
 10
211.30735525502379
 20
129.68991074405679
 30
0.0
 40
0.9135335788596959
 50
314.73927394698308
 51
45.260726053018118
  0
LINE
  5
792
  8
2
 62
     2
 10
198.15037488007459
 20
130.8584589629084
 30
0.0
 11
198.15037488007459
 21
128.03830686130311
 31
0.0
  0
LINE
  5
793
  8
2
 62
     2
 10
196.95037488007469
 20
129.04101216838899
 30
0.0
 11
196.95037488007469
 21
128.03830686130311
 31
0.0
  0
LINE
  5
794
  8
2
 62
     2
 10
196.95037488007469
 20
128.03830686130311
 30
0.0
 11
211.95037488007469
 21
128.03830686130311
 31
0.0
  0
LINE
  5
796
  8
2
 62
     2
 10
210.7503748800747
 20
133.69860286367231
 30
0.0
 11
210.75037488007479
 21
128.038306861303
 31
0.0
  0
ARC
  5
797
  8
2
 62
     2
 10
267.12592737405947
 20
-145.77497236583019
 30
0.0
 40
285.10293258849941
 50
101.404687610132
 51
104.0006028372718
  0
LINE
  5
798
  8
2
 62
     2
 10
196.95037488007469
 20
131.69414544862781
 30
0.0
 11
196.95037488007469
 21
130.33880931972431
 31
0.0
  0
LINE
  5
799
  8
2
 62
     2
 10
211.95037488007469
 20
135.2955510714124
 30
0.0
 11
211.95037488007469
 21
130.33880931972431
 31
0.0
  0
ARC
  5
79A
  8
0
 10
262.46232102742118
 20
-96.911614613438118
 30
0.0
 40
228.95044166774051
 50
89.877862445222561
 51
100.7123781143615
  0
LINE
  5
79C
  8
0
 10
203.95037488007469
 20
243.02402485480491
 30
0.0
 11
321.950374880075
 21
243.02402485480491
 31
0.0
  0
LINE
  5
79D
  8
1
 10
262.95037488007472
 20
127.0383068612051
 30
0.0
 11
262.95037488007472
 21
145.5383068618269
 31
0.0
  0
LINE
  5
79E
  8
1
 10
204.45037488007461
 20
96.684828447711993
 30
0.0
 11
204.45037488007461
 21
138.75595509961079
 31
0.0
  0
LINE
  5
7A0
  8
0
 10
190.95037488007469
 20
101.5383068613031
 30
0.0
 11
190.95037488007469
 21
128.18362451554441
 31
0.0
  0
ARC
  5
7A1
  8
2
 62
     2
 10
197.59339450512559
 20
129.68991074405679
 30
0.0
 40
0.9135335788596959
 50
134.73927394698191
 51
225.2607260530169
  0
LINE
  5
7A2
  8
0
 10
217.45037488007469
 20
101.5383068613031
 30
0.0
 11
190.95037488007469
 21
101.5383068613031
 31
0.0
  0
ARC
  5
7A4
  8
0
 10
262.95403841368011
 20
-110.1752752751236
 30
0.0
 40
250.71358216319371
 50
90.000837230324279
 51
106.27843891816821
  0
CIRCLE
  5
7A5
  8
0
 10
262.95037488007472
 20
230.02402485480479
 30
0.0
 40
1.5
  0
CIRCLE
  5
7A6
  8
0
 10
252.3503748800747
 20
230.02402485480479
 30
0.0
 40
1.5
  0
CIRCLE
  5
7A7
  8
0
 10
257.65037488007482
 20
230.02402485480479
 30
0.0
 40
1.5
  0
LINE
  5
7A8
  8
0
 10
203.95037488007469
 20
217.02402485480499
 30
0.0
 11
321.95037488007478
 21
217.02402485480499
 31
0.0
  0
LINE
  5
7A9
  8
1
 10
262.95037488007472
 20
212.02402485480499
 30
0.0
 11
262.95037488007478
 21
248.02402485480491
 31
0.0
  0
LINE
  5
7AA
  8
1
 10
185.95037488007469
 20
230.02402485480491
 30
0.0
 11
339.95037488007478
 21
230.02402485480479
 31
0.0
  0
CIRCLE
  5
7AB
  8
0
 10
268.25037488007467
 20
230.02402485480479
 30
0.0
 40
1.5
  0
LINE
  5
7AC
  8
0
 10
86.734251459452224
 20
137.15455894495881
 30
0.0
 11
86.734251459452153
 21
101.5383068613031
 31
0.0
  0
LINE
  5
7AD
  8
0
 10
113.2342514594522
 20
137.15455894495881
 30
0.0
 11
113.2342514594521
 21
101.5383068613031
 31
0.0
  0
LINE
  5
7AF
  8
0
 10
113.2342514594521
 20
101.5383068613031
 30
0.0
 11
86.734251459452153
 21
101.5383068613031
 31
0.0
  0
LINE
  5
7B4
  8
1
 10
99.984251459452267
 20
145.5383068613036
 30
0.0
 11
99.984251459452139
 21
96.538306861303127
 31
0.0
  0
ARC
  5
7B5
  8
0
 10
220.45037488007469
 20
125.0987699805768
 30
0.0
 40
3.0
 50
100.4689634222474
 51
180.0
  0
ARC
  5
7B6
  8
0
 10
193.3503748800747
 20
128.18362451554441
 30
0.0
 40
2.399999999999999
 50
106.27843891816831
 51
180.0
  0
ARC
  5
7B7
  8
0
 10
332.5503748800748
 20
128.18362451554441
 30
0.0
 40
2.399999999999999
 50
0.0
 51
73.721561081831595
  0
ARC
  5
7B8
  8
0
 10
305.45037488007478
 20
125.0987699805768
 30
0.0
 40
3.0
 50
0.0
 51
79.531036577752545
  0
ARC
  5
7B9
  8
0
 10
262.94671134646933
 20
-110.1752752751236
 30
0.0
 40
250.71358216319371
 50
73.721561081831751
 51
89.999162769675692
  0
LINE
  5
7BC
  8
0
 10
334.95037488007489
 20
101.5383068613031
 30
0.0
 11
334.95037488007478
 21
128.18362451554441
 31
0.0
  0
LINE
  5
7BE
  8
1
 10
321.45037488007478
 20
96.684828447711993
 30
0.0
 11
321.45037488007478
 21
138.75595509961079
 31
0.0
  0
LINE
  5
7BF
  8
0
 10
334.95037488007478
 20
101.5383068613031
 30
0.0
 11
308.45037488007478
 21
101.5383068613031
 31
0.0
  0
ARC
  5
7C1
  8
0
 10
263.43842873272843
 20
-96.911614613437251
 30
0.0
 40
228.9504416677396
 50
79.287621885638487
 51
90.122137554777495
  0
LINE
  5
7CD
  8
2
 62
     2
 10
314.95037488007478
 20
119.5383068613032
 30
0.0
 11
327.95037488007478
 21
119.5383068613031
 31
0.0
  0
LINE
  5
7CE
  8
2
 62
     2
 10
197.95037488007469
 20
119.5383068613031
 30
0.0
 11
210.95037488007469
 21
119.5383068613031
 31
0.0
  0
LINE
  5
7CF
  8
1
 10
204.45037488007469
 20
212.0309706393584
 30
0.0
 11
204.45037488007469
 21
248.01707907025141
 31
0.0
  0
ARC
  5
7D0
  8
0
 10
321.95037488007478
 20
230.02402485480479
 30
0.0
 40
13.0
 50
270.0
 51
89.999999999999986
  0
ARC
  5
7D3
  8
0
 10
203.95037488007469
 20
230.02402485480479
 30
0.0
 40
13.0
 50
89.999999999999986
 51
270.0
  0
LINE
  5
7E5
  8
2
 62
     2
 10
325.70037488007478
 20
101.5383068613031
 30
0.0
 11
325.70037488007472
 21
119.5342184911503
 31
0.0
  0
LINE
  5
7E6
  8
2
 62
     2
 10
317.20037488007478
 20
101.5383068613031
 30
0.0
 11
317.20037488007489
 21
119.5342184911503
 31
0.0
  0
LINE
  5
7E7
  8
2
 62
     2
 10
200.2003748800748
 20
101.5383068613031
 30
0.0
 11
200.200374880075
 21
119.5342184911502
 31
0.0
  0
LINE
  5
7E8
  8
2
 62
     2
 10
208.7003748800748
 20
101.5383068613031
 30
0.0
 11
208.70037488007469
 21
119.5342184911502
 31
0.0
  0
ARC
  5
819
  8
2
 62
     2
 10
328.30735525502382
 20
129.68991074405679
 30
0.0
 40
0.9135335788596959
 50
314.73927394698308
 51
45.260726053018118
  0
LINE
  5
81A
  8
2
 62
     2
 10
313.95037488007478
 20
135.2955510714124
 30
0.0
 11
313.95037488007472
 21
130.33880931972431
 31
0.0
  0
LINE
  5
81B
  8
2
 62
     2
 10
328.95037488007478
 20
131.69414544862781
 30
0.0
 11
328.95037488007472
 21
130.33880931972431
 31
0.0
  0
ARC
  5
81C
  8
2
 62
     2
 10
258.77482238608991
 20
-145.77497236583019
 30
0.0
 40
285.10293258849941
 50
75.999397162728172
 51
78.595312389867971
  0
LINE
  5
81D
  8
2
 62
     2
 10
315.15037488007482
 20
133.69860286367231
 30
0.0
 11
315.15037488007471
 21
128.038306861303
 31
0.0
  0
LINE
  5
81E
  8
2
 62
     2
 10
328.95037488007472
 20
128.03830686130311
 30
0.0
 11
313.95037488007472
 21
128.03830686130311
 31
0.0
  0
LINE
  5
81F
  8
2
 62
     2
 10
328.95037488007472
 20
129.04101216838899
 30
0.0
 11
328.95037488007472
 21
128.03830686130311
 31
0.0
  0
LINE
  5
820
  8
2
 62
     2
 10
327.75037488007479
 20
130.8584589629084
 30
0.0
 11
327.75037488007479
 21
128.03830686130311
 31
0.0
  0
ARC
  5
821
  8
2
 62
     2
 10
314.59339450512562
 20
129.68991074405679
 30
0.0
 40
0.9135335788596959
 50
134.73927394698191
 51
225.26072605301701
  0
LINE
  5
822
  8
2
 62
     2
 10
313.95037488007472
 20
129.04101216838899
 30
0.0
 11
313.95037488007472
 21
128.03830686130311
 31
0.0
  0
CIRCLE
  5
824
  8
0
 10
321.45037488007478
 20
230.02402485480479
 30
0.0
 40
7.500000000000056
  0
CIRCLE
  5
825
  8
0
 10
204.45037488007461
 20
230.02402485480479
 30
0.0
 40
7.500000000000056
  0
CIRCLE
  5
8FF
  8
2
 62
     2
 10
204.45037488007469
 20
230.02402485480491
 30
0.0
 40
4.25
  0
CIRCLE
  5
900
  8
2
 62
     2
 10
321.45037488007478
 20
230.02402485480479
 30
0.0
 40
4.25
  0
ARC
  5
95F
  8
2
 62
     2
 10
99.984251459452267
 20
154.03830686130351
 30
0.0
 40
22.0
 50
232.96715625502051
 51
307.03284374497912
  0
ARC
  5
960
  8
0
 10
89.134251459452216
 20
137.15455894495881
 30
0.0
 40
2.399999999999999
 50
100.6044550090358
 51
180.0
  0
ARC
  5
961
  8
0
 10
110.8342514594522
 20
137.15455894495881
 30
0.0
 40
2.399999999999999
 50
0.0
 51
79.395544990964183
  0
ARC
  5
962
  8
0
 10
100.2418062927519
 20
74.976013613152503
 30
0.0
 40
65.562799135246692
 50
90.225079512938166
 51
100.1458848479196
  0
ARC
  5
963
  8
0
 10
99.726696626152815
 20
74.976013613155033
 30
0.0
 40
65.562799135244163
 50
79.854115152080198
 51
89.774920487061976
  0
TEXT
  5
A81
  8
0
 62
     3
 10
0.0
 20
0.0
 30
0.0
 40
10.0
  1
EAG140C-BR
  7
STANDARD1
  0
LINE
  5
B1F
  8
2
 10
210.95037488007469
 20
119.5383068613031
 30
0.0
 11
210.95037488007469
 21
128.03830686130311
 31
0.0
  0
LINE
  5
B22
  8
2
 10
197.95037488007469
 20
119.5383068613032
 30
0.0
 11
197.95037488007461
 21
128.03830686130311
 31
0.0
  0
LINE
  5
B23
  8
2
 10
327.95037488007489
 20
119.5383068613031
 30
0.0
 11
327.95037488007489
 21
128.03830686130311
 31
0.0
  0
LINE
  5
B24
  8
2
 10
314.95037488007478
 20
119.5383068613032
 30
0.0
 11
314.95037488007478
 21
128.03830686130311
 31
0.0
  0
LINE
  5
B25
  8
2
 10
204.45037488007461
 20
119.5383068613031
 30
0.0
 11
204.45037488007469
 21
128.03830686130311
 31
0.0
  0
LINE
  5
B26
  8
2
 10
321.45037488007478
 20
119.5383068613031
 30
0.0
 11
321.45037488007472
 21
128.03830686130311
 31
0.0
  0
LINE
  5
B7B
  8
0
 10
217.45037488007469
 20
101.5383068613031
 30
0.0
 11
217.45037488007469
 21
125.0987699805768
 31
0.0
  0
LINE
  5
B7C
  8
0
 10
308.45037488007478
 20
101.5383068613031
 30
0.0
 11
308.45037488007478
 21
125.0987699805768
 31
0.0
  0
ENDSEC
  0
EOF
