  0
SECTION
  2
HEADER
  9
$ACADVER
  1
AC1009
  9
$INSBASE
 10
0.0
 20
0.0
 30
0.0
  9
$EXTMIN
 10
0.0
 20
-2.960436562073669
 30
0.0
  9
$EXTMAX
 10
153.25
 20
176.0
 30
0.0
  9
$LIMMIN
 10
0.0
 20
0.0
  9
$LIMMAX
 10
750.0
 20
540.0
  9
$ORTHOMODE
 70
     1
  9
$REGENMODE
 70
     1
  9
$FILLMODE
 70
     1
  9
$QTEXTMODE
 70
     0
  9
$MIRRTEXT
 70
     0
  9
$DRAGMODE
 70
     2
  9
$LTSCALE
 40
5.0
  9
$OSMODE
 70
    37
  9
$ATTMODE
 70
     1
  9
$TEXTSIZE
 40
0.2
  9
$TRACEWID
 40
0.05
  9
$TEXTSTYLE
  7
STANDARD
  9
$CLAYER
  8
0
  9
$CELTYPE
  6
BYLAYER
  9
$CECOLOR
 62
   256
  9
$DIMSCALE
 40
1.0
  9
$DIMASZ
 40
3.0
  9
$DIMEXO
 40
2.0
  9
$DIMDLI
 40
0.38
  9
$DIMRND
 40
0.0
  9
$DIMDLE
 40
0.0
  9
$DIMEXE
 40
2.0
  9
$DIMTP
 40
0.0
  9
$DIMTM
 40
0.0
  9
$DIMTXT
 40
3.2000000000000002
  9
$DIMCEN
 40
0.0
  9
$DIMTSZ
 40
0.0
  9
$DIMTOL
 70
     0
  9
$DIMLIM
 70
     0
  9
$DIMTIH
 70
     0
  9
$DIMTOH
 70
     0
  9
$DIMSE1
 70
     0
  9
$DIMSE2
 70
     0
  9
$DIMTAD
 70
     1
  9
$DIMZIN
 70
     0
  9
$DIMBLK
  1

  9
$DIMASO
 70
     0
  9
$DIMSHO
 70
     0
  9
$DIMPOST
  1

  9
$DIMAPOST
  1

  9
$DIMALT
 70
     0
  9
$DIMALTD
 70
     2
  9
$DIMALTF
 40
25.399999999999999
  9
$DIMLFAC
 40
1.0
  9
$DIMTOFL
 70
     0
  9
$DIMTVP
 40
1.6000000000000001
  9
$DIMTIX
 70
     1
  9
$DIMSOXD
 70
     0
  9
$DIMSAH
 70
     0
  9
$DIMBLK1
  1

  9
$DIMBLK2
  1

  9
$DIMSTYLE
  2
STANDARD
  9
$DIMCLRD
 70
     0
  9
$DIMCLRE
 70
     0
  9
$DIMCLRT
 70
     0
  9
$DIMTFAC
 40
1.0
  9
$DIMGAP
 40
0.09
  9
$LUNITS
 70
     2
  9
$LUPREC
 70
     1
  9
$SKETCHINC
 40
0.1
  9
$FILLETRAD
 40
0.0
  9
$AUNITS
 70
     0
  9
$AUPREC
 70
     1
  9
$MENU
  1
E:\r13\win\SUPPORT\ACAD
  9
$ELEVATION
 40
0.0
  9
$PELEVATION
 40
0.0
  9
$THICKNESS
 40
0.0
  9
$LIMCHECK
 70
     0
  9
$BLIPMODE
 70
     0
  9
$CHAMFERA
 40
0.0
  9
$CHAMFERB
 40
0.0
  9
$SKPOLY
 70
     0
  9
$TDCREATE
 40
2449840.6227546302
  9
$TDUPDATE
 40
2457168.6605568291
  9
$TDINDWG
 40
0.2035913079
  9
$TDUSRTIMER
 40
2456422.520595578
  9
$USRTIMER
 70
     1
  9
$ANGBASE
 50
0.0
  9
$ANGDIR
 70
     0
  9
$PDMODE
 70
     0
  9
$PDSIZE
 40
0.0
  9
$PLINEWID
 40
0.0
  9
$COORDS
 70
     1
  9
$SPLFRAME
 70
     0
  9
$SPLINETYPE
 70
     6
  9
$SPLINESEGS
 70
     8
  9
$ATTDIA
 70
     0
  9
$ATTREQ
 70
     1
  9
$HANDLING
 70
     1
  9
$HANDSEED
  5
2F5B
  9
$SURFTAB1
 70
     6
  9
$SURFTAB2
 70
     6
  9
$SURFTYPE
 70
     6
  9
$SURFU
 70
     6
  9
$SURFV
 70
     6
  9
$UCSNAME
  2

  9
$UCSORG
 10
0.0
 20
0.0
 30
0.0
  9
$UCSXDIR
 10
1.0
 20
0.0
 30
0.0
  9
$UCSYDIR
 10
0.0
 20
1.0
 30
0.0
  9
$PUCSNAME
  2

  9
$PUCSORG
 10
0.0
 20
0.0
 30
0.0
  9
$PUCSXDIR
 10
1.0
 20
0.0
 30
0.0
  9
$PUCSYDIR
 10
0.0
 20
1.0
 30
0.0
  9
$USERI1
 70
     0
  9
$USERI2
 70
     1
  9
$USERI3
 70
     0
  9
$USERI4
 70
     0
  9
$USERI5
 70
     0
  9
$USERR1
 40
0.0
  9
$USERR2
 40
0.0
  9
$USERR3
 40
0.0
  9
$USERR4
 40
0.0
  9
$USERR5
 40
0.0
  9
$WORLDVIEW
 70
     1
  9
$SHADEDGE
 70
     3
  9
$SHADEDIF
 70
    70
  9
$TILEMODE
 70
     1
  9
$MAXACTVP
 70
    16
  9
$PLIMCHECK
 70
     0
  9
$PEXTMIN
 10
1.0000000000000000E+020
 20
1.0000000000000000E+020
 30
1.0000000000000000E+020
  9
$PEXTMAX
 10
-1.0000000000000000E+020
 20
-1.0000000000000000E+020
 30
-1.0000000000000000E+020
  9
$PLIMMIN
 10
0.0
 20
0.0
  9
$PLIMMAX
 10
12.0
 20
9.0
  9
$UNITMODE
 70
     0
  9
$VISRETAIN
 70
     0
  9
$PLINEGEN
 70
     0
  9
$PSLTSCALE
 70
     0
  0
ENDSEC
  0
SECTION
  2
TABLES
  0
TABLE
  2
VPORT
 70
     1
  0
VPORT
  2
*ACTIVE
 70
     0
 10
0.0
 20
0.0
 11
1.0
 21
1.0
 12
245.19230769230771
 22
135.0
 13
0.0
 23
0.0
 14
20.0
 24
20.0
 15
20.0
 25
20.0
 16
0.0
 26
0.0
 36
1.0
 17
0.0
 27
0.0
 37
0.0
 40
270.0
 41
1.816239316239316
 42
50.0
 43
0.0
 44
0.0
 50
0.0
 51
0.0
 71
    16
 72
   100
 73
     1
 74
     0
 75
     0
 76
     0
 77
     0
 78
     2
  0
ENDTAB
  0
TABLE
  2
LTYPE
 70
     4
  0
LTYPE
  2
CONTINUOUS
 70
     0
  3
Solid Line
 72
    65
 73
     0
 40
0.0
  0
LTYPE
  2
PHANTOM2
 70
     0
  3
___ _ _ ___ _ _ ___ _ _ ___ _ _
 72
    65
 73
     6
 40
1.25
 49
0.625
 49
-0.125
 49
0.125
 49
-0.125
 49
0.125
 49
-0.125
  0
LTYPE
  2
CENTER
 70
     0
  3
____ _ ____ _ ____ _ ____ _ ____ _ ____ _ ____
 72
    65
 73
     4
 40
2.0
 49
1.25
 49
-0.25
 49
0.25
 49
-0.25
  0
LTYPE
  2
HIDDEN
 70
     0
  3
_ _ _ _ _ _ _ _ _ _ _ _ _ _ _ _ _ _ _ _ _ _ _
 72
    65
 73
     2
 40
0.375
 49
0.25
 49
-0.125
  0
ENDTAB
  0
TABLE
  2
LAYER
 70
     4
  0
LAYER
  2
0
 70
     0
 62
     7
  6
CONTINUOUS
  0
LAYER
  2
1
 70
     0
 62
     1
  6
CENTER
  0
LAYER
  2
2
 70
     0
 62
     2
  6
HIDDEN
  0
LAYER
  2
DEFPOINTS
 70
     0
 62
     7
  6
CONTINUOUS
  0
ENDTAB
  0
TABLE
  2
STYLE
 70
     2
  0
STYLE
  2
STANDARD
 70
     0
 40
0.0
 41
1.0
 50
0.0
 71
     0
 42
0.2
  3
TXT
  4
BIGFONT
  0
STYLE
  2
STANDARD1
 70
     0
 40
0.0
 41
1.0
 50
0.0
 71
     0
 42
3.0
  3
txt
  4

  0
ENDTAB
  0
TABLE
  2
VIEW
 70
     1
  0
VIEW
  2
ALL
 70
     0
 40
540.0
 10
441.98319299999991
 20
270.0
 41
0.0
 11
0.0
 21
0.0
 31
1.0
 12
0.0
 22
0.0
 32
0.0
 42
0.0
 43
0.0
 44
0.0
 50
0.0
 71
     0
  0
ENDTAB
  0
TABLE
  2
UCS
 70
     0
  0
ENDTAB
  0
TABLE
  2
APPID
 70
     7
  0
APPID
  2
ACAD
 70
     0
  0
APPID
  2
ACADANNOTATIVE
 70
     0
  0
APPID
  2
ACAD_NAV_VCDISPLAY
 70
     0
  0
APPID
  2
ACAD_EXEMPT_FROM_CAD_STANDARDS
 70
     0
  0
APPID
  2
ACAD_DSTYLE_DIMJAG
 70
     0
  0
APPID
  2
ACAD_DSTYLE_DIMTALN
 70
     0
  0
APPID
  2
ACAD_MLEADERVER
 70
     0
  0
ENDTAB
  0
TABLE
  2
DIMSTYLE
 70
     1
  0
DIMSTYLE
  2
STANDARD
 70
     0
  3

  4

  5

  6

  7

 40
1.0
 41
0.18
 42
0.0625
 43
0.38
 44
0.18
 45
0.0
 46
0.0
 47
0.0
 48
0.0
140
0.18
141
0.09
142
0.0
143
25.399999999999999
144
1.0
145
0.0
146
1.0
147
0.09
 71
     0
 72
     0
 73
     1
 74
     1
 75
     0
 76
     0
 77
     0
 78
     0
170
     0
171
     2
172
     0
173
     0
174
     0
175
     0
176
     0
177
     0
178
     0
  0
ENDTAB
  0
ENDSEC
  0
SECTION
  2
BLOCKS
  0
BLOCK
  8
0
  2
$MODEL_SPACE
 70
     0
 10
0.0
 20
0.0
 30
0.0
  3
$MODEL_SPACE
  1

  0
ENDBLK
  5
507
  8
0
  0
BLOCK
 67
     1
  8
0
  2
$PAPER_SPACE
 70
     0
 10
0.0
 20
0.0
 30
0.0
  3
$PAPER_SPACE
  1

  0
ENDBLK
  5
503
 67
     1
  8
0
  0
ENDSEC
  0
SECTION
  2
ENTITIES
  0
TEXT
  5
2375
  8
0
 62
     3
 10
0.0
 20
0.0
 30
0.0
 40
10.0
  1
DLS100G
  7
STANDARD1
  0
LINE
  5
23F5
  8
1
 10
139.75
 20
63.5
 30
0.0
 11
153.25
 21
63.5
 31
0.0
  0
LINE
  5
23F6
  8
1
 10
146.5
 20
56.75
 30
0.0
 11
146.5
 21
70.25
 31
0.0
  0
LINE
  5
23F7
  8
0
 10
113.5
 20
107.5
 30
0.0
 11
113.5
 21
82.499999999999986
 31
0.0
  0
LINE
  5
23F8
  8
0
 10
113.5
 20
50.0
 30
0.0
 11
151.5
 21
50.0
 31
0.0
  0
LINE
  5
23F9
  8
0
 10
113.5
 20
107.5
 30
0.0
 11
151.5
 21
107.5
 31
0.0
  0
LINE
  5
23FA
  8
0
 10
151.5
 20
107.5
 30
0.0
 11
151.49999999999989
 21
82.499999999999986
 31
0.0
  0
CIRCLE
  5
23FE
  8
0
 10
146.5
 20
63.5
 30
0.0
 40
2.25
  0
LINE
  5
2409
  8
0
 10
113.5
 20
81.5
 30
0.0
 11
151.5
 21
81.5
 31
0.0
  0
LINE
  5
2413
  8
2
 10
53.000000000000028
 20
99.749999999999972
 30
0.0
 11
50.0
 21
99.750000000000014
 31
0.0
  0
LINE
  5
2414
  8
2
 10
50.0
 20
95.25
 30
0.0
 11
53.000000000000028
 21
95.249999999999957
 31
0.0
  0
LINE
  5
241A
  8
2
 10
53.0
 20
93.75
 30
0.0
 11
53.0
 21
101.25
 31
0.0
  0
LINE
  5
241B
  8
2
 10
59.310250399058191
 20
101.25
 30
0.0
 11
53.0
 21
101.25
 31
0.0
  0
LINE
  5
241C
  8
2
 10
53.0
 20
93.75
 30
0.0
 11
59.310250399058191
 21
93.75
 31
0.0
  0
LINE
  5
241D
  8
1
 10
62.310250399058191
 20
63.5
 30
0.0
 11
46.999999999999972
 21
63.5
 31
0.0
  0
LINE
  5
241E
  8
1
 10
62.310250399058191
 20
97.5
 30
0.0
 11
46.999999999999972
 21
97.5
 31
0.0
  0
LINE
  5
241F
  8
0
 10
63.5
 20
107.5
 30
0.0
 11
63.499999999999972
 21
82.5
 31
0.0
  0
POLYLINE
  5
2422
  8
0
 66
     1
 10
0.0
 20
0.0
 30
0.0
  0
VERTEX
  5
2ED1
  8
0
 10
59.310250399058191
 20
93.75
 30
0.0
  0
VERTEX
  5
2ED2
  8
0
 10
59.47124822420858
 20
93.812928392735415
 30
0.0
  0
VERTEX
  5
2ED3
  8
0
 10
59.627706928435828
 20
93.873262156481246
 30
0.0
  0
VERTEX
  5
2ED4
  8
0
 10
59.881155543706313
 20
93.97719700777958
 30
0.0
  0
VERTEX
  5
2ED5
  8
0
 10
60.122111928523331
 20
94.125164676958946
 30
0.0
  0
VERTEX
  5
2ED6
  8
0
 10
60.347146344092351
 20
94.317596894348071
 30
0.0
  0
VERTEX
  5
2ED7
  8
0
 10
60.544329407437203
 20
94.542523960633218
 30
0.0
  0
VERTEX
  5
2ED8
  8
0
 10
60.724766422560997
 20
94.808414612958856
 30
0.0
  0
VERTEX
  5
2ED9
  8
0
 10
60.885375369760482
 20
95.112331620442887
 30
0.0
  0
VERTEX
  5
2EDA
  8
0
 10
61.025145055114329
 20
95.455562402785475
 30
0.0
  0
VERTEX
  5
2EDB
  8
0
 10
61.142236653586991
 20
95.833459680767035
 30
0.0
  0
VERTEX
  5
2EDC
  8
0
 10
61.234178519030742
 20
96.238167640353197
 30
0.0
  0
VERTEX
  5
2EDD
  8
0
 10
61.294134552508353
 20
96.620608583516443
 30
0.0
  0
VERTEX
  5
2EDE
  8
0
 10
61.33269422613904
 20
97.017307695486124
 30
0.0
  0
VERTEX
  5
2EDF
  8
0
 10
61.34789503992365
 20
97.5
 30
0.0
  0
VERTEX
  5
2EE0
  8
0
 10
61.344138108613777
 20
97.796797118780034
 30
0.0
  0
VERTEX
  5
2EE1
  8
0
 10
61.319797869333563
 20
98.171360155422207
 30
0.0
  0
VERTEX
  5
2EE2
  8
0
 10
61.276515880224849
 20
98.536408994937517
 30
0.0
  0
VERTEX
  5
2EE3
  8
0
 10
61.214897099536422
 20
98.885799125835376
 30
0.0
  0
VERTEX
  5
2EE4
  8
0
 10
61.135330131465082
 20
99.219713840421775
 30
0.0
  0
VERTEX
  5
2EE5
  8
0
 10
61.039021606511767
 20
99.532854483693555
 30
0.0
  0
VERTEX
  5
2EE6
  8
0
 10
60.920961716389087
 20
99.835365573593378
 30
0.0
  0
VERTEX
  5
2EE7
  8
0
 10
60.786112559132341
 20
100.111387606807
 30
0.0
  0
VERTEX
  5
2EE8
  8
0
 10
60.636412491275649
 20
100.3576784791689
 30
0.0
  0
VERTEX
  5
2EE9
  8
0
 10
60.45666883168181
 20
100.59181839218409
 30
0.0
  0
VERTEX
  5
2EEA
  8
0
 10
60.261549925684022
 20
100.78961555038499
 30
0.0
  0
VERTEX
  5
2EEB
  8
0
 10
60.053735633618707
 20
100.9500134514799
 30
0.0
  0
VERTEX
  5
2EEC
  8
0
 10
59.803986778417283
 20
101.0872464024341
 30
0.0
  0
VERTEX
  5
2EED
  8
0
 10
59.47124822420858
 20
101.2003123434306
 30
0.0
  0
VERTEX
  5
2EEE
  8
0
 10
59.310250399058191
 20
101.25
 30
0.0
  0
VERTEX
  5
2EEF
  8
0
 10
59.310250399058191
 20
101.25
 30
0.0
  0
SEQEND
  5
2EF0
  8
0
  0
POLYLINE
  5
2423
  8
0
 66
     1
 10
0.0
 20
0.0
 30
0.0
  0
VERTEX
  5
2EF1
  8
0
 10
59.310250399058191
 20
101.25
 30
0.0
  0
VERTEX
  5
2EF2
  8
0
 10
59.148395355269543
 20
101.21731042568921
 30
0.0
  0
VERTEX
  5
2EF3
  8
0
 10
58.933294258947797
 20
101.1750946312375
 30
0.0
  0
VERTEX
  5
2EF4
  8
0
 10
58.597062765277087
 20
101.0654236484008
 30
0.0
  0
VERTEX
  5
2EF5
  8
0
 10
58.313156795553198
 20
100.9319002020431
 30
0.0
  0
VERTEX
  5
2EF6
  8
0
 10
58.030723657664957
 20
100.7609093624548
 30
0.0
  0
VERTEX
  5
2EF7
  8
0
 10
57.753749678806862
 20
100.5531849124155
 30
0.0
  0
VERTEX
  5
2EF8
  8
0
 10
57.486221186173509
 20
100.30946063470429
 30
0.0
  0
VERTEX
  5
2EF9
  8
0
 10
57.234315287699133
 20
100.0327906743583
 30
0.0
  0
VERTEX
  5
2EFA
  8
0
 10
56.998349746459439
 20
99.718996693793144
 30
0.0
  0
VERTEX
  5
2EFB
  8
0
 10
56.78531023775281
 20
99.369752235526065
 30
0.0
  0
VERTEX
  5
2EFC
  8
0
 10
56.64141360831627
 20
99.077675306529159
 30
0.0
  0
VERTEX
  5
2EFD
  8
0
 10
56.517783172257403
 20
98.764927969775897
 30
0.0
  0
VERTEX
  5
2EFE
  8
0
 10
56.41897416273008
 20
98.435342188869527
 30
0.0
  0
VERTEX
  5
2EFF
  8
0
 10
56.355365724332437
 20
98.130834004976535
 30
0.0
  0
VERTEX
  5
2F00
  8
0
 10
56.315896094559491
 20
97.817051834092084
 30
0.0
  0
VERTEX
  5
2F01
  8
0
 10
56.30234422804898
 20
97.5
 30
0.0
  0
SEQEND
  5
2F02
  8
0
  0
LINE
  5
2424
  8
0
 10
50.0
 20
81.5
 30
0.0
 11
63.499999999999972
 21
81.5
 31
0.0
  0
LINE
  5
2427
  8
0
 10
50.0
 20
82.5
 30
0.0
 11
63.499999999999972
 21
82.5
 31
0.0
  0
LINE
  5
2428
  8
0
 10
63.0
 20
107.5
 30
0.0
 11
63.0
 21
82.5
 31
0.0
  0
POLYLINE
  5
2429
  8
0
 66
     1
 10
0.0
 20
0.0
 30
0.0
  0
VERTEX
  5
2F03
  8
0
 10
56.30234422804898
 20
97.5
 30
0.0
  0
VERTEX
  5
2F04
  8
0
 10
56.317808644161801
 20
97.161747855275735
 30
0.0
  0
VERTEX
  5
2F05
  8
0
 10
56.362686698803309
 20
96.827450428643658
 30
0.0
  0
VERTEX
  5
2F06
  8
0
 10
56.434705601427872
 20
96.504289790162659
 30
0.0
  0
VERTEX
  5
2F07
  8
0
 10
56.53106124521684
 20
96.197341017872716
 30
0.0
  0
VERTEX
  5
2F08
  8
0
 10
56.648856399736871
 20
95.905579554377994
 30
0.0
  0
VERTEX
  5
2F09
  8
0
 10
56.78432857192837
 20
95.632054099445043
 30
0.0
  0
VERTEX
  5
2F0A
  8
0
 10
57.004287300012322
 20
95.272297888356107
 30
0.0
  0
VERTEX
  5
2F0B
  8
0
 10
57.248489791065992
 20
94.950220065865892
 30
0.0
  0
VERTEX
  5
2F0C
  8
0
 10
57.509332922369993
 20
94.667617232293097
 30
0.0
  0
VERTEX
  5
2F0D
  8
0
 10
57.770557527767551
 20
94.432995500448314
 30
0.0
  0
VERTEX
  5
2F0E
  8
0
 10
58.040500294873418
 20
94.232509997269176
 30
0.0
  0
VERTEX
  5
2F0F
  8
0
 10
58.315503180447422
 20
94.06684043633669
 30
0.0
  0
VERTEX
  5
2F10
  8
0
 10
58.591908141249398
 20
93.936666531231879
 30
0.0
  0
VERTEX
  5
2F11
  8
0
 10
58.870657379337381
 20
93.841378379604805
 30
0.0
  0
VERTEX
  5
2F12
  8
0
 10
59.148395355269543
 20
93.78268957431078
 30
0.0
  0
VERTEX
  5
2F13
  8
0
 10
59.310250399058191
 20
93.75
 30
0.0
  0
VERTEX
  5
2F14
  8
0
 10
59.310250399058191
 20
93.75
 30
0.0
  0
SEQEND
  5
2F15
  8
0
  0
LINE
  5
242A
  8
0
 10
50.0
 20
107.5
 30
0.0
 11
50.0
 21
82.5
 31
0.0
  0
LINE
  5
242B
  8
0
 10
50.0
 20
50.0
 30
0.0
 11
63.5
 21
50.0
 31
0.0
  0
LINE
  5
242C
  8
0
 10
55.0
 20
107.5
 30
0.0
 11
55.0
 21
82.5
 31
0.0
  0
LINE
  5
242D
  8
0
 10
50.0
 20
107.5
 30
0.0
 11
63.5
 21
107.5
 31
0.0
  0
LINE
  5
2432
  8
2
 10
120.75
 20
167.99999999999989
 30
0.0
 11
120.75
 21
171.0
 31
0.0
  0
LINE
  5
2433
  8
2
 10
116.25
 20
171.0
 30
0.0
 11
116.25
 21
168.0
 31
0.0
  0
LINE
  5
2436
  8
2
 10
114.7499999999999
 20
168.0
 30
0.0
 11
122.25
 21
167.99999999999989
 31
0.0
  0
LINE
  5
2437
  8
2
 10
122.2499999999999
 20
159.65210496007629
 30
0.0
 11
122.25
 21
167.99999999999989
 31
0.0
  0
LINE
  5
2438
  8
2
 10
114.7499999999999
 20
168.0
 30
0.0
 11
114.7499999999999
 21
164.69765577195099
 31
0.0
  0
LINE
  5
243C
  8
1
 10
146.5
 20
158.68974960094181
 30
0.0
 11
146.5
 21
174.0
 31
0.0
  0
LINE
  5
243D
  8
1
 10
118.4999999999999
 20
158.68974960094181
 30
0.0
 11
118.4999999999999
 21
174.0
 31
0.0
  0
LINE
  5
243E
  8
0
 10
151.5
 20
171.0
 30
0.0
 11
113.5
 21
171.0
 31
0.0
  0
LINE
  5
2440
  8
0
 10
113.5
 20
171.0
 30
0.0
 11
113.5
 21
166.0
 31
0.0
  0
LINE
  5
2442
  8
0
 10
151.5
 20
166.0
 30
0.0
 11
151.5
 21
171.0
 31
0.0
  0
LINE
  5
2883
  8
0
 10
126.0
 20
81.499999999999957
 30
0.0
 11
126.0
 21
107.5
 31
0.0
  0
LINE
  5
2884
  8
0
 10
138.99999999999989
 20
81.499999999999957
 30
0.0
 11
139.0
 21
107.5
 31
0.0
  0
LINE
  5
2885
  8
0
 10
113.5
 20
81.499999999999957
 30
0.0
 11
113.5
 21
50.0
 31
0.0
  0
LINE
  5
2886
  8
0
 10
151.49999999999989
 20
81.499999999999957
 30
0.0
 11
151.5
 21
50.0
 31
0.0
  0
CIRCLE
  5
2887
  8
0
 10
146.5
 20
63.5
 30
0.0
 40
3.75
  0
LINE
  5
288A
  8
1
 10
111.75
 20
63.5
 30
0.0
 11
125.25
 21
63.5
 31
0.0
  0
LINE
  5
288B
  8
1
 10
118.5
 20
56.75
 30
0.0
 11
118.5
 21
70.25
 31
0.0
  0
CIRCLE
  5
288C
  8
0
 10
118.5
 20
63.5
 30
0.0
 40
2.25
  0
CIRCLE
  5
288D
  8
0
 10
118.5
 20
63.5
 30
0.0
 40
3.75
  0
LINE
  5
288E
  8
1
 10
111.75
 20
97.5
 30
0.0
 11
125.25
 21
97.5
 31
0.0
  0
LINE
  5
288F
  8
1
 10
118.5
 20
90.750000000000014
 30
0.0
 11
118.5
 21
104.25
 31
0.0
  0
CIRCLE
  5
2890
  8
0
 10
118.5
 20
97.5
 30
0.0
 40
2.25
  0
CIRCLE
  5
2891
  8
0
 10
118.5
 20
97.5
 30
0.0
 40
3.75
  0
LINE
  5
2892
  8
1
 10
139.75
 20
97.5
 30
0.0
 11
153.25
 21
97.5
 31
0.0
  0
LINE
  5
2893
  8
1
 10
146.5
 20
90.750000000000014
 30
0.0
 11
146.5
 21
104.25
 31
0.0
  0
CIRCLE
  5
2894
  8
0
 10
146.5
 20
97.5
 30
0.0
 40
2.25
  0
CIRCLE
  5
2895
  8
0
 10
146.5
 20
97.5
 30
0.0
 40
3.75
  0
LINE
  5
2896
  8
0
 10
113.4999999999999
 20
82.499999999999886
 30
0.0
 11
151.5
 21
82.5
 31
0.0
  0
LINE
  5
28C3
  8
0
 10
139.0
 20
164.00000000000011
 30
0.0
 11
139.0
 21
158.0
 31
0.0
  0
LINE
  5
28C4
  8
0
 10
126.0
 20
164.00000000000011
 30
0.0
 11
126.0
 21
158.0
 31
0.0
  0
ARC
  5
28C7
  8
0
 10
132.5
 20
182.98529411764699
 30
0.0
 40
25.485294117647069
 50
221.7955309976773
 51
255.22350851255931
  0
LINE
  5
28C9
  8
0
 10
123.5
 20
168.0
 30
0.0
 11
123.5
 21
164.0
 31
0.0
  0
LINE
  5
28CA
  8
0
 10
141.5
 20
168.0
 30
0.0
 11
141.5
 21
164.0
 31
0.0
  0
LINE
  5
28CB
  8
0
 10
141.49999999999989
 20
168.0
 30
0.0
 11
135.75
 21
168.0
 31
0.0
  0
LINE
  5
28CC
  8
0
 10
141.49999999999989
 20
164.0
 30
0.0
 11
139.0
 21
164.0
 31
0.0
  0
LINE
  5
2912
  8
0
 10
129.25
 20
168.0
 30
0.0
 11
129.25
 21
161.0
 31
0.0
  0
LINE
  5
2913
  8
0
 10
135.75
 20
168.0
 30
0.0
 11
135.75
 21
161.0
 31
0.0
  0
LINE
  5
2914
  8
0
 10
126.0
 20
164.0
 30
0.0
 11
123.5
 21
164.0
 31
0.0
  0
LINE
  5
2915
  8
0
 10
135.75
 20
161.0
 30
0.0
 11
129.25
 21
161.0
 31
0.0
  0
LINE
  5
2916
  8
0
 10
129.25
 20
168.0
 30
0.0
 11
123.5
 21
168.0
 31
0.0
  0
LINE
  5
2921
  8
2
 10
144.24999999999989
 20
167.99999999999989
 30
0.0
 11
144.25
 21
171.0
 31
0.0
  0
LINE
  5
2922
  8
2
 10
148.75
 20
171.0
 30
0.0
 11
148.74999999999989
 21
168.0
 31
0.0
  0
LINE
  5
2923
  8
2
 10
150.25
 20
168.0
 30
0.0
 11
142.75
 21
167.99999999999989
 31
0.0
  0
LINE
  5
2924
  8
2
 10
142.75
 20
159.65210496007629
 30
0.0
 11
142.75
 21
167.99999999999989
 31
0.0
  0
LINE
  5
2925
  8
2
 10
150.25
 20
168.0
 30
0.0
 11
150.25000000000011
 21
164.69765577195099
 31
0.0
  0
LINE
  5
292B
  8
1
 10
132.5
 20
176.0
 30
0.0
 11
132.5
 21
152.5
 31
0.0
  0
LINE
  5
292C
  8
1
 10
132.5
 20
112.5
 30
0.0
 11
132.5
 21
45.0
 31
0.0
  0
ARC
  5
2A15
  8
0
 10
132.5
 20
182.98529411764699
 30
0.0
 40
25.485294117647069
 50
284.77649148744058
 51
318.20446900232258
  0
ARC
  5
2A19
  8
0
 10
132.5
 20
199.99999999999989
 30
0.0
 40
42.499999999999943
 50
261.2025892900088
 51
278.79741070999131
  0
LINE
  5
2A3C
  8
0
 10
55.0
 20
81.5
 30
0.0
 11
55.0
 21
50.0
 31
0.0
  0
LINE
  5
2A3D
  8
0
 10
50.0
 20
81.5
 30
0.0
 11
50.0
 21
50.0
 31
0.0
  0
LINE
  5
2A9B
  8
2
 10
53.000000000000028
 20
65.749999999999972
 30
0.0
 11
50.0
 21
65.75
 31
0.0
  0
LINE
  5
2A9C
  8
2
 10
50.0
 20
61.25
 30
0.0
 11
53.000000000000028
 21
61.249999999999972
 31
0.0
  0
LINE
  5
2A9D
  8
2
 10
53.0
 20
59.75
 30
0.0
 11
53.0
 21
67.25
 31
0.0
  0
LINE
  5
2A9E
  8
2
 10
59.310250399058191
 20
67.25
 30
0.0
 11
53.0
 21
67.25
 31
0.0
  0
LINE
  5
2A9F
  8
2
 10
53.0
 20
59.75
 30
0.0
 11
59.310250399058191
 21
59.75
 31
0.0
  0
POLYLINE
  5
2AA0
  8
0
 66
     1
 10
0.0
 20
0.0
 30
0.0
  0
VERTEX
  5
2F16
  8
0
 10
59.310250399058191
 20
59.75
 30
0.0
  0
VERTEX
  5
2F17
  8
0
 10
59.47124822420858
 20
59.812928392735422
 30
0.0
  0
VERTEX
  5
2F18
  8
0
 10
59.627706928435828
 20
59.873262156481239
 30
0.0
  0
VERTEX
  5
2F19
  8
0
 10
59.881155543706313
 20
59.97719700777958
 30
0.0
  0
VERTEX
  5
2F1A
  8
0
 10
60.122111928523331
 20
60.125164676958953
 30
0.0
  0
VERTEX
  5
2F1B
  8
0
 10
60.347146344092351
 20
60.317596894348071
 30
0.0
  0
VERTEX
  5
2F1C
  8
0
 10
60.544329407437203
 20
60.542523960633218
 30
0.0
  0
VERTEX
  5
2F1D
  8
0
 10
60.724766422560997
 20
60.80841461295887
 30
0.0
  0
VERTEX
  5
2F1E
  8
0
 10
60.885375369760482
 20
61.112331620442887
 30
0.0
  0
VERTEX
  5
2F1F
  8
0
 10
61.025145055114329
 20
61.455562402785489
 30
0.0
  0
VERTEX
  5
2F20
  8
0
 10
61.142236653586991
 20
61.833459680767049
 30
0.0
  0
VERTEX
  5
2F21
  8
0
 10
61.234178519030742
 20
62.23816764035319
 30
0.0
  0
VERTEX
  5
2F22
  8
0
 10
61.294134552508353
 20
62.620608583516429
 30
0.0
  0
VERTEX
  5
2F23
  8
0
 10
61.33269422613904
 20
63.017307695486117
 30
0.0
  0
VERTEX
  5
2F24
  8
0
 10
61.34789503992365
 20
63.5
 30
0.0
  0
VERTEX
  5
2F25
  8
0
 10
61.344138108613777
 20
63.796797118780027
 30
0.0
  0
VERTEX
  5
2F26
  8
0
 10
61.319797869333563
 20
64.171360155422207
 30
0.0
  0
VERTEX
  5
2F27
  8
0
 10
61.276515880224849
 20
64.536408994937517
 30
0.0
  0
VERTEX
  5
2F28
  8
0
 10
61.214897099536422
 20
64.885799125835376
 30
0.0
  0
VERTEX
  5
2F29
  8
0
 10
61.135330131465082
 20
65.219713840421775
 30
0.0
  0
VERTEX
  5
2F2A
  8
0
 10
61.039021606511767
 20
65.532854483693541
 30
0.0
  0
VERTEX
  5
2F2B
  8
0
 10
60.920961716389087
 20
65.835365573593364
 30
0.0
  0
VERTEX
  5
2F2C
  8
0
 10
60.786112559132341
 20
66.111387606806971
 30
0.0
  0
VERTEX
  5
2F2D
  8
0
 10
60.636412491275649
 20
66.357678479168953
 30
0.0
  0
VERTEX
  5
2F2E
  8
0
 10
60.45666883168181
 20
66.591818392184109
 30
0.0
  0
VERTEX
  5
2F2F
  8
0
 10
60.261549925684022
 20
66.789615550384966
 30
0.0
  0
VERTEX
  5
2F30
  8
0
 10
60.053735633618707
 20
66.950013451479947
 30
0.0
  0
VERTEX
  5
2F31
  8
0
 10
59.803986778417283
 20
67.087246402434147
 30
0.0
  0
VERTEX
  5
2F32
  8
0
 10
59.47124822420858
 20
67.200312343430653
 30
0.0
  0
VERTEX
  5
2F33
  8
0
 10
59.310250399058191
 20
67.25
 30
0.0
  0
VERTEX
  5
2F34
  8
0
 10
59.310250399058191
 20
67.25
 30
0.0
  0
SEQEND
  5
2F35
  8
0
  0
POLYLINE
  5
2AA1
  8
0
 66
     1
 10
0.0
 20
0.0
 30
0.0
  0
VERTEX
  5
2F36
  8
0
 10
59.310250399058191
 20
67.25
 30
0.0
  0
VERTEX
  5
2F37
  8
0
 10
59.148395355269543
 20
67.21731042568922
 30
0.0
  0
VERTEX
  5
2F38
  8
0
 10
58.933294258947797
 20
67.175094631237528
 30
0.0
  0
VERTEX
  5
2F39
  8
0
 10
58.597062765277087
 20
67.065423648400838
 30
0.0
  0
VERTEX
  5
2F3A
  8
0
 10
58.313156795553198
 20
66.931900202043153
 30
0.0
  0
VERTEX
  5
2F3B
  8
0
 10
58.030723657664957
 20
66.760909362454854
 30
0.0
  0
VERTEX
  5
2F3C
  8
0
 10
57.753749678806862
 20
66.553184912415531
 30
0.0
  0
VERTEX
  5
2F3D
  8
0
 10
57.486221186173509
 20
66.309460634704351
 30
0.0
  0
VERTEX
  5
2F3E
  8
0
 10
57.234315287699133
 20
66.032790674358353
 30
0.0
  0
VERTEX
  5
2F3F
  8
0
 10
56.998349746459439
 20
65.718996693793144
 30
0.0
  0
VERTEX
  5
2F40
  8
0
 10
56.78531023775281
 20
65.36975223552605
 30
0.0
  0
VERTEX
  5
2F41
  8
0
 10
56.64141360831627
 20
65.077675306529159
 30
0.0
  0
VERTEX
  5
2F42
  8
0
 10
56.517783172257403
 20
64.764927969775897
 30
0.0
  0
VERTEX
  5
2F43
  8
0
 10
56.41897416273008
 20
64.435342188869527
 30
0.0
  0
VERTEX
  5
2F44
  8
0
 10
56.355365724332437
 20
64.130834004976521
 30
0.0
  0
VERTEX
  5
2F45
  8
0
 10
56.315896094559491
 20
63.817051834092069
 30
0.0
  0
VERTEX
  5
2F46
  8
0
 10
56.30234422804898
 20
63.5
 30
0.0
  0
SEQEND
  5
2F47
  8
0
  0
POLYLINE
  5
2AA2
  8
0
 66
     1
 10
0.0
 20
0.0
 30
0.0
  0
VERTEX
  5
2F48
  8
0
 10
56.30234422804898
 20
63.5
 30
0.0
  0
VERTEX
  5
2F49
  8
0
 10
56.317808644161801
 20
63.161747855275728
 30
0.0
  0
VERTEX
  5
2F4A
  8
0
 10
56.362686698803309
 20
62.827450428643658
 30
0.0
  0
VERTEX
  5
2F4B
  8
0
 10
56.434705601427872
 20
62.504289790162659
 30
0.0
  0
VERTEX
  5
2F4C
  8
0
 10
56.53106124521684
 20
62.197341017872702
 30
0.0
  0
VERTEX
  5
2F4D
  8
0
 10
56.648856399736871
 20
61.905579554378001
 30
0.0
  0
VERTEX
  5
2F4E
  8
0
 10
56.78432857192837
 20
61.632054099445043
 30
0.0
  0
VERTEX
  5
2F4F
  8
0
 10
57.004287300012322
 20
61.272297888356093
 30
0.0
  0
VERTEX
  5
2F50
  8
0
 10
57.248489791065992
 20
60.950220065865892
 30
0.0
  0
VERTEX
  5
2F51
  8
0
 10
57.509332922369993
 20
60.667617232293082
 30
0.0
  0
VERTEX
  5
2F52
  8
0
 10
57.770557527767551
 20
60.432995500448321
 30
0.0
  0
VERTEX
  5
2F53
  8
0
 10
58.040500294873418
 20
60.232509997269183
 30
0.0
  0
VERTEX
  5
2F54
  8
0
 10
58.315503180447422
 20
60.06684043633669
 30
0.0
  0
VERTEX
  5
2F55
  8
0
 10
58.591908141249398
 20
59.936666531231879
 30
0.0
  0
VERTEX
  5
2F56
  8
0
 10
58.870657379337381
 20
59.841378379604812
 30
0.0
  0
VERTEX
  5
2F57
  8
0
 10
59.148395355269543
 20
59.78268957431078
 30
0.0
  0
VERTEX
  5
2F58
  8
0
 10
59.310250399058191
 20
59.75
 30
0.0
  0
VERTEX
  5
2F59
  8
0
 10
59.310250399058191
 20
59.75
 30
0.0
  0
SEQEND
  5
2F5A
  8
0
  0
LINE
  5
2AE6
  8
0
 10
63.499999999999972
 20
81.499999999999957
 30
0.0
 11
63.5
 21
50.0
 31
0.0
  0
LINE
  5
2AE9
  8
0
 10
60.600000000000001
 20
82.5
 30
0.0
 11
60.600000000000001
 21
81.5
 31
0.0
  0
LINE
  5
2AEA
  8
0
 10
54.0
 20
82.5
 30
0.0
 11
54.0
 21
81.5
 31
0.0
  0
LINE
  5
2DF4
  8
2
 10
126.0
 20
78.999999999999915
 30
0.0
 11
139.0
 21
78.999999999999943
 31
0.0
  0
LINE
  5
2DF5
  8
2
 10
139.0
 20
81.5
 30
0.0
 11
139.0
 21
78.999999999999943
 31
0.0
  0
LINE
  5
2DF6
  8
2
 10
126.0
 20
81.5
 30
0.0
 11
126.0
 21
78.999999999999915
 31
0.0
  0
LINE
  5
2DF7
  8
2
 10
56.0
 20
78.999999999999716
 30
0.0
 11
58.600000000000001
 21
78.999999999999716
 31
0.0
  0
ARC
  5
2DF8
  8
2
 10
56.0
 20
80.999999999999716
 30
0.0
 40
2.0
 50
180.0
 51
270.0
  0
LINE
  5
2DF9
  8
2
 10
60.600000000000001
 20
81.5
 30
0.0
 11
60.600000000000001
 21
80.999999999999716
 31
0.0
  0
ARC
  5
2DFA
  8
2
 10
58.600000000000001
 20
80.999999999999716
 30
0.0
 40
2.0
 50
270.0
 51
0.0
  0
LINE
  5
2DFB
  8
2
 10
54.0
 20
81.5
 30
0.0
 11
54.0
 21
80.999999999999716
 31
0.0
  0
ENDSEC
  0
EOF
