  0
SECTION
  2
HEADER
  9
$ACADVER
  1
AC1009
  9
$INSBASE
 10
0.0
 20
0.0
 30
0.0
  9
$EXTMIN
 10
0.0
 20
-2.960436562073669
 30
0.0
  9
$EXTMAX
 10
278.22409399999998
 20
207.15842799999999
 30
0.0
  9
$LIMMIN
 10
0.0
 20
0.0
  9
$LIMMAX
 10
375.0
 20
270.0
  9
$ORTHOMODE
 70
     1
  9
$REGENMODE
 70
     1
  9
$FILLMODE
 70
     1
  9
$QTEXTMODE
 70
     0
  9
$MIRRTEXT
 70
     0
  9
$DRAGMODE
 70
     2
  9
$LTSCALE
 40
10.0
  9
$OSMODE
 70
    37
  9
$ATTMODE
 70
     1
  9
$TEXTSIZE
 40
1.0
  9
$TRACEWID
 40
0.05
  9
$TEXTSTYLE
  7
K
  9
$CLAYER
  8
0
  9
$CELTYPE
  6
BYLAYER
  9
$CECOLOR
 62
   256
  9
$DIMSCALE
 40
1.0
  9
$DIMASZ
 40
3.0
  9
$DIMEXO
 40
1.0
  9
$DIMDLI
 40
6.0
  9
$DIMRND
 40
0.0
  9
$DIMDLE
 40
0.0
  9
$DIMEXE
 40
1.0
  9
$DIMTP
 40
495.0
  9
$DIMTM
 40
0.0
  9
$DIMTXT
 40
3.0
  9
$DIMCEN
 40
0.0
  9
$DIMTSZ
 40
0.0
  9
$DIMTOL
 70
     0
  9
$DIMLIM
 70
     0
  9
$DIMTIH
 70
     0
  9
$DIMTOH
 70
     0
  9
$DIMSE1
 70
     0
  9
$DIMSE2
 70
     0
  9
$DIMTAD
 70
     1
  9
$DIMZIN
 70
     0
  9
$DIMBLK
  1

  9
$DIMASO
 70
     0
  9
$DIMSHO
 70
     0
  9
$DIMPOST
  1

  9
$DIMAPOST
  1

  9
$DIMALT
 70
     0
  9
$DIMALTD
 70
     2
  9
$DIMALTF
 40
25.399999999999999
  9
$DIMLFAC
 40
1.0
  9
$DIMTOFL
 70
     1
  9
$DIMTVP
 40
0.0
  9
$DIMTIX
 70
     1
  9
$DIMSOXD
 70
     0
  9
$DIMSAH
 70
     0
  9
$DIMBLK1
  1

  9
$DIMBLK2
  1

  9
$DIMSTYLE
  2
STANDARD
  9
$DIMCLRD
 70
     0
  9
$DIMCLRE
 70
     0
  9
$DIMCLRT
 70
     0
  9
$DIMTFAC
 40
1.0
  9
$DIMGAP
 40
0.09
  9
$LUNITS
 70
     2
  9
$LUPREC
 70
     2
  9
$SKETCHINC
 40
0.1
  9
$FILLETRAD
 40
0.0
  9
$AUNITS
 70
     0
  9
$AUPREC
 70
     2
  9
$MENU
  1
E:\r13\win\SUPPORT\ACAD
  9
$ELEVATION
 40
0.0
  9
$PELEVATION
 40
0.0
  9
$THICKNESS
 40
0.0
  9
$LIMCHECK
 70
     0
  9
$BLIPMODE
 70
     0
  9
$CHAMFERA
 40
0.0
  9
$CHAMFERB
 40
0.0
  9
$SKPOLY
 70
     0
  9
$TDCREATE
 40
2449840.3443518518
  9
$TDUPDATE
 40
2457711.398424387
  9
$TDINDWG
 40
0.0169666551
  9
$TDUSRTIMER
 40
0.0169666551
  9
$USRTIMER
 70
     1
  9
$ANGBASE
 50
0.0
  9
$ANGDIR
 70
     0
  9
$PDMODE
 70
     0
  9
$PDSIZE
 40
0.0
  9
$PLINEWID
 40
0.0
  9
$COORDS
 70
     1
  9
$SPLFRAME
 70
     0
  9
$SPLINETYPE
 70
     6
  9
$SPLINESEGS
 70
     8
  9
$ATTDIA
 70
     0
  9
$ATTREQ
 70
     1
  9
$HANDLING
 70
     1
  9
$HANDSEED
  5
A38
  9
$SURFTAB1
 70
     6
  9
$SURFTAB2
 70
     6
  9
$SURFTYPE
 70
     6
  9
$SURFU
 70
     6
  9
$SURFV
 70
     6
  9
$UCSNAME
  2

  9
$UCSORG
 10
0.0
 20
0.0
 30
0.0
  9
$UCSXDIR
 10
1.0
 20
0.0
 30
0.0
  9
$UCSYDIR
 10
0.0
 20
1.0
 30
0.0
  9
$PUCSNAME
  2

  9
$PUCSORG
 10
0.0
 20
0.0
 30
0.0
  9
$PUCSXDIR
 10
1.0
 20
0.0
 30
0.0
  9
$PUCSYDIR
 10
0.0
 20
1.0
 30
0.0
  9
$USERI1
 70
     3
  9
$USERI2
 70
     1
  9
$USERI3
 70
     0
  9
$USERI4
 70
     1
  9
$USERI5
 70
     0
  9
$USERR1
 40
1.0
  9
$USERR2
 40
3.0
  9
$USERR3
 40
3.0
  9
$USERR4
 40
3.0
  9
$USERR5
 40
10.0
  9
$WORLDVIEW
 70
     1
  9
$SHADEDGE
 70
     3
  9
$SHADEDIF
 70
    70
  9
$TILEMODE
 70
     1
  9
$MAXACTVP
 70
    16
  9
$PLIMCHECK
 70
     0
  9
$PEXTMIN
 10
1.0000000000000000E+020
 20
1.0000000000000000E+020
 30
1.0000000000000000E+020
  9
$PEXTMAX
 10
-1.0000000000000000E+020
 20
-1.0000000000000000E+020
 30
-1.0000000000000000E+020
  9
$PLIMMIN
 10
0.0
 20
0.0
  9
$PLIMMAX
 10
12.0
 20
9.0
  9
$UNITMODE
 70
     0
  9
$VISRETAIN
 70
     0
  9
$PLINEGEN
 70
     0
  9
$PSLTSCALE
 70
     0
  0
ENDSEC
  0
SECTION
  2
TABLES
  0
TABLE
  2
VPORT
 70
     1
  0
VPORT
  2
*ACTIVE
 70
     0
 10
0.0
 20
0.0
 11
1.0
 21
1.0
 12
199.98535774395449
 22
102.1050913184954
 13
0.0
 23
0.0
 14
1.0
 24
1.0
 15
10.0
 25
10.0
 16
0.0
 26
0.0
 36
1.0
 17
0.0
 27
0.0
 37
0.0
 40
221.20935449791941
 41
1.816239316239316
 42
50.0
 43
0.0
 44
0.0
 50
0.0
 51
0.0
 71
     0
 72
   100
 73
     1
 74
     0
 75
     0
 76
     0
 77
     0
 78
     1
  0
ENDTAB
  0
TABLE
  2
LTYPE
 70
     3
  0
LTYPE
  2
CONTINUOUS
 70
     0
  3
Solid Line
 72
    65
 73
     0
 40
0.0
  0
LTYPE
  2
CENTER
 70
     0
  3
____ _ ____ _ ____ _ ____ _ ____ _ ____ _ ____
 72
    65
 73
     4
 40
2.0
 49
1.25
 49
-0.25
 49
0.25
 49
-0.25
  0
LTYPE
  2
PHANTOM2
 70
     0
  3
Phantom (.5x) ___ _ _ ___ _ _ ___ _ _ ___ _ _
 72
    65
 73
     6
 40
1.25
 49
0.625
 49
-0.125
 49
0.125
 49
-0.125
 49
0.125
 49
-0.125
  0
ENDTAB
  0
TABLE
  2
LAYER
 70
     3
  0
LAYER
  2
0
 70
     0
 62
     7
  6
CONTINUOUS
  0
LAYER
  2
1
 70
     0
 62
     1
  6
CENTER
  0
LAYER
  2
5
 70
     0
 62
     3
  6
PHANTOM2
  0
ENDTAB
  0
TABLE
  2
STYLE
 70
     3
  0
STYLE
  2
STANDARD
 70
     0
 40
0.0
 41
1.0
 50
0.0
 71
     0
 42
0.2
  3
TXT
  4
BIGFONT
  0
STYLE
  2
K
 70
     0
 40
0.0
 41
1.0
 50
0.0
 71
     0
 42
1.0
  3
TXT
  4
BIGFONT
  0
STYLE
  2
STANDARD1
 70
     0
 40
0.0
 41
1.0
 50
0.0
 71
     0
 42
3.0
  3
txt
  4

  0
ENDTAB
  0
TABLE
  2
VIEW
 70
     0
  0
ENDTAB
  0
TABLE
  2
UCS
 70
     0
  0
ENDTAB
  0
TABLE
  2
APPID
 70
     4
  0
APPID
  2
ACAD
 70
     0
  0
APPID
  2
ACAD_MLEADERVER
 70
     0
  0
APPID
  2
ACAD_NAV_VCDISPLAY
 70
     0
  0
APPID
  2
ACAD_EXEMPT_FROM_CAD_STANDARDS
 70
     0
  0
ENDTAB
  0
TABLE
  2
DIMSTYLE
 70
     1
  0
DIMSTYLE
  2
STANDARD
 70
     0
  3

  4

  5

  6

  7

 40
1.0
 41
0.18
 42
0.0625
 43
0.38
 44
0.18
 45
0.0
 46
0.0
 47
0.0
 48
0.0
140
0.18
141
0.09
142
0.0
143
25.399999999999999
144
1.0
145
0.0
146
1.0
147
0.09
 71
     0
 72
     0
 73
     1
 74
     1
 75
     0
 76
     0
 77
     0
 78
     0
170
     0
171
     2
172
     0
173
     0
174
     0
175
     0
176
     0
177
     0
178
     0
  0
ENDTAB
  0
ENDSEC
  0
SECTION
  2
BLOCKS
  0
BLOCK
  8
0
  2
$MODEL_SPACE
 70
     0
 10
0.0
 20
0.0
 30
0.0
  3
$MODEL_SPACE
  1

  0
ENDBLK
  5
739
  8
0
  0
BLOCK
 67
     1
  8
0
  2
$PAPER_SPACE
 70
     0
 10
0.0
 20
0.0
 30
0.0
  3
$PAPER_SPACE
  1

  0
ENDBLK
  5
737
 67
     1
  8
0
  0
ENDSEC
  0
SECTION
  2
ENTITIES
  0
LINE
  5
3B
  8
5
 10
126.5
 20
97.658344999999997
 30
0.0
 11
123.5
 21
97.658344999999997
 31
0.0
  0
LINE
  5
3C
  8
5
 10
123.0
 20
97.158344999999997
 30
0.0
 11
123.0
 21
68.158344999999997
 31
0.0
  0
LINE
  5
3D
  8
5
 10
123.5
 20
67.658344999999997
 30
0.0
 11
127.3
 21
67.658344999999997
 31
0.0
  0
LINE
  5
3E
  8
5
 10
170.5
 20
67.658344999999997
 30
0.0
 11
166.19999999999999
 21
67.658344999999997
 31
0.0
  0
LINE
  5
3F
  8
5
 10
171.0
 20
97.158344999999997
 30
0.0
 11
171.0
 21
68.158344999999997
 31
0.0
  0
LINE
  5
40
  8
5
 10
167.5
 20
97.658344999999997
 30
0.0
 11
170.5
 21
97.658344999999997
 31
0.0
  0
LINE
  5
41
  8
1
 10
147.0
 20
61.65834499999999
 30
0.0
 11
147.0
 21
111.658345
 31
0.0
  0
LINE
  5
42
  8
0
 10
156.69999999999999
 20
94.958344999999994
 30
0.0
 11
137.30000000000001
 21
94.958344999999994
 31
0.0
  0
LINE
  5
43
  8
0
 10
157.0
 20
102.658345
 30
0.0
 11
153.76321799999999
 21
94.958344999999994
 31
0.0
  0
LINE
  5
44
  8
0
 10
137.0
 20
102.658345
 30
0.0
 11
140.23678200000001
 21
94.958344999999994
 31
0.0
  0
LINE
  5
45
  8
0
 10
136.80000000000001
 20
90.658344999999997
 30
0.0
 11
133.0
 21
90.658344999999997
 31
0.0
  0
LINE
  5
46
  8
0
 10
136.80000000000001
 20
85.258345000000006
 30
0.0
 11
133.0
 21
85.258345000000006
 31
0.0
  0
LINE
  5
47
  8
0
 10
136.80000000000001
 20
91.658344999999997
 30
0.0
 11
133.0
 21
91.658344999999997
 31
0.0
  0
LINE
  5
48
  8
0
 10
136.80000000000001
 20
84.258344999999977
 30
0.0
 11
133.0
 21
84.258344999999977
 31
0.0
  0
LINE
  5
49
  8
0
 10
137.0
 20
81.558344999999989
 30
0.0
 11
157.0
 21
81.558344999999989
 31
0.0
  0
LINE
  5
4A
  8
0
 10
157.0
 20
93.958344999999994
 30
0.0
 11
137.0
 21
93.958344999999994
 31
0.0
  0
LINE
  5
4B
  8
0
 10
136.80000000000001
 20
94.158344999999997
 30
0.0
 11
136.80000000000001
 21
94.458344999999994
 31
0.0
  0
ARC
  5
4C
  8
0
 10
137.0
 20
94.158344999999997
 30
0.0
 40
0.2
 50
180.0
 51
270.0
  0
ARC
  5
4D
  8
0
 10
137.0
 20
81.358344999999986
 30
0.0
 40
0.2
 50
90.0
 51
180.0
  0
ARC
  5
4E
  8
0
 10
137.0
 20
81.058344999999974
 30
0.0
 40
0.2
 50
90.0
 51
180.0
  0
LINE
  5
4F
  8
0
 10
137.0
 20
81.258344999999991
 30
0.0
 11
157.0
 21
81.258344999999991
 31
0.0
  0
LINE
  5
50
  8
0
 10
157.0
 20
94.158344999999997
 30
0.0
 11
137.0
 21
94.158344999999997
 31
0.0
  0
ARC
  5
51
  8
0
 10
137.0
 20
94.358345
 30
0.0
 40
0.2
 50
180.0
 51
270.0
  0
LINE
  5
52
  8
0
 10
127.0
 20
72.658344999999997
 30
0.0
 11
137.5
 21
72.658344999999997
 31
0.0
  0
LINE
  5
53
  8
0
 10
167.0
 20
102.658345
 30
0.0
 11
157.0
 21
102.658345
 31
0.0
  0
ARC
  5
54
  8
0
 10
137.30000000000001
 20
76.658344999999997
 30
0.0
 40
0.5
 50
180.0
 51
270.0
  0
LINE
  5
55
  8
0
 10
136.80000000000001
 20
76.658344999999997
 30
0.0
 11
136.80000000000001
 21
81.461272999999991
 31
0.0
  0
ARC
  5
56
  8
0
 10
156.69999999999999
 20
76.658344999999997
 30
0.0
 40
0.5
 50
270.0
 51
0.0
  0
LINE
  5
57
  8
0
 10
157.19999999999999
 20
76.658344999999997
 30
0.0
 11
157.19999999999999
 21
81.461272999999991
 31
0.0
  0
ARC
  5
58
  8
0
 10
137.30000000000001
 20
94.458344999999994
 30
0.0
 40
0.5
 50
90.0
 51
180.0
  0
LINE
  5
5D
  8
0
 10
242.72409400000001
 20
107.45834499999999
 30
0.0
 11
242.72409400000001
 21
66.658344999999997
 31
0.0
  0
LINE
  5
5E
  8
0
 10
272.72409399999998
 20
102.658345
 30
0.0
 11
242.72409400000001
 21
102.658345
 31
0.0
  0
LINE
  5
5F
  8
0
 10
272.72409399999998
 20
66.658344999999997
 30
0.0
 11
272.72409399999998
 21
107.45834499999999
 31
0.0
  0
LINE
  5
60
  8
0
 10
242.72409400000001
 20
72.658344999999997
 30
0.0
 11
272.72409399999998
 21
72.658344999999997
 31
0.0
  0
LINE
  5
304
  8
0
 10
167.5
 20
73.158344999999997
 30
0.0
 11
167.5
 21
102.158345
 31
0.0
  0
LINE
  5
305
  8
0
 10
128.07963899999999
 20
107.658345
 30
0.0
 11
165.92036100000001
 21
107.658345
 31
0.0
  0
LINE
  5
306
  8
0
 10
137.0
 20
102.658345
 30
0.0
 11
127.0
 21
102.658345
 31
0.0
  0
LINE
  5
307
  8
0
 10
126.5
 20
102.158345
 30
0.0
 11
126.5
 21
73.158344999999997
 31
0.0
  0
ARC
  5
308
  8
0
 10
127.0
 20
73.158344999999997
 30
0.0
 40
0.5
 50
180.0
 51
270.0
  0
ARC
  5
309
  8
0
 10
127.0
 20
102.158345
 30
0.0
 40
0.5
 50
90.0
 51
180.0
  0
ARC
  5
30A
  8
0
 10
167.0
 20
102.158345
 30
0.0
 40
0.5
 50
0.0
 51
90.0
  0
ARC
  5
30B
  8
0
 10
167.0
 20
73.158344999999997
 30
0.0
 40
0.5
 50
270.0
 51
0.0
  0
LINE
  5
30C
  8
0
 10
135.440573
 20
107.658345
 30
0.0
 11
140.77916200000001
 21
94.958344999999994
 31
0.0
  0
LINE
  5
30D
  8
0
 10
158.559427
 20
107.658345
 30
0.0
 11
153.22083799999999
 21
94.958344999999994
 31
0.0
  0
LINE
  5
30E
  8
0
 10
165.92036100000001
 20
107.658345
 30
0.0
 11
163.818555
 21
102.658345
 31
0.0
  0
LINE
  5
30F
  8
0
 10
128.07963899999999
 20
107.658345
 30
0.0
 11
130.181445
 21
102.658345
 31
0.0
  0
ARC
  5
310
  8
5
 10
123.5
 20
97.158344999999997
 30
0.0
 40
0.5
 50
90.0
 51
180.0
  0
ARC
  5
311
  8
5
 10
123.5
 20
68.158344999999997
 30
0.0
 40
0.5
 50
180.0
 51
270.0
  0
ARC
  5
312
  8
5
 10
170.5
 20
68.158344999999997
 30
0.0
 40
0.5
 50
270.0
 51
0.0
  0
ARC
  5
313
  8
5
 10
170.5
 20
97.158344999999997
 30
0.0
 40
0.5
 50
0.0
 51
90.0
  0
LINE
  5
314
  8
0
 10
237.22409400000001
 20
85.358344999999986
 30
0.0
 11
237.22409400000001
 21
90.558344999999989
 31
0.0
  0
LINE
  5
315
  8
0
 10
242.22409400000001
 20
94.358345
 30
0.0
 11
242.22409400000001
 21
77.314228999999997
 31
0.0
  0
LINE
  5
316
  8
0
 10
241.72409400000001
 20
78.558827000000008
 30
0.0
 11
241.72409400000001
 21
77.498979000000006
 31
0.0
  0
ARC
  5
317
  8
0
 10
241.22409400000001
 20
78.773824000000005
 30
0.0
 40
1.0
 50
0.0
 51
46.534835000000001
  0
ARC
  5
318
  8
0
 10
240.72409400000001
 20
78.558827000000008
 30
0.0
 40
1.0
 50
0.0
 51
46.534835000000001
  0
LINE
  5
319
  8
0
 10
242.014353
 20
76.358345
 30
0.0
 11
242.22409400000001
 21
76.358345
 31
0.0
  0
ARC
  5
31A
  8
0
 10
242.22409400000001
 20
76.978354999999993
 30
0.0
 40
0.12001
 50
159.06525600000001
 51
20.934743999999998
  0
LINE
  5
31B
  8
0
 10
242.22409400000001
 20
77.314228999999997
 30
0.0
 11
242.11200700000001
 21
77.021235000000004
 31
0.0
  0
LINE
  5
31C
  8
0
 10
242.22409400000001
 20
77.314228999999997
 30
0.0
 11
242.33618200000001
 21
77.021235000000004
 31
0.0
  0
LINE
  5
31D
  8
0
 10
241.69108800000001
 20
77.320327000000006
 30
0.0
 11
241.52930699999999
 21
76.897435000000002
 31
0.0
  0
ARC
  5
31E
  8
0
 10
242.014353
 20
76.858345
 30
0.0
 40
0.5
 50
186.19452699999999
 51
270.0
  0
ARC
  5
31F
  8
0
 10
242.22409400000001
 20
76.858345
 30
0.0
 40
0.5
 50
270.0
 51
0.0
  0
ARC
  5
320
  8
0
 10
241.716105
 20
76.825974000000002
 30
0.0
 40
0.2
 50
159.06525600000001
 51
186.19452699999999
  0
ARC
  5
321
  8
0
 10
241.22409400000001
 20
77.498979000000006
 30
0.0
 40
0.5
 50
339.06525599999998
 51
0.0
  0
LINE
  5
322
  8
0
 10
239.40187599999999
 20
81.358344999999986
 30
0.0
 11
239.745833
 21
81.721241000000006
 31
0.0
  0
LINE
  5
323
  8
0
 10
238.22409400000001
 20
84.358345
 30
0.0
 11
239.02409399999999
 21
84.358345
 31
0.0
  0
LINE
  5
324
  8
0
 10
238.22409400000001
 20
91.558344999999989
 30
0.0
 11
239.02409399999999
 21
91.558344999999989
 31
0.0
  0
LINE
  5
325
  8
0
 10
239.22409400000001
 20
82.858344999999986
 30
0.0
 11
239.22409400000001
 21
93.058344999999989
 31
0.0
  0
ARC
  5
326
  8
0
 10
240.72409400000001
 20
82.858344999999986
 30
0.0
 40
1.5
 50
180.0
 51
0.0
  0
LINE
  5
327
  8
0
 10
241.91200799999999
 20
79.499616000000003
 30
0.0
 11
239.745833
 21
81.721241000000006
 31
0.0
  0
LINE
  5
328
  8
0
 10
241.41200799999999
 20
79.284618999999992
 30
0.0
 11
239.40187599999999
 21
81.358344999999986
 31
0.0
  0
ARC
  5
329
  8
0
 10
240.72409400000001
 20
93.058344999999989
 30
0.0
 40
1.5
 50
0.0
 51
180.0
  0
LINE
  5
32A
  8
0
 10
240.39701600000001
 20
95.358344999999986
 30
0.0
 11
242.22409400000001
 21
95.358344999999986
 31
0.0
  0
LINE
  5
32B
  8
0
 10
240.66247100000001
 20
94.858345000000014
 30
0.0
 11
241.72409400000001
 21
94.858345000000014
 31
0.0
  0
LINE
  5
32C
  8
0
 10
239.45523600000001
 20
93.858344999999986
 30
0.0
 11
239.83413100000001
 21
94.418571
 31
0.0
  0
LINE
  5
32D
  8
0
 10
238.986884
 20
94.058344999999989
 30
0.0
 11
239.56867600000001
 21
94.918571
 31
0.0
  0
LINE
  5
32E
  8
0
 10
239.45523600000001
 20
93.858344999999986
 30
0.0
 11
238.986884
 21
94.058344999999989
 31
0.0
  0
ARC
  5
32F
  8
0
 10
241.72409400000001
 20
94.358345
 30
0.0
 40
0.5
 50
360.0
 51
90.0
  0
ARC
  5
330
  8
0
 10
242.22409400000001
 20
94.858345000000014
 30
0.0
 40
0.5
 50
0.0
 51
90.0
  0
ARC
  5
331
  8
0
 10
240.39701600000001
 20
94.358345
 30
0.0
 40
1.0
 50
90.0
 51
145.92854700000001
  0
ARC
  5
332
  8
0
 10
240.66247100000001
 20
93.858344999999986
 30
0.0
 40
1.0
 50
90.0
 51
145.92854700000001
  0
LINE
  5
333
  8
0
 10
238.22409400000001
 20
84.358345
 30
0.0
 11
238.22409400000001
 21
91.558344999999989
 31
0.0
  0
LINE
  5
334
  8
0
 10
237.22409400000001
 20
90.558344999999989
 30
0.0
 11
238.22409400000001
 21
91.558344999999989
 31
0.0
  0
LINE
  5
335
  8
0
 10
237.22409400000001
 20
85.358344999999986
 30
0.0
 11
238.22409400000001
 21
84.358345
 31
0.0
  0
ARC
  5
336
  8
0
 10
240.72409400000001
 20
92.92089
 30
0.0
 40
1.5
 50
0.0
 51
180.0
  0
ARC
  5
337
  8
0
 10
240.72409400000001
 20
92.641069999999999
 30
0.0
 40
1.5
 50
0.0
 51
180.0
  0
ARC
  5
338
  8
0
 10
240.72409400000001
 20
92.223795999999993
 30
0.0
 40
1.5
 50
0.0
 51
180.0
  0
ARC
  5
339
  8
0
 10
240.72409400000001
 20
91.669066000000001
 30
0.0
 40
1.5
 50
0.0
 51
180.0
  0
ARC
  5
33A
  8
0
 10
240.72409400000001
 20
90.878698999999983
 30
0.0
 40
1.5
 50
0.0
 51
180.0
  0
ARC
  5
33B
  8
0
 10
240.72409400000001
 20
89.950877000000006
 30
0.0
 40
1.5
 50
0.0
 51
180.0
  0
ARC
  5
33C
  8
0
 10
240.72409400000001
 20
88.929781000000006
 30
0.0
 40
1.5
 50
0.0
 51
180.0
  0
ARC
  5
33D
  8
0
 10
240.72409400000001
 20
92.734343999999993
 30
0.0
 40
1.5
 50
0.0
 51
180.0
  0
ARC
  5
33E
  8
0
 10
240.72409400000001
 20
92.410341999999986
 30
0.0
 40
1.5
 50
0.0
 51
180.0
  0
ARC
  5
33F
  8
0
 10
240.72409400000001
 20
92.086341000000004
 30
0.0
 40
1.5
 50
0.0
 51
180.0
  0
ARC
  5
340
  8
0
 10
240.72409400000001
 20
91.345065000000005
 30
0.0
 40
1.5
 50
0.0
 51
180.0
  0
ARC
  5
341
  8
0
 10
240.72409400000001
 20
90.417242000000002
 30
0.0
 40
1.5
 50
0.0
 51
180.0
  0
ARC
  5
342
  8
0
 10
240.72409400000001
 20
89.337237999999999
 30
0.0
 40
1.5
 50
0.0
 51
180.0
  0
LINE
  5
343
  8
0
 10
239.43909400000001
 20
88.173344999999983
 30
0.0
 11
242.009094
 21
88.173344999999983
 31
0.0
  0
LINE
  5
344
  8
0
 10
239.43909400000001
 20
87.743345000000005
 30
0.0
 11
242.009094
 21
87.743345000000005
 31
0.0
  0
ARC
  5
345
  8
0
 10
239.43909400000001
 20
87.958344999999994
 30
0.0
 40
0.215
 50
90.0
 51
270.0
  0
ARC
  5
346
  8
0
 10
242.009094
 20
87.958344999999994
 30
0.0
 40
0.215
 50
270.0
 51
90.0
  0
ARC
  5
347
  8
0
 10
240.72409400000001
 20
89.407533999999998
 30
0.0
 40
2.9258310000000001
 50
241.581411
 51
298.418589
  0
ARC
  5
348
  8
0
 10
239.43909400000001
 20
87.02051800000001
 30
0.0
 40
0.215
 50
61.712347999999999
 51
243.389072
  0
ARC
  5
349
  8
0
 10
242.009094
 20
87.02051800000001
 30
0.0
 40
0.215
 50
296.610928
 51
118.28765199999999
  0
ARC
  5
34A
  8
0
 10
240.72409400000001
 20
89.408253999999985
 30
0.0
 40
2.4965509999999989
 50
241.71234799999999
 51
298.28765199999998
  0
ARC
  5
34B
  8
0
 10
240.72409400000001
 20
86.508435999999989
 30
0.0
 40
2.4965509999999989
 50
61.712347999999999
 51
118.28765199999999
  0
ARC
  5
34C
  8
0
 10
242.009094
 20
88.896171999999993
 30
0.0
 40
0.215
 50
241.71234799999999
 51
63.389071999999999
  0
ARC
  5
34D
  8
0
 10
239.43909400000001
 20
88.896171999999993
 30
0.0
 40
0.215
 50
116.610928
 51
298.28765199999998
  0
ARC
  5
34E
  8
0
 10
240.72409400000001
 20
86.509156000000004
 30
0.0
 40
2.9258310000000001
 50
61.581410999999989
 51
118.418589
  0
ARC
  5
34F
  8
0
 10
240.72409400000001
 20
86.579452999999987
 30
0.0
 40
1.5
 50
180.0
 51
0.0
  0
ARC
  5
350
  8
0
 10
240.72409400000001
 20
85.499448000000001
 30
0.0
 40
1.5
 50
180.0
 51
0.0
  0
ARC
  5
351
  8
0
 10
240.72409400000001
 20
84.571624999999997
 30
0.0
 40
1.5
 50
180.0
 51
0.0
  0
ARC
  5
352
  8
0
 10
240.72409400000001
 20
83.830348999999998
 30
0.0
 40
1.5
 50
180.0
 51
0.0
  0
ARC
  5
353
  8
0
 10
240.72409400000001
 20
83.506347999999988
 30
0.0
 40
1.5
 50
180.0
 51
0.0
  0
ARC
  5
354
  8
0
 10
240.72409400000001
 20
83.182345999999995
 30
0.0
 40
1.5
 50
180.0
 51
0.0
  0
ARC
  5
355
  8
0
 10
240.72409400000001
 20
86.986908999999997
 30
0.0
 40
1.5
 50
180.0
 51
0.0
  0
ARC
  5
356
  8
0
 10
240.72409400000001
 20
85.965812999999997
 30
0.0
 40
1.5
 50
180.0
 51
0.0
  0
ARC
  5
357
  8
0
 10
240.72409400000001
 20
85.037991000000005
 30
0.0
 40
1.5
 50
180.0
 51
0.0
  0
ARC
  5
358
  8
0
 10
240.72409400000001
 20
84.247624000000002
 30
0.0
 40
1.5
 50
180.0
 51
0.0
  0
ARC
  5
359
  8
0
 10
240.72409400000001
 20
83.692893999999995
 30
0.0
 40
1.5
 50
180.0
 51
0.0
  0
ARC
  5
35A
  8
0
 10
240.72409400000001
 20
83.275619999999975
 30
0.0
 40
1.5
 50
180.0
 51
0.0
  0
ARC
  5
35B
  8
0
 10
240.72409400000001
 20
82.995800000000003
 30
0.0
 40
1.5
 50
180.0
 51
0.0
  0
LINE
  5
35C
  8
1
 10
257.72409399999998
 20
61.65834499999999
 30
0.0
 11
257.72409399999998
 21
111.658345
 31
0.0
  0
LINE
  5
35D
  8
0
 10
242.924094
 20
107.658345
 30
0.0
 11
272.52409399999999
 21
107.658345
 31
0.0
  0
LINE
  5
35E
  8
0
 10
259.72409399999998
 20
102.658345
 30
0.0
 11
259.72409399999998
 21
107.658345
 31
0.0
  0
LINE
  5
35F
  8
0
 10
255.72409400000001
 20
102.658345
 30
0.0
 11
255.72409400000001
 21
107.658345
 31
0.0
  0
LINE
  5
360
  8
0
 10
239.02409399999999
 20
91.558344999999989
 30
0.0
 11
239.22409400000001
 21
91.358344999999986
 31
0.0
  0
LINE
  5
361
  8
0
 10
239.02409399999999
 20
84.358345
 30
0.0
 11
239.22409400000001
 21
84.558344999999989
 31
0.0
  0
LINE
  5
362
  8
0
 10
242.924094
 20
107.658345
 30
0.0
 11
242.72409400000001
 21
107.45834499999999
 31
0.0
  0
LINE
  5
363
  8
0
 10
272.52409399999999
 20
107.658345
 30
0.0
 11
272.72409399999998
 21
107.45834499999999
 31
0.0
  0
LINE
  5
364
  8
0
 10
126.5
 20
167.15842799999999
 30
0.0
 11
126.5
 21
196.15842799999999
 31
0.0
  0
LINE
  5
365
  8
0
 10
167.5
 20
167.15842799999999
 30
0.0
 11
167.5
 21
196.15842799999999
 31
0.0
  0
LINE
  5
366
  8
5
 10
170.5
 20
196.65842799999999
 30
0.0
 11
167.5
 21
196.65842799999999
 31
0.0
  0
LINE
  5
367
  8
5
 10
170.5
 20
166.65842799999999
 30
0.0
 11
167.5
 21
166.65842799999999
 31
0.0
  0
LINE
  5
368
  8
5
 10
171.0
 20
167.15842799999999
 30
0.0
 11
171.0
 21
196.15842799999999
 31
0.0
  0
LINE
  5
369
  8
5
 10
123.0
 20
167.15842799999999
 30
0.0
 11
123.0
 21
196.15842799999999
 31
0.0
  0
LINE
  5
36A
  8
5
 10
126.5
 20
166.65842799999999
 30
0.0
 11
123.5
 21
166.65842799999999
 31
0.0
  0
ARC
  5
36B
  8
0
 10
127.0
 20
167.15842799999999
 30
0.0
 40
0.5
 50
180.0
 51
270.0
  0
ARC
  5
36C
  8
5
 10
123.5
 20
167.15842799999999
 30
0.0
 40
0.5
 50
180.0
 51
270.0
  0
LINE
  5
36D
  8
5
 10
126.5
 20
196.65842799999999
 30
0.0
 11
123.5
 21
196.65842799999999
 31
0.0
  0
ARC
  5
36E
  8
5
 10
123.5
 20
196.15842799999999
 30
0.0
 40
0.5
 50
90.0
 51
180.0
  0
ARC
  5
36F
  8
0
 10
127.0
 20
196.15842799999999
 30
0.0
 40
0.5
 50
90.0
 51
180.0
  0
LINE
  5
370
  8
0
 10
167.0
 20
196.65842799999999
 30
0.0
 11
127.0
 21
196.65842799999999
 31
0.0
  0
ARC
  5
371
  8
0
 10
167.0
 20
196.15842799999999
 30
0.0
 40
0.5
 50
0.0
 51
90.0
  0
ARC
  5
372
  8
5
 10
170.5
 20
196.15842799999999
 30
0.0
 40
0.5
 50
0.0
 51
90.0
  0
LINE
  5
373
  8
0
 10
167.0
 20
166.65842799999999
 30
0.0
 11
127.0
 21
166.65842799999999
 31
0.0
  0
ARC
  5
374
  8
0
 10
167.0
 20
167.15842799999999
 30
0.0
 40
0.5
 50
270.0
 51
0.0
  0
ARC
  5
375
  8
5
 10
170.5
 20
167.15842799999999
 30
0.0
 40
0.5
 50
270.0
 51
360.0
  0
LINE
  5
376
  8
0
 10
163.59999999999999
 20
161.15842799999999
 30
0.0
 11
157.19999999999999
 21
161.15842799999999
 31
0.0
  0
LINE
  5
377
  8
1
 10
176.0
 20
181.65842799999999
 30
0.0
 11
118.0
 21
181.65842799999999
 31
0.0
  0
LINE
  5
378
  8
0
 10
165.92036100000001
 20
179.65842799999999
 30
0.0
 11
165.92036100000001
 21
183.65842799999999
 31
0.0
  0
LINE
  5
379
  8
0
 10
165.92036100000001
 20
179.65842799999999
 30
0.0
 11
158.42036100000001
 21
166.65842799999999
 31
0.0
  0
LINE
  5
37A
  8
0
 10
165.92036100000001
 20
183.65842799999999
 30
0.0
 11
158.42036100000001
 21
196.65842799999999
 31
0.0
  0
LINE
  5
37B
  8
0
 10
128.07963899999999
 20
183.65842799999999
 30
0.0
 11
135.57963899999999
 21
196.65842799999999
 31
0.0
  0
LINE
  5
37C
  8
0
 10
128.07963899999999
 20
179.65842799999999
 30
0.0
 11
135.57963899999999
 21
166.65842799999999
 31
0.0
  0
LINE
  5
37D
  8
0
 10
128.07963899999999
 20
179.65842799999999
 30
0.0
 11
128.07963899999999
 21
183.65842799999999
 31
0.0
  0
LINE
  5
37E
  8
1
 10
147.0
 20
156.15842799999999
 30
0.0
 11
147.0
 21
207.15842799999999
 31
0.0
  0
LINE
  5
37F
  8
1
 10
148.0
 20
169.65842799999999
 30
0.0
 11
148.0
 21
193.65842799999999
 31
0.0
  0
LINE
  5
380
  8
1
 10
146.0
 20
169.65842799999999
 30
0.0
 11
146.0
 21
193.65842799999999
 31
0.0
  0
TEXT
  5
381
  8
0
 10
137.3833333333333
 20
191.958428
 30
0.0
 40
3.2000000000000002
  1
O
  7
K
 72
     4
 11
138.44999999999999
 21
193.55842799999999
 31
0.0
  0
TEXT
  5
382
  8
0
 10
140.3833333333333
 20
191.958428
 30
0.0
 40
3.2000000000000002
  1
K
  7
K
 72
     4
 11
141.44999999999999
 21
193.55842799999999
 31
0.0
  0
TEXT
  5
383
  8
0
 10
143.3833333333333
 20
191.958428
 30
0.0
 40
3.2000000000000002
  1
-
  7
K
 72
     4
 11
144.44999999999999
 21
193.55842799999999
 31
0.0
  0
TEXT
  5
384
  8
0
 10
145.84999999999999
 20
191.958428
 30
0.0
 40
3.2000000000000002
  1
V
  7
K
 72
     4
 11
147.44999999999999
 21
193.55842799999999
 31
0.0
  0
TEXT
  5
385
  8
0
 10
149.9166666666666
 20
191.958428
 30
0.0
 40
3.2000000000000002
  1
I
  7
K
 72
     4
 11
150.44999999999999
 21
193.55842799999999
 31
0.0
  0
TEXT
  5
386
  8
0
 10
152.3833333333333
 20
191.958428
 30
0.0
 40
3.2000000000000002
  1
S
  7
K
 72
     4
 11
153.44999999999999
 21
193.55842799999999
 31
0.0
  0
TEXT
  5
387
  8
0
 10
155.3833333333333
 20
191.958428
 30
0.0
 40
3.2000000000000002
  1
E
  7
K
 72
     4
 11
156.44999999999999
 21
193.55842799999999
 31
0.0
  0
TEXT
  5
388
  8
0
 10
153.18333333333331
 20
167.644068
 30
0.0
 40
3.2000000000000002
  1
T
  7
K
 72
     4
 11
154.25
 21
169.244068
 31
0.0
  0
TEXT
  5
389
  8
0
 10
149.65000000000001
 20
167.644068
 30
0.0
 40
3.2000000000000002
  1
V
  7
K
 72
     4
 11
151.25
 21
169.244068
 31
0.0
  0
TEXT
  5
38A
  8
0
 10
147.18333333333331
 20
167.644068
 30
0.0
 40
3.2000000000000002
  1
-
  7
K
 72
     4
 11
148.25
 21
169.244068
 31
0.0
  0
TEXT
  5
38B
  8
0
 10
144.18333333333331
 20
167.644068
 30
0.0
 40
3.2000000000000002
  1
2
  7
K
 72
     4
 11
145.25
 21
169.244068
 31
0.0
  0
TEXT
  5
38C
  8
0
 10
141.18333333333331
 20
167.644068
 30
0.0
 40
3.2000000000000002
  1
K
  7
K
 72
     4
 11
142.25
 21
169.244068
 31
0.0
  0
TEXT
  5
38D
  8
0
 10
138.18333333333331
 20
167.644068
 30
0.0
 40
3.2000000000000002
  1
D
  7
K
 72
     4
 11
139.25
 21
169.244068
 31
0.0
  0
LINE
  5
38E
  8
0
 10
129.40000000000001
 20
162.15842799999999
 30
0.0
 11
129.40000000000001
 21
162.958428
 31
0.0
  0
LINE
  5
38F
  8
0
 10
164.59999999999999
 20
162.15842799999999
 30
0.0
 11
164.59999999999999
 21
162.958428
 31
0.0
  0
LINE
  5
390
  8
0
 10
136.80000000000001
 20
161.15842799999999
 30
0.0
 11
136.80000000000001
 21
166.65842799999999
 31
0.0
  0
LINE
  5
391
  8
0
 10
157.19999999999999
 20
161.15842799999999
 30
0.0
 11
157.19999999999999
 21
166.65842799999999
 31
0.0
  0
LINE
  5
392
  8
0
 10
136.80000000000001
 20
161.15842799999999
 30
0.0
 11
130.40000000000001
 21
161.15842799999999
 31
0.0
  0
LINE
  5
393
  8
0
 10
129.40000000000001
 20
162.15842799999999
 30
0.0
 11
130.40000000000001
 21
161.15842799999999
 31
0.0
  0
LINE
  5
394
  8
0
 10
163.59999999999999
 20
161.15842799999999
 30
0.0
 11
164.59999999999999
 21
162.15842799999999
 31
0.0
  0
LINE
  5
395
  8
0
 10
164.59999999999999
 20
162.15842799999999
 30
0.0
 11
157.19999999999999
 21
162.15842799999999
 31
0.0
  0
LINE
  5
396
  8
0
 10
136.80000000000001
 20
162.15842799999999
 30
0.0
 11
129.40000000000001
 21
162.15842799999999
 31
0.0
  0
LINE
  5
397
  8
0
 10
164.75
 20
163.15842799999999
 30
0.0
 11
157.40000000000001
 21
163.15842799999999
 31
0.0
  0
LINE
  5
398
  8
0
 10
136.59999999999999
 20
163.15842799999999
 30
0.0
 11
129.25
 21
163.15842799999999
 31
0.0
  0
LINE
  5
399
  8
0
 10
129.40000000000001
 20
162.958428
 30
0.0
 11
129.59999999999999
 21
163.15842799999999
 31
0.0
  0
LINE
  5
39A
  8
0
 10
136.59999999999999
 20
163.15842799999999
 30
0.0
 11
136.80000000000001
 21
162.958428
 31
0.0
  0
LINE
  5
39B
  8
0
 10
157.19999999999999
 20
162.958428
 30
0.0
 11
157.40000000000001
 21
163.15842799999999
 31
0.0
  0
LINE
  5
39C
  8
0
 10
164.59999999999999
 20
162.958428
 30
0.0
 11
164.40000000000001
 21
163.15842799999999
 31
0.0
  0
LINE
  5
39D
  8
0
 10
157.19999999999999
 20
162.92121800000001
 30
0.0
 11
136.80000000000001
 21
162.92121800000001
 31
0.0
  0
ARC
  5
39E
  8
0
 10
129.25
 20
164.90842799999999
 30
0.0
 40
1.75
 50
90.0
 51
270.0
  0
ARC
  5
39F
  8
0
 10
164.75
 20
164.90842799999999
 30
0.0
 40
1.75
 50
270.0
 51
90.0
  0
ARC
  5
3A0
  8
0
 10
164.41267099999999
 20
164.90842799999999
 30
0.0
 40
1.75
 50
270.0
 51
90.0
  0
ARC
  5
3A1
  8
0
 10
163.994383
 20
164.90842799999999
 30
0.0
 40
1.75
 50
270.0
 51
90.0
  0
ARC
  5
3A2
  8
0
 10
163.495136
 20
164.90842799999999
 30
0.0
 40
1.75
 50
270.0
 51
90.0
  0
ARC
  5
3A3
  8
0
 10
162.94191599999999
 20
164.90842799999999
 30
0.0
 40
1.75
 50
270.0
 51
90.0
  0
ARC
  5
3A4
  8
0
 10
162.25376399999999
 20
164.90842799999999
 30
0.0
 40
1.75
 50
270.0
 51
90.0
  0
ARC
  5
3A5
  8
0
 10
159.64958300000001
 20
164.90842799999999
 30
0.0
 40
2.2336419999999988
 50
308.42025799999999
 51
51.579741999999989
  0
ARC
  5
3A6
  8
0
 10
159.09636399999999
 20
164.90842799999999
 30
0.0
 40
2.2336419999999988
 50
308.42025799999999
 51
51.579741999999989
  0
ARC
  5
3A7
  8
0
 10
158.46218500000001
 20
164.90842799999999
 30
0.0
 40
2.2336419999999988
 50
308.42025799999999
 51
51.579741999999989
  0
ARC
  5
3A8
  8
0
 10
157.774033
 20
164.90842799999999
 30
0.0
 40
2.2336419999999988
 50
308.42025799999999
 51
51.579741999999989
  0
ARC
  5
3A9
  8
0
 10
157.085882
 20
164.90842799999999
 30
0.0
 40
2.2336419999999988
 50
308.42025799999999
 51
51.579741999999989
  0
ARC
  5
3AA
  8
0
 10
156.30327800000001
 20
164.90842799999999
 30
0.0
 40
2.2336419999999988
 50
308.42025799999999
 51
51.579741999999989
  0
ARC
  5
3AB
  8
0
 10
155.58814100000001
 20
164.90842799999999
 30
0.0
 40
2.2336419999999988
 50
316.18907999999999
 51
43.810920000000003
  0
ARC
  5
3AC
  8
0
 10
159.959926
 20
164.90842799999999
 30
0.0
 40
2.3955599999999988
 50
313.070153
 51
46.929846999999988
  0
ARC
  5
3AD
  8
0
 10
160.45917299999999
 20
164.90842799999999
 30
0.0
 40
2.3955599999999988
 50
313.070153
 51
46.929846999999988
  0
ARC
  5
3AE
  8
0
 10
161.403695
 20
164.90842799999999
 30
0.0
 40
1.950286
 50
296.19401399999998
 51
63.80598599999999
  0
ARC
  5
3AF
  8
0
 10
132.596305
 20
164.90842799999999
 30
0.0
 40
1.950286
 50
116.194014
 51
243.80598599999999
  0
ARC
  5
3B0
  8
0
 10
133.54082700000001
 20
164.90842799999999
 30
0.0
 40
2.3955599999999988
 50
133.070153
 51
226.929847
  0
ARC
  5
3B1
  8
0
 10
134.040074
 20
164.90842799999999
 30
0.0
 40
2.3955599999999988
 50
133.070153
 51
226.929847
  0
ARC
  5
3B2
  8
0
 10
138.41185899999999
 20
164.90842799999999
 30
0.0
 40
2.2336419999999988
 50
136.18907999999999
 51
223.81092000000001
  0
ARC
  5
3B3
  8
0
 10
137.69672199999999
 20
164.90842799999999
 30
0.0
 40
2.2336419999999988
 50
128.42025799999999
 51
231.57974200000001
  0
ARC
  5
3B4
  8
0
 10
136.914118
 20
164.90842799999999
 30
0.0
 40
2.2336419999999988
 50
128.42025799999999
 51
231.57974200000001
  0
ARC
  5
3B5
  8
0
 10
136.225967
 20
164.90842799999999
 30
0.0
 40
2.2336419999999988
 50
128.42025799999999
 51
231.57974200000001
  0
ARC
  5
3B6
  8
0
 10
135.53781499999999
 20
164.90842799999999
 30
0.0
 40
2.2336419999999988
 50
128.42025799999999
 51
231.57974200000001
  0
ARC
  5
3B7
  8
0
 10
134.90363600000001
 20
164.90842799999999
 30
0.0
 40
2.2336419999999988
 50
128.42025799999999
 51
231.57974200000001
  0
ARC
  5
3B8
  8
0
 10
134.35041699999999
 20
164.90842799999999
 30
0.0
 40
2.2336419999999988
 50
128.42025799999999
 51
231.57974200000001
  0
ARC
  5
3B9
  8
0
 10
131.74623600000001
 20
164.90842799999999
 30
0.0
 40
1.75
 50
90.0
 51
270.0
  0
ARC
  5
3BA
  8
0
 10
131.05808400000001
 20
164.90842799999999
 30
0.0
 40
1.75
 50
90.0
 51
270.0
  0
ARC
  5
3BB
  8
0
 10
130.504864
 20
164.90842799999999
 30
0.0
 40
1.75
 50
90.0
 51
270.0
  0
ARC
  5
3BC
  8
0
 10
130.005617
 20
164.90842799999999
 30
0.0
 40
1.75
 50
90.0
 51
270.0
  0
ARC
  5
3BD
  8
0
 10
129.58732900000001
 20
164.90842799999999
 30
0.0
 40
1.75
 50
90.0
 51
270.0
  0
ARC
  5
3BE
  8
0
 10
129.58732900000001
 20
198.40842799999999
 30
0.0
 40
1.75
 50
90.0
 51
270.0
  0
ARC
  5
3BF
  8
0
 10
130.005617
 20
198.40842799999999
 30
0.0
 40
1.75
 50
90.0
 51
270.0
  0
ARC
  5
3C0
  8
0
 10
130.504864
 20
198.40842799999999
 30
0.0
 40
1.75
 50
90.0
 51
270.0
  0
ARC
  5
3C1
  8
0
 10
131.05808400000001
 20
198.40842799999999
 30
0.0
 40
1.75
 50
90.0
 51
270.0
  0
ARC
  5
3C2
  8
0
 10
131.74623600000001
 20
198.40842799999999
 30
0.0
 40
1.75
 50
90.0
 51
270.0
  0
ARC
  5
3C3
  8
0
 10
134.35041699999999
 20
198.40842799999999
 30
0.0
 40
2.2336419999999988
 50
128.42025799999999
 51
231.57974200000001
  0
ARC
  5
3C4
  8
0
 10
134.90363600000001
 20
198.40842799999999
 30
0.0
 40
2.2336419999999988
 50
128.42025799999999
 51
231.57974200000001
  0
ARC
  5
3C5
  8
0
 10
135.53781499999999
 20
198.40842799999999
 30
0.0
 40
2.2336419999999988
 50
128.42025799999999
 51
231.57974200000001
  0
ARC
  5
3C6
  8
0
 10
136.225967
 20
198.40842799999999
 30
0.0
 40
2.2336419999999988
 50
128.42025799999999
 51
231.57974200000001
  0
ARC
  5
3C7
  8
0
 10
136.914118
 20
198.40842799999999
 30
0.0
 40
2.2336419999999988
 50
128.42025799999999
 51
231.57974200000001
  0
ARC
  5
3C8
  8
0
 10
137.69672199999999
 20
198.40842799999999
 30
0.0
 40
2.2336419999999988
 50
128.42025799999999
 51
231.57974200000001
  0
ARC
  5
3C9
  8
0
 10
138.41185899999999
 20
198.40842799999999
 30
0.0
 40
2.2336419999999988
 50
136.18907999999999
 51
223.81092000000001
  0
ARC
  5
3CA
  8
0
 10
134.040074
 20
198.40842799999999
 30
0.0
 40
2.3955599999999988
 50
133.070153
 51
226.929847
  0
ARC
  5
3CB
  8
0
 10
133.54082700000001
 20
198.40842799999999
 30
0.0
 40
2.3955599999999988
 50
133.070153
 51
226.929847
  0
ARC
  5
3CC
  8
0
 10
132.596305
 20
198.40842799999999
 30
0.0
 40
1.950286
 50
116.194014
 51
243.80598599999999
  0
ARC
  5
3CD
  8
0
 10
161.403695
 20
198.40842799999999
 30
0.0
 40
1.950286
 50
296.19401399999998
 51
63.80598599999999
  0
ARC
  5
3CE
  8
0
 10
160.45917299999999
 20
198.40842799999999
 30
0.0
 40
2.3955599999999988
 50
313.070153
 51
46.929846999999988
  0
ARC
  5
3CF
  8
0
 10
159.959926
 20
198.40842799999999
 30
0.0
 40
2.3955599999999988
 50
313.070153
 51
46.929846999999988
  0
ARC
  5
3D0
  8
0
 10
155.58814100000001
 20
198.40842799999999
 30
0.0
 40
2.2336419999999988
 50
316.18907999999999
 51
43.810920000000003
  0
ARC
  5
3D1
  8
0
 10
156.30327800000001
 20
198.40842799999999
 30
0.0
 40
2.2336419999999988
 50
308.42025799999999
 51
51.579741999999989
  0
ARC
  5
3D2
  8
0
 10
157.085882
 20
198.40842799999999
 30
0.0
 40
2.2336419999999988
 50
308.42025799999999
 51
51.579741999999989
  0
ARC
  5
3D3
  8
0
 10
157.774033
 20
198.40842799999999
 30
0.0
 40
2.2336419999999988
 50
308.42025799999999
 51
51.579741999999989
  0
ARC
  5
3D4
  8
0
 10
158.46218500000001
 20
198.40842799999999
 30
0.0
 40
2.2336419999999988
 50
308.42025799999999
 51
51.579741999999989
  0
ARC
  5
3D5
  8
0
 10
159.09636399999999
 20
198.40842799999999
 30
0.0
 40
2.2336419999999988
 50
308.42025799999999
 51
51.579741999999989
  0
ARC
  5
3D6
  8
0
 10
159.64958300000001
 20
198.40842799999999
 30
0.0
 40
2.2336419999999988
 50
308.42025799999999
 51
51.579741999999989
  0
ARC
  5
3D7
  8
0
 10
162.25376399999999
 20
198.40842799999999
 30
0.0
 40
1.75
 50
270.0
 51
90.0
  0
ARC
  5
3D8
  8
0
 10
162.94191599999999
 20
198.40842799999999
 30
0.0
 40
1.75
 50
270.0
 51
90.0
  0
ARC
  5
3D9
  8
0
 10
163.495136
 20
198.40842799999999
 30
0.0
 40
1.75
 50
270.0
 51
90.0
  0
ARC
  5
3DA
  8
0
 10
163.994383
 20
198.40842799999999
 30
0.0
 40
1.75
 50
270.0
 51
90.0
  0
ARC
  5
3DB
  8
0
 10
164.41267099999999
 20
198.40842799999999
 30
0.0
 40
1.75
 50
270.0
 51
90.0
  0
ARC
  5
3DC
  8
0
 10
164.75
 20
198.40842799999999
 30
0.0
 40
1.75
 50
270.0
 51
90.0
  0
ARC
  5
3DD
  8
0
 10
129.25
 20
198.40842799999999
 30
0.0
 40
1.75
 50
90.0
 51
270.0
  0
LINE
  5
3DE
  8
0
 10
157.19999999999999
 20
200.39563799999999
 30
0.0
 11
136.80000000000001
 21
200.39563799999999
 31
0.0
  0
LINE
  5
3DF
  8
0
 10
164.59999999999999
 20
200.358428
 30
0.0
 11
164.40000000000001
 21
200.15842799999999
 31
0.0
  0
LINE
  5
3E0
  8
0
 10
157.19999999999999
 20
200.358428
 30
0.0
 11
157.40000000000001
 21
200.15842799999999
 31
0.0
  0
LINE
  5
3E1
  8
0
 10
136.59999999999999
 20
200.15842799999999
 30
0.0
 11
136.80000000000001
 21
200.358428
 31
0.0
  0
LINE
  5
3E2
  8
0
 10
129.40000000000001
 20
200.358428
 30
0.0
 11
129.59999999999999
 21
200.15842799999999
 31
0.0
  0
LINE
  5
3E3
  8
0
 10
136.59999999999999
 20
200.15842799999999
 30
0.0
 11
129.25
 21
200.15842799999999
 31
0.0
  0
LINE
  5
3E4
  8
0
 10
164.75
 20
200.15842799999999
 30
0.0
 11
157.40000000000001
 21
200.15842799999999
 31
0.0
  0
LINE
  5
3E5
  8
0
 10
136.80000000000001
 20
201.15842799999999
 30
0.0
 11
129.40000000000001
 21
201.15842799999999
 31
0.0
  0
LINE
  5
3E6
  8
0
 10
164.59999999999999
 20
201.15842799999999
 30
0.0
 11
157.19999999999999
 21
201.15842799999999
 31
0.0
  0
LINE
  5
3E7
  8
0
 10
163.59999999999999
 20
202.15842799999999
 30
0.0
 11
164.59999999999999
 21
201.15842799999999
 31
0.0
  0
LINE
  5
3E8
  8
0
 10
129.40000000000001
 20
201.15842799999999
 30
0.0
 11
130.40000000000001
 21
202.15842799999999
 31
0.0
  0
LINE
  5
3E9
  8
0
 10
136.80000000000001
 20
202.15842799999999
 30
0.0
 11
130.40000000000001
 21
202.15842799999999
 31
0.0
  0
LINE
  5
3EA
  8
0
 10
157.19999999999999
 20
202.15842799999999
 30
0.0
 11
157.19999999999999
 21
196.65842799999999
 31
0.0
  0
LINE
  5
3EB
  8
0
 10
136.80000000000001
 20
202.15842799999999
 30
0.0
 11
136.80000000000001
 21
196.65842799999999
 31
0.0
  0
LINE
  5
3EC
  8
0
 10
164.59999999999999
 20
201.15842799999999
 30
0.0
 11
164.59999999999999
 21
200.358428
 31
0.0
  0
LINE
  5
3ED
  8
0
 10
129.40000000000001
 20
201.15842799999999
 30
0.0
 11
129.40000000000001
 21
200.358428
 31
0.0
  0
LINE
  5
3EE
  8
0
 10
163.59999999999999
 20
202.15842799999999
 30
0.0
 11
157.19999999999999
 21
202.15842799999999
 31
0.0
  0
ARC
  5
3EF
  8
0
 10
133.0
 20
87.958344999999994
 30
0.0
 40
3.7000000000000002
 50
90.0
 51
270.0
  0
ARC
  5
3F0
  8
0
 10
133.0
 20
87.958344999999994
 30
0.0
 40
2.7000000000000002
 50
90.0
 51
270.0
  0
ARC
  5
3F1
  8
0
 10
161.0
 20
87.958344999999994
 30
0.0
 40
2.7000000000000002
 50
270.0
 51
90.0
  0
ARC
  5
3F2
  8
0
 10
161.0
 20
87.958344999999994
 30
0.0
 40
3.7000000000000002
 50
270.0
 51
90.0
  0
ARC
  5
3F3
  8
0
 10
156.69999999999999
 20
94.458344999999994
 30
0.0
 40
0.5
 50
0.0
 51
90.0
  0
ARC
  5
3F4
  8
0
 10
157.0
 20
94.358345
 30
0.0
 40
0.2
 50
270.0
 51
360.0
  0
ARC
  5
3F5
  8
0
 10
157.0
 20
81.058344999999974
 30
0.0
 40
0.2
 50
0.0
 51
90.0
  0
ARC
  5
3F6
  8
0
 10
157.0
 20
81.358344999999986
 30
0.0
 40
0.2
 50
0.0
 51
90.0
  0
ARC
  5
3F7
  8
0
 10
157.0
 20
94.158344999999997
 30
0.0
 40
0.2
 50
270.0
 51
0.0
  0
LINE
  5
3F8
  8
0
 10
157.19999999999999
 20
94.158344999999997
 30
0.0
 11
157.19999999999999
 21
94.458344999999994
 31
0.0
  0
LINE
  5
3F9
  8
0
 10
157.19999999999999
 20
84.328440999999998
 30
0.0
 11
157.19999999999999
 21
91.683203000000006
 31
0.0
  0
LINE
  5
3FA
  8
0
 10
157.19999999999999
 20
84.258344999999977
 30
0.0
 11
161.0
 21
84.258344999999977
 31
0.0
  0
LINE
  5
3FB
  8
0
 10
157.19999999999999
 20
91.658344999999997
 30
0.0
 11
161.0
 21
91.658344999999997
 31
0.0
  0
LINE
  5
3FC
  8
0
 10
157.19999999999999
 20
85.258345000000006
 30
0.0
 11
161.0
 21
85.258345000000006
 31
0.0
  0
LINE
  5
3FD
  8
0
 10
157.19999999999999
 20
90.658344999999997
 30
0.0
 11
161.0
 21
90.658344999999997
 31
0.0
  0
LINE
  5
3FE
  8
0
 10
136.80000000000001
 20
84.233486999999997
 30
0.0
 11
136.80000000000001
 21
91.683203000000006
 31
0.0
  0
LINE
  5
3FF
  8
0
 10
137.30000000000001
 20
76.158344999999997
 30
0.0
 11
156.69999999999999
 21
76.158344999999997
 31
0.0
  0
LINE
  5
400
  8
0
 10
156.5
 20
72.658344999999997
 30
0.0
 11
153.12008900000001
 21
76.158344999999997
 31
0.0
  0
LINE
  5
401
  8
0
 10
137.5
 20
72.658344999999997
 30
0.0
 11
140.87991099999999
 21
76.158344999999997
 31
0.0
  0
LINE
  5
402
  8
0
 10
156.5
 20
72.658344999999997
 30
0.0
 11
167.0
 21
72.658344999999997
 31
0.0
  0
LINE
  5
403
  8
0
 10
166.6999999999999
 20
66.658344999999997
 30
0.0
 11
127.3
 21
66.658344999999997
 31
0.0
  0
LINE
  5
404
  8
0
 10
166.6999999999999
 20
66.658344999999997
 30
0.0
 11
166.6999999999999
 21
69.158344999999997
 31
0.0
  0
LINE
  5
405
  8
0
 10
127.3
 20
66.658344999999997
 30
0.0
 11
127.3
 21
69.158344999999997
 31
0.0
  0
LINE
  5
406
  8
0
 10
166.6999999999999
 20
68.158344999999997
 30
0.0
 11
160.15051800000001
 21
68.158344999999997
 31
0.0
  0
LINE
  5
407
  8
0
 10
133.84948199999999
 20
68.158344999999997
 30
0.0
 11
141.57499300000001
 21
76.158344999999997
 31
0.0
  0
LINE
  5
408
  8
0
 10
160.15051800000001
 20
68.158344999999997
 30
0.0
 11
152.42500699999999
 21
76.158344999999997
 31
0.0
  0
LINE
  5
409
  8
0
 10
127.3
 20
69.158344999999997
 30
0.0
 11
130.679911
 21
72.658344999999997
 31
0.0
  0
LINE
  5
40A
  8
0
 10
166.6999999999999
 20
69.158344999999997
 30
0.0
 11
163.320089
 21
72.658344999999997
 31
0.0
  0
LINE
  5
40B
  8
0
 10
133.84948199999999
 20
68.158344999999997
 30
0.0
 11
133.84948199999999
 21
66.658344999999997
 31
0.0
  0
LINE
  5
40C
  8
0
 10
160.15051800000001
 20
68.158344999999997
 30
0.0
 11
160.15051800000001
 21
66.658344999999997
 31
0.0
  0
LINE
  5
40D
  8
0
 10
133.84948199999999
 20
68.158344999999997
 30
0.0
 11
127.3
 21
68.158344999999997
 31
0.0
  0
LINE
  5
541
  8
0
 10
276.42409400000003
 20
84.358345
 30
0.0
 11
276.22409399999998
 21
84.558344999999989
 31
0.0
  0
LINE
  5
542
  8
0
 10
276.42409400000003
 20
91.558344999999989
 30
0.0
 11
276.22409399999998
 21
91.358344999999986
 31
0.0
  0
ARC
  5
543
  8
0
 10
274.72409399999998
 20
82.995800000000003
 30
0.0
 40
1.5
 50
180.0
 51
0.0
  0
ARC
  5
544
  8
0
 10
274.72409399999998
 20
83.275619999999975
 30
0.0
 40
1.5
 50
180.0
 51
0.0
  0
ARC
  5
545
  8
0
 10
274.72409399999998
 20
83.692893999999995
 30
0.0
 40
1.5
 50
180.0
 51
0.0
  0
ARC
  5
546
  8
0
 10
274.72409399999998
 20
84.247624000000002
 30
0.0
 40
1.5
 50
180.0
 51
0.0
  0
ARC
  5
547
  8
0
 10
274.72409399999998
 20
85.037991000000005
 30
0.0
 40
1.5
 50
180.0
 51
0.0
  0
ARC
  5
548
  8
0
 10
274.72409399999998
 20
85.965812999999997
 30
0.0
 40
1.5
 50
180.0
 51
0.0
  0
ARC
  5
549
  8
0
 10
274.72409399999998
 20
86.986908999999997
 30
0.0
 40
1.5
 50
180.0
 51
0.0
  0
ARC
  5
54A
  8
0
 10
274.72409399999998
 20
83.182345999999995
 30
0.0
 40
1.5
 50
180.0
 51
0.0
  0
ARC
  5
54B
  8
0
 10
274.72409399999998
 20
83.506347999999988
 30
0.0
 40
1.5
 50
180.0
 51
0.0
  0
ARC
  5
54C
  8
0
 10
274.72409399999998
 20
83.830348999999998
 30
0.0
 40
1.5
 50
180.0
 51
0.0
  0
ARC
  5
54D
  8
0
 10
274.72409399999998
 20
84.571624999999997
 30
0.0
 40
1.5
 50
180.0
 51
0.0
  0
ARC
  5
54E
  8
0
 10
274.72409399999998
 20
85.499448000000001
 30
0.0
 40
1.5
 50
180.0
 51
0.0
  0
ARC
  5
54F
  8
0
 10
274.72409399999998
 20
86.579452999999987
 30
0.0
 40
1.5
 50
180.0
 51
0.0
  0
ARC
  5
550
  8
0
 10
274.72409399999998
 20
86.509156000000004
 30
0.0
 40
2.9258310000000001
 50
61.581410999999989
 51
118.418589
  0
ARC
  5
551
  8
0
 10
276.009094
 20
88.896171999999993
 30
0.0
 40
0.215
 50
241.71234799999999
 51
63.389071999999999
  0
ARC
  5
552
  8
0
 10
273.43909400000001
 20
88.896171999999993
 30
0.0
 40
0.215
 50
116.610928
 51
298.28765199999998
  0
ARC
  5
553
  8
0
 10
274.72409399999998
 20
86.508435999999989
 30
0.0
 40
2.4965509999999989
 50
61.712347999999999
 51
118.28765199999999
  0
ARC
  5
554
  8
0
 10
274.72409399999998
 20
89.408253999999985
 30
0.0
 40
2.4965509999999989
 50
241.71234799999999
 51
298.28765199999998
  0
ARC
  5
555
  8
0
 10
273.43909400000001
 20
87.02051800000001
 30
0.0
 40
0.215
 50
61.712347999999999
 51
243.389072
  0
ARC
  5
556
  8
0
 10
276.009094
 20
87.02051800000001
 30
0.0
 40
0.215
 50
296.610928
 51
118.28765199999999
  0
ARC
  5
557
  8
0
 10
274.72409399999998
 20
89.407533999999998
 30
0.0
 40
2.9258310000000001
 50
241.581411
 51
298.418589
  0
ARC
  5
558
  8
0
 10
273.43909400000001
 20
87.958344999999994
 30
0.0
 40
0.215
 50
90.0
 51
270.0
  0
ARC
  5
559
  8
0
 10
276.009094
 20
87.958344999999994
 30
0.0
 40
0.215
 50
270.0
 51
90.0
  0
LINE
  5
55A
  8
0
 10
276.009094
 20
87.743345000000005
 30
0.0
 11
273.43909400000001
 21
87.743345000000005
 31
0.0
  0
LINE
  5
55B
  8
0
 10
276.009094
 20
88.173344999999983
 30
0.0
 11
273.43909400000001
 21
88.173344999999983
 31
0.0
  0
ARC
  5
55C
  8
0
 10
274.72409399999998
 20
89.337237999999999
 30
0.0
 40
1.5
 50
0.0
 51
180.0
  0
ARC
  5
55D
  8
0
 10
274.72409399999998
 20
90.417242000000002
 30
0.0
 40
1.5
 50
0.0
 51
180.0
  0
ARC
  5
55E
  8
0
 10
274.72409399999998
 20
91.345065000000005
 30
0.0
 40
1.5
 50
0.0
 51
180.0
  0
ARC
  5
55F
  8
0
 10
274.72409399999998
 20
92.086341000000004
 30
0.0
 40
1.5
 50
0.0
 51
180.0
  0
ARC
  5
560
  8
0
 10
274.72409399999998
 20
92.410341999999986
 30
0.0
 40
1.5
 50
0.0
 51
180.0
  0
ARC
  5
561
  8
0
 10
274.72409399999998
 20
92.734343999999993
 30
0.0
 40
1.5
 50
0.0
 51
180.0
  0
ARC
  5
562
  8
0
 10
274.72409399999998
 20
88.929781000000006
 30
0.0
 40
1.5
 50
0.0
 51
180.0
  0
ARC
  5
563
  8
0
 10
274.72409399999998
 20
89.950877000000006
 30
0.0
 40
1.5
 50
0.0
 51
180.0
  0
ARC
  5
564
  8
0
 10
274.72409399999998
 20
90.878698999999983
 30
0.0
 40
1.5
 50
0.0
 51
180.0
  0
ARC
  5
565
  8
0
 10
274.72409399999998
 20
91.669066000000001
 30
0.0
 40
1.5
 50
0.0
 51
180.0
  0
ARC
  5
566
  8
0
 10
274.72409399999998
 20
92.223795999999993
 30
0.0
 40
1.5
 50
0.0
 51
180.0
  0
ARC
  5
567
  8
0
 10
274.72409399999998
 20
92.641069999999999
 30
0.0
 40
1.5
 50
0.0
 51
180.0
  0
ARC
  5
568
  8
0
 10
274.72409399999998
 20
92.92089
 30
0.0
 40
1.5
 50
0.0
 51
180.0
  0
LINE
  5
569
  8
0
 10
278.22409399999998
 20
85.358344999999986
 30
0.0
 11
277.22409399999998
 21
84.358345
 31
0.0
  0
LINE
  5
56A
  8
0
 10
278.22409399999998
 20
90.558344999999989
 30
0.0
 11
277.22409399999998
 21
91.558344999999989
 31
0.0
  0
LINE
  5
56B
  8
0
 10
277.22409399999998
 20
84.358345
 30
0.0
 11
277.22409399999998
 21
91.558344999999989
 31
0.0
  0
ARC
  5
56C
  8
0
 10
274.78571799999997
 20
93.858344999999986
 30
0.0
 40
1.0
 50
34.071453000000012
 51
90.0
  0
ARC
  5
56D
  8
0
 10
275.05117300000001
 20
94.358345
 30
0.0
 40
1.0
 50
34.071453000000012
 51
90.0
  0
ARC
  5
56E
  8
0
 10
273.22409399999998
 20
94.858345000000014
 30
0.0
 40
0.5
 50
90.0
 51
180.0
  0
ARC
  5
56F
  8
0
 10
273.72409399999998
 20
94.358345
 30
0.0
 40
0.5
 50
90.0
 51
180.0
  0
LINE
  5
570
  8
0
 10
275.992952
 20
93.858344999999986
 30
0.0
 11
276.46130399999998
 21
94.058344999999989
 31
0.0
  0
LINE
  5
571
  8
0
 10
276.46130399999998
 20
94.058344999999989
 30
0.0
 11
275.87951199999998
 21
94.918571
 31
0.0
  0
LINE
  5
572
  8
0
 10
275.992952
 20
93.858344999999986
 30
0.0
 11
275.614057
 21
94.418571
 31
0.0
  0
LINE
  5
573
  8
0
 10
274.78571799999997
 20
94.858345000000014
 30
0.0
 11
273.72409399999998
 21
94.858345000000014
 31
0.0
  0
LINE
  5
574
  8
0
 10
275.05117300000001
 20
95.358344999999986
 30
0.0
 11
273.22409399999998
 21
95.358344999999986
 31
0.0
  0
ARC
  5
575
  8
0
 10
274.72409399999998
 20
93.058344999999989
 30
0.0
 40
1.5
 50
0.0
 51
180.0
  0
LINE
  5
576
  8
0
 10
274.036181
 20
79.284618999999992
 30
0.0
 11
276.046312
 21
81.358344999999986
 31
0.0
  0
LINE
  5
577
  8
0
 10
273.536181
 20
79.499616000000003
 30
0.0
 11
275.70235600000001
 21
81.721241000000006
 31
0.0
  0
ARC
  5
578
  8
0
 10
274.72409399999998
 20
82.858344999999986
 30
0.0
 40
1.5
 50
180.0
 51
0.0
  0
LINE
  5
579
  8
0
 10
276.22409399999998
 20
82.858344999999986
 30
0.0
 11
276.22409399999998
 21
93.058344999999989
 31
0.0
  0
LINE
  5
57A
  8
0
 10
277.22409399999998
 20
91.558344999999989
 30
0.0
 11
276.42409400000003
 21
91.558344999999989
 31
0.0
  0
LINE
  5
57B
  8
0
 10
277.22409399999998
 20
84.358345
 30
0.0
 11
276.42409400000003
 21
84.358345
 31
0.0
  0
LINE
  5
57C
  8
0
 10
276.046312
 20
81.358344999999986
 30
0.0
 11
275.70235600000001
 21
81.721241000000006
 31
0.0
  0
ARC
  5
57D
  8
0
 10
274.22409399999998
 20
77.498979000000006
 30
0.0
 40
0.5
 50
180.0
 51
200.93474399999999
  0
ARC
  5
57E
  8
0
 10
273.73208399999999
 20
76.825974000000002
 30
0.0
 40
0.2
 50
353.80547300000001
 51
20.934743999999998
  0
ARC
  5
57F
  8
0
 10
273.22409399999998
 20
76.858345
 30
0.0
 40
0.5
 50
180.0
 51
270.0
  0
ARC
  5
580
  8
0
 10
273.43383499999999
 20
76.858345
 30
0.0
 40
0.5
 50
270.0
 51
353.80547300000001
  0
LINE
  5
581
  8
0
 10
273.75709999999998
 20
77.320327000000006
 30
0.0
 11
273.918881
 21
76.897435000000002
 31
0.0
  0
LINE
  5
582
  8
0
 10
273.22409399999998
 20
77.314228999999997
 30
0.0
 11
273.11200700000001
 21
77.021235000000004
 31
0.0
  0
LINE
  5
583
  8
0
 10
273.22409399999998
 20
77.314228999999997
 30
0.0
 11
273.33618200000001
 21
77.021235000000004
 31
0.0
  0
ARC
  5
584
  8
0
 10
273.22409399999998
 20
76.978354999999993
 30
0.0
 40
0.12001
 50
159.06525600000001
 51
20.934743999999998
  0
LINE
  5
585
  8
0
 10
273.43383499999999
 20
76.358345
 30
0.0
 11
273.22409399999998
 21
76.358345
 31
0.0
  0
ARC
  5
586
  8
0
 10
274.72409399999998
 20
78.558827000000008
 30
0.0
 40
1.0
 50
133.46516500000001
 51
180.0
  0
ARC
  5
587
  8
0
 10
274.22409399999998
 20
78.773824000000005
 30
0.0
 40
1.0
 50
133.46516500000001
 51
180.0
  0
LINE
  5
588
  8
0
 10
273.72409399999998
 20
78.558827000000008
 30
0.0
 11
273.72409399999998
 21
77.498979000000006
 31
0.0
  0
LINE
  5
589
  8
0
 10
273.22409399999998
 20
94.358345
 30
0.0
 11
273.22409399999998
 21
77.314228999999997
 31
0.0
  0
LINE
  5
58A
  8
0
 10
278.22409399999998
 20
85.358344999999986
 30
0.0
 11
278.22409399999998
 21
90.558344999999989
 31
0.0
  0
LINE
  5
58B
  8
0
 10
242.72409400000001
 20
66.658344999999997
 30
0.0
 11
272.72409399999998
 21
66.658344999999997
 31
0.0
  0
LINE
  5
58C
  8
0
 10
242.72409400000001
 20
68.158344999999997
 30
0.0
 11
254.22409400000001
 21
68.158344999999997
 31
0.0
  0
LINE
  5
58D
  8
0
 10
255.72409400000001
 20
69.158344999999997
 30
0.0
 11
259.72409399999998
 21
69.158344999999997
 31
0.0
  0
LINE
  5
58E
  8
0
 10
261.22409399999998
 20
66.658344999999997
 30
0.0
 11
261.22409399999998
 21
68.158344999999997
 31
0.0
  0
LINE
  5
58F
  8
0
 10
254.22409400000001
 20
66.658344999999997
 30
0.0
 11
254.22409400000001
 21
68.158344999999997
 31
0.0
  0
LINE
  5
590
  8
0
 10
259.72409399999998
 20
69.158344999999997
 30
0.0
 11
259.72409399999998
 21
72.658344999999997
 31
0.0
  0
LINE
  5
591
  8
0
 10
255.72409400000001
 20
69.158344999999997
 30
0.0
 11
255.72409400000001
 21
72.658344999999997
 31
0.0
  0
LINE
  5
592
  8
0
 10
255.72409400000001
 20
69.158344999999997
 30
0.0
 11
254.22409400000001
 21
68.158344999999997
 31
0.0
  0
LINE
  5
593
  8
0
 10
259.72409399999998
 20
69.158344999999997
 30
0.0
 11
261.22409399999998
 21
68.158344999999997
 31
0.0
  0
LINE
  5
594
  8
0
 10
261.22409399999998
 20
68.158344999999997
 30
0.0
 11
272.72409399999998
 21
68.158344999999997
 31
0.0
  0
LINE
  5
595
  8
0
 10
144.65218100000001
 20
92.519545999999991
 30
0.0
 11
145.4204
 21
93.958344999999994
 31
0.0
  0
LINE
  5
596
  8
0
 10
144.69098799999989
 20
91.672877000000014
 30
0.0
 11
145.40382700000001
 21
93.007953999999998
 31
0.0
  0
LINE
  5
597
  8
0
 10
145.83622099999999
 20
92.642776999999995
 30
0.0
 11
146.53864400000001
 21
93.958344999999994
 31
0.0
  0
LINE
  5
598
  8
0
 10
145.80923100000001
 20
91.672877000000014
 30
0.0
 11
146.757578
 21
93.449038000000002
 31
0.0
  0
LINE
  5
599
  8
0
 10
147.136461
 20
92.811419999999998
 30
0.0
 11
147.74884
 21
93.958344999999994
 31
0.0
  0
LINE
  5
59A
  8
0
 10
147.01942700000001
 20
91.672877000000014
 30
0.0
 11
147.92156800000001
 21
93.362496999999991
 31
0.0
  0
LINE
  5
59B
  8
0
 10
145.40543700000001
 20
93.958344999999994
 30
0.0
 11
145.40173799999999
 21
91.775217999999995
 31
0.0
  0
LINE
  5
59C
  8
0
 10
145.83844999999999
 20
93.958344999999994
 30
0.0
 11
145.83475000000001
 21
91.774484000000015
 31
0.0
  0
ARC
  5
59D
  8
0
 10
145.618244
 20
91.774850999999998
 30
0.0
 40
0.216506
 50
179.90290300000001
 51
359.90290299999998
  0
ARC
  5
59E
  8
0
 10
146.828439
 20
91.774850999999998
 30
0.0
 40
0.216506
 50
175.0
 51
355.0
  0
LINE
  5
59F
  8
0
 10
147.23680400000001
 20
93.958344999999994
 30
0.0
 11
147.04412199999999
 21
91.755981999999989
 31
0.0
  0
LINE
  5
5A0
  8
0
 10
146.80213699999999
 20
93.958344999999994
 30
0.0
 11
146.61275699999999
 21
91.793721000000005
 31
0.0
  0
ARC
  5
5A1
  8
0
 10
148.0
 20
91.774850999999998
 30
0.0
 40
0.216506
 50
175.0
 51
355.0
  0
LINE
  5
5A2
  8
0
 10
148.40836399999989
 20
93.958344999999994
 30
0.0
 11
148.21568199999999
 21
91.755981999999989
 31
0.0
  0
LINE
  5
5A3
  8
0
 10
147.97369800000001
 20
93.958344999999994
 30
0.0
 11
147.7843179999999
 21
91.793721000000005
 31
0.0
  0
LINE
  5
5A4
  8
0
 10
137.02630199999999
 20
93.958344999999994
 30
0.0
 11
137.21568199999999
 21
91.793721000000005
 31
0.0
  0
LINE
  5
5A5
  8
0
 10
146.669546
 20
81.558344999999989
 30
0.0
 11
146.78349399999999
 21
81.990849999999995
 31
0.0
  0
LINE
  5
5A6
  8
0
 10
145.993244
 20
81.558344999999989
 30
0.0
 11
146.23349400000001
 21
82.470241999999999
 31
0.0
  0
ARC
  5
5A7
  8
0
 10
146.44999999999999
 20
84.141839000000004
 30
0.0
 40
0.216506
 50
0.0
 51
180.0
  0
LINE
  5
5A8
  8
0
 10
146.23349400000001
 20
81.558344999999989
 30
0.0
 11
146.23349400000001
 21
84.141839000000004
 31
0.0
  0
LINE
  5
5A9
  8
0
 10
146.666506
 20
81.558344999999989
 30
0.0
 11
146.666506
 21
84.141839000000004
 31
0.0
  0
LINE
  5
5AA
  8
0
 10
145.809012
 20
84.243813000000003
 30
0.0
 11
144.51406900000001
 21
81.818511000000015
 31
0.0
  0
LINE
  5
5AB
  8
0
 10
145.691979
 20
83.105269999999976
 30
0.0
 11
144.866027
 21
81.558344999999989
 31
0.0
  0
ARC
  5
5AC
  8
0
 10
146.0
 20
84.141839000000004
 30
0.0
 40
0.216506
 50
355.0
 51
175.0
  0
LINE
  5
5AD
  8
0
 10
145.55663999999999
 20
81.558344999999989
 30
0.0
 11
145.78431800000001
 21
84.160707999999985
 31
0.0
  0
LINE
  5
5AE
  8
0
 10
145.99130700000001
 20
81.558344999999989
 30
0.0
 11
146.21568199999999
 21
84.122968999999983
 31
0.0
  0
LINE
  5
5AF
  8
0
 10
146.78349399999999
 20
81.558344999999989
 30
0.0
 11
146.78349399999999
 21
84.141839000000004
 31
0.0
  0
LINE
  5
5B0
  8
0
 10
144.49130700000001
 20
81.558344999999989
 30
0.0
 11
144.71568199999999
 21
84.122968999999983
 31
0.0
  0
LINE
  5
5B1
  8
0
 10
144.09163599999999
 20
93.958344999999994
 30
0.0
 11
144.28431800000001
 21
91.755981999999989
 31
0.0
  0
ARC
  5
5B2
  8
0
 10
144.5
 20
84.141839000000004
 30
0.0
 40
0.216506
 50
355.0
 51
175.0
  0
LINE
  5
5B3
  8
0
 10
144.191979
 20
92.811419999999998
 30
0.0
 11
143.5796
 21
93.958344999999994
 31
0.0
  0
LINE
  5
5B4
  8
0
 10
144.309012
 20
91.672877000000014
 30
0.0
 11
143.08873
 21
93.958344999999994
 31
0.0
  0
LINE
  5
5B5
  8
0
 10
142.59163599999999
 20
93.958344999999994
 30
0.0
 11
142.7843179999999
 21
91.755981999999989
 31
0.0
  0
LINE
  5
5B6
  8
0
 10
142.691979
 20
92.811419999999998
 30
0.0
 11
142.0796
 21
93.958344999999994
 31
0.0
  0
LINE
  5
5B7
  8
0
 10
142.809012
 20
91.672877000000014
 30
0.0
 11
141.58873
 21
93.958344999999994
 31
0.0
  0
ARC
  5
5B8
  8
0
 10
143.0
 20
91.774850999999998
 30
0.0
 40
0.216506
 50
185.0
 51
5.0
  0
LINE
  5
5B9
  8
0
 10
143.02630199999999
 20
93.958344999999994
 30
0.0
 11
143.21568199999999
 21
91.793721000000005
 31
0.0
  0
LINE
  5
5BA
  8
0
 10
141.09163599999999
 20
93.958344999999994
 30
0.0
 11
141.28431800000001
 21
91.755981999999989
 31
0.0
  0
LINE
  5
5BB
  8
0
 10
141.191979
 20
92.811419999999998
 30
0.0
 11
140.5796
 21
93.958344999999994
 31
0.0
  0
LINE
  5
5BC
  8
0
 10
141.309012
 20
91.672877000000014
 30
0.0
 11
140.08873
 21
93.958344999999994
 31
0.0
  0
ARC
  5
5BD
  8
0
 10
141.5
 20
91.774850999999998
 30
0.0
 40
0.216506
 50
185.0
 51
5.0
  0
LINE
  5
5BE
  8
0
 10
141.52630199999999
 20
93.958344999999994
 30
0.0
 11
141.71568199999999
 21
91.793721000000005
 31
0.0
  0
LINE
  5
5BF
  8
0
 10
139.59163599999999
 20
93.958344999999994
 30
0.0
 11
139.78431800000001
 21
91.755981999999989
 31
0.0
  0
LINE
  5
5C0
  8
0
 10
139.691979
 20
92.811419999999998
 30
0.0
 11
139.0796
 21
93.958344999999994
 31
0.0
  0
LINE
  5
5C1
  8
0
 10
139.809012
 20
91.672877000000014
 30
0.0
 11
138.58873
 21
93.958344999999994
 31
0.0
  0
ARC
  5
5C2
  8
0
 10
140.0
 20
91.774850999999998
 30
0.0
 40
0.216506
 50
185.0
 51
5.0
  0
LINE
  5
5C3
  8
0
 10
140.02630199999999
 20
93.958344999999994
 30
0.0
 11
140.21568199999999
 21
91.793721000000005
 31
0.0
  0
LINE
  5
5C4
  8
0
 10
138.52630199999999
 20
93.958344999999994
 30
0.0
 11
138.71568199999999
 21
91.793721000000005
 31
0.0
  0
LINE
  5
5C5
  8
0
 10
138.09163599999999
 20
93.958344999999994
 30
0.0
 11
138.28431800000001
 21
91.755981999999989
 31
0.0
  0
ARC
  5
5C6
  8
0
 10
138.5
 20
91.774850999999998
 30
0.0
 40
0.216506
 50
185.0
 51
5.0
  0
LINE
  5
5C7
  8
0
 10
138.191979
 20
92.811419999999998
 30
0.0
 11
137.5796
 21
93.958344999999994
 31
0.0
  0
LINE
  5
5C8
  8
0
 10
138.309012
 20
91.672877000000014
 30
0.0
 11
137.08873
 21
93.958344999999994
 31
0.0
  0
ARC
  5
5C9
  8
0
 10
137.0
 20
91.774850999999998
 30
0.0
 40
0.216506
 50
185.0
 51
5.0
  0
LINE
  5
5CA
  8
0
 10
136.56538900000001
 20
94.258344999999977
 30
0.0
 11
136.78431800000001
 21
91.755981999999989
 31
0.0
  0
ARC
  5
5CB
  8
0
 10
135.5
 20
91.774850999999998
 30
0.0
 40
0.216506
 50
185.0
 51
212.555736
  0
LINE
  5
5CC
  8
0
 10
135.500056
 20
94.258344999999977
 30
0.0
 11
135.71568199999999
 21
91.793721000000005
 31
0.0
  0
LINE
  5
5CD
  8
0
 10
135.06538900000001
 20
94.258344999999977
 30
0.0
 11
135.28431800000001
 21
91.755981999999989
 31
0.0
  0
ARC
  5
5CE
  8
0
 10
134.0
 20
91.774850999999998
 30
0.0
 40
0.216506
 50
185.0
 51
212.555736
  0
LINE
  5
5CF
  8
0
 10
134.000056
 20
94.258344999999977
 30
0.0
 11
134.21568199999999
 21
91.793721000000005
 31
0.0
  0
LINE
  5
5D0
  8
0
 10
133.56538900000001
 20
94.258344999999977
 30
0.0
 11
133.78431800000001
 21
91.755981999999989
 31
0.0
  0
ARC
  5
5D1
  8
0
 10
127.715
 20
87.958344999999994
 30
0.0
 40
0.215
 50
90.0
 51
270.0
  0
LINE
  5
5D2
  8
0
 10
129.40642600000001
 20
87.743345000000005
 30
0.0
 11
127.715
 21
87.743345000000005
 31
0.0
  0
LINE
  5
5D3
  8
0
 10
129.40642600000001
 20
88.173344999999983
 30
0.0
 11
127.715
 21
88.173344999999983
 31
0.0
  0
LINE
  5
5D4
  8
0
 10
129.70541
 20
89.642291
 30
0.0
 11
128.09846099999999
 21
90.164419999999993
 31
0.0
  0
LINE
  5
5D5
  8
0
 10
129.53153499999999
 20
89.246657999999996
 30
0.0
 11
127.965583
 21
89.755465999999984
 31
0.0
  0
ARC
  5
5D6
  8
0
 10
128.03202200000001
 20
89.95994300000001
 30
0.0
 40
0.215
 50
72.0
 51
252.0
  0
LINE
  5
5D7
  8
0
 10
130.63808800000001
 20
90.806392000000002
 30
0.0
 11
129.07843
 21
91.939549999999997
 31
0.0
  0
LINE
  5
5D8
  8
0
 10
130.31811099999999
 20
90.507358999999994
 30
0.0
 11
128.825682
 21
91.591672000000003
 31
0.0
  0
ARC
  5
5D9
  8
0
 10
128.952056
 20
91.765610999999979
 30
0.0
 40
0.215
 50
54.0
 51
234.0
  0
LINE
  5
5DA
  8
0
 10
131.89299299999999
 20
91.488860000000003
 30
0.0
 11
130.55897999999999
 21
93.324970999999991
 31
0.0
  0
LINE
  5
5DB
  8
0
 10
131.476731
 20
91.330235999999985
 30
0.0
 11
130.21110300000001
 21
93.072222999999994
 31
0.0
  0
ARC
  5
5DC
  8
0
 10
130.385042
 20
93.198597000000007
 30
0.0
 40
0.215
 50
36.0
 51
216.0
  0
LINE
  5
5DD
  8
0
 10
132.99867699999999
 20
91.716549999999984
 30
0.0
 11
132.23540499999999
 21
94.065659999999994
 31
0.0
  0
LINE
  5
5DE
  8
0
 10
132.58972299999999
 20
91.583673000000005
 30
0.0
 11
131.82645099999999
 21
93.932783000000001
 31
0.0
  0
ARC
  5
5DF
  8
0
 10
132.03092799999999
 20
93.999220999999991
 30
0.0
 40
0.215
 50
18.0
 51
198.0
  0
ARC
  5
5E0
  8
0
 10
133.78437299999999
 20
94.239474999999999
 30
0.0
 40
0.216506
 50
5.0
 51
185.0
  0
ARC
  5
5E1
  8
0
 10
135.28437299999999
 20
94.239474999999999
 30
0.0
 40
0.216506
 50
5.0
 51
185.0
  0
ARC
  5
5E2
  8
0
 10
136.78437299999999
 20
94.239474999999999
 30
0.0
 40
0.216506
 50
85.855304000000004
 51
185.0
  0
LINE
  5
5E3
  8
0
 10
136.713504
 20
92.565387000000001
 30
0.0
 11
135.46206699999999
 21
94.363168000000002
 31
0.0
  0
LINE
  5
5E4
  8
0
 10
136.822306
 20
91.651158999999993
 30
0.0
 11
135.57087000000001
 21
93.448938999999996
 31
0.0
  0
LINE
  5
5E5
  8
0
 10
135.322306
 20
91.651158999999993
 30
0.0
 11
134.07087000000001
 21
93.448938999999996
 31
0.0
  0
LINE
  5
5E6
  8
0
 10
135.213504
 20
92.565387000000001
 30
0.0
 11
133.96206699999999
 21
94.363168000000002
 31
0.0
  0
LINE
  5
5E7
  8
0
 10
133.813985
 20
91.658344999999997
 30
0.0
 11
132.55576300000001
 21
93.079701
 31
0.0
  0
LINE
  5
5E8
  8
0
 10
133.7271199999999
 20
92.409750000000003
 30
0.0
 11
132.19304099999999
 21
94.142728000000005
 31
0.0
  0
LINE
  5
5E9
  8
0
 10
132.445887
 20
91.616618000000003
 30
0.0
 11
131.23444799999999
 21
92.395269999999996
 31
0.0
  0
LINE
  5
5EA
  8
0
 10
132.402762
 20
92.159080000000003
 30
0.0
 11
130.502105
 21
93.380725999999996
 31
0.0
  0
LINE
  5
5EB
  8
0
 10
131.08851299999989
 20
91.126343999999989
 30
0.0
 11
129.86873
 21
91.365363000000016
 31
0.0
  0
LINE
  5
5EC
  8
0
 10
131.34010000000001
 20
91.518291999999988
 30
0.0
 11
128.99368899999999
 21
91.978076999999999
 31
0.0
  0
LINE
  5
5ED
  8
0
 10
129.89302000000001
 20
89.967493000000005
 30
0.0
 11
129.027514
 21
89.862551999999994
 31
0.0
  0
LINE
  5
5EE
  8
0
 10
130.26345599999999
 20
90.448592000000005
 30
0.0
 11
128.00596200000001
 21
90.174874999999986
 31
0.0
  0
LINE
  5
5EF
  8
0
 10
129.335894
 20
88.472474000000005
 30
0.0
 11
128.69186500000001
 21
88.173344999999983
 31
0.0
  0
LINE
  5
5F0
  8
0
 10
129.450591
 20
89.003186999999997
 30
0.0
 11
127.62379799999999
 21
88.154705000000007
 31
0.0
  0
ARC
  5
5F1
  8
0
 10
132.79419999999999
 20
91.650111999999993
 30
0.0
 40
0.215
 50
2.1946560000000002
 51
18.0
  0
ARC
  5
5F2
  8
0
 10
132.79419999999999
 20
84.266577999999996
 30
0.0
 40
0.215
 50
342.0
 51
357.80534399999999
  0
LINE
  5
5F3
  8
0
 10
129.450591
 20
86.913503000000006
 30
0.0
 11
127.62379799999999
 21
87.761984999999996
 31
0.0
  0
LINE
  5
5F4
  8
0
 10
129.335894
 20
87.444215999999997
 30
0.0
 11
128.69186500000001
 21
87.743345000000005
 31
0.0
  0
LINE
  5
5F5
  8
0
 10
130.26345599999999
 20
85.468097999999998
 30
0.0
 11
128.00596200000001
 21
85.741814999999988
 31
0.0
  0
LINE
  5
5F6
  8
0
 10
129.89302000000001
 20
85.949196999999998
 30
0.0
 11
129.027514
 21
86.054137999999995
 31
0.0
  0
LINE
  5
5F7
  8
0
 10
131.34010000000001
 20
84.398397999999986
 30
0.0
 11
128.99368899999999
 21
83.938613000000004
 31
0.0
  0
LINE
  5
5F8
  8
0
 10
131.08851299999989
 20
84.790346
 30
0.0
 11
129.86873
 21
84.551327000000001
 31
0.0
  0
LINE
  5
5F9
  8
0
 10
132.402762
 20
83.75761
 30
0.0
 11
130.502105
 21
82.535964000000007
 31
0.0
  0
LINE
  5
5FA
  8
0
 10
132.445887
 20
84.300072
 30
0.0
 11
131.23444799999999
 21
83.521419999999978
 31
0.0
  0
LINE
  5
5FB
  8
0
 10
133.7271199999999
 20
83.50694
 30
0.0
 11
132.19304099999999
 21
81.773961999999997
 31
0.0
  0
LINE
  5
5FC
  8
0
 10
133.813985
 20
84.258344999999977
 30
0.0
 11
132.55576300000001
 21
82.836989000000003
 31
0.0
  0
LINE
  5
5FD
  8
0
 10
135.213504
 20
83.351303000000016
 30
0.0
 11
133.96206699999999
 21
81.553522000000015
 31
0.0
  0
LINE
  5
5FE
  8
0
 10
135.322306
 20
84.26553100000001
 30
0.0
 11
134.07087000000001
 21
82.467751000000007
 31
0.0
  0
LINE
  5
5FF
  8
0
 10
136.822306
 20
84.26553100000001
 30
0.0
 11
135.57087000000001
 21
82.467751000000007
 31
0.0
  0
LINE
  5
600
  8
0
 10
136.713504
 20
83.351303000000016
 30
0.0
 11
135.46206699999999
 21
81.553522000000015
 31
0.0
  0
ARC
  5
601
  8
0
 10
136.78437299999999
 20
81.677215000000004
 30
0.0
 40
0.216506
 50
175.0
 51
282.53488399999998
  0
ARC
  5
602
  8
0
 10
135.28437299999999
 20
81.677215000000004
 30
0.0
 40
0.216506
 50
175.0
 51
355.0
  0
ARC
  5
603
  8
0
 10
133.78437299999999
 20
81.677215000000004
 30
0.0
 40
0.216506
 50
175.0
 51
355.0
  0
ARC
  5
604
  8
0
 10
132.03092799999999
 20
81.917468999999997
 30
0.0
 40
0.215
 50
162.0
 51
342.0
  0
LINE
  5
605
  8
0
 10
132.573475
 20
84.283011000000002
 30
0.0
 11
131.82645099999999
 21
81.983906999999988
 31
0.0
  0
LINE
  5
606
  8
0
 10
132.99867699999999
 20
84.200140000000005
 30
0.0
 11
132.23540499999999
 21
81.851030000000009
 31
0.0
  0
ARC
  5
607
  8
0
 10
130.385042
 20
82.71809300000001
 30
0.0
 40
0.215
 50
144.0
 51
324.0
  0
LINE
  5
608
  8
0
 10
131.476731
 20
84.586453999999989
 30
0.0
 11
130.21110300000001
 21
82.844467000000009
 31
0.0
  0
LINE
  5
609
  8
0
 10
131.89299299999999
 20
84.42783
 30
0.0
 11
130.55897999999999
 21
82.591718999999998
 31
0.0
  0
ARC
  5
60A
  8
0
 10
128.952056
 20
84.151078999999996
 30
0.0
 40
0.215
 50
126.0
 51
306.0
  0
LINE
  5
60B
  8
0
 10
130.31811099999999
 20
85.409331000000009
 30
0.0
 11
128.825682
 21
84.325018
 31
0.0
  0
LINE
  5
60C
  8
0
 10
130.63808800000001
 20
85.110298000000014
 30
0.0
 11
129.07843
 21
83.977140000000006
 31
0.0
  0
ARC
  5
60D
  8
0
 10
128.03202200000001
 20
85.956746999999993
 30
0.0
 40
0.215
 50
108.0
 51
288.0
  0
LINE
  5
60E
  8
0
 10
129.53153499999999
 20
86.670031999999992
 30
0.0
 11
127.965583
 21
86.161224000000004
 31
0.0
  0
LINE
  5
60F
  8
0
 10
129.70541
 20
86.274399000000003
 30
0.0
 11
128.09846099999999
 21
85.752269999999996
 31
0.0
  0
LINE
  5
610
  8
0
 10
129.306252
 20
87.743345000000005
 30
0.0
 11
127.715
 21
87.743345000000005
 31
0.0
  0
LINE
  5
611
  8
0
 10
129.306252
 20
88.173344999999983
 30
0.0
 11
127.715
 21
88.173344999999983
 31
0.0
  0
ARC
  5
612
  8
0
 10
127.715
 20
87.958344999999994
 30
0.0
 40
0.215
 50
90.0
 51
270.0
  0
LINE
  5
613
  8
0
 10
133.56538900000001
 20
81.658344999999997
 30
0.0
 11
133.78431800000001
 21
84.160707999999985
 31
0.0
  0
LINE
  5
614
  8
0
 10
134.000056
 20
81.658344999999997
 30
0.0
 11
134.21568199999999
 21
84.122968999999983
 31
0.0
  0
ARC
  5
615
  8
0
 10
134.0
 20
84.141839000000004
 30
0.0
 40
0.216506
 50
355.0
 51
32.555736000000003
  0
LINE
  5
616
  8
0
 10
135.06538900000001
 20
81.658344999999997
 30
0.0
 11
135.28431800000001
 21
84.160707999999985
 31
0.0
  0
LINE
  5
617
  8
0
 10
135.500056
 20
81.658344999999997
 30
0.0
 11
135.71568199999999
 21
84.122968999999983
 31
0.0
  0
ARC
  5
618
  8
0
 10
135.5
 20
84.141839000000004
 30
0.0
 40
0.216506
 50
355.0
 51
32.555736000000003
  0
LINE
  5
619
  8
0
 10
136.568691
 20
81.696084999999997
 30
0.0
 11
136.78431800000001
 21
84.160707999999985
 31
0.0
  0
LINE
  5
61A
  8
0
 10
137.000056
 20
81.658344999999997
 30
0.0
 11
137.21568199999999
 21
84.122968999999983
 31
0.0
  0
ARC
  5
61B
  8
0
 10
137.0
 20
84.141839000000004
 30
0.0
 40
0.216506
 50
355.0
 51
175.0
  0
LINE
  5
61C
  8
0
 10
138.309012
 20
84.243813000000003
 30
0.0
 11
137.01406900000001
 21
81.818511000000015
 31
0.0
  0
LINE
  5
61D
  8
0
 10
138.191979
 20
83.105269999999976
 30
0.0
 11
137.366027
 21
81.558344999999989
 31
0.0
  0
ARC
  5
61E
  8
0
 10
138.5
 20
84.141839000000004
 30
0.0
 40
0.216506
 50
355.0
 51
175.0
  0
LINE
  5
61F
  8
0
 10
138.05663999999999
 20
81.558344999999989
 30
0.0
 11
138.28431800000001
 21
84.160707999999985
 31
0.0
  0
LINE
  5
620
  8
0
 10
138.49130700000001
 20
81.558344999999989
 30
0.0
 11
138.71568199999999
 21
84.122968999999983
 31
0.0
  0
LINE
  5
621
  8
0
 10
139.99130700000001
 20
81.558344999999989
 30
0.0
 11
140.21568199999999
 21
84.122968999999983
 31
0.0
  0
ARC
  5
622
  8
0
 10
140.0
 20
84.141839000000004
 30
0.0
 40
0.216506
 50
355.0
 51
175.0
  0
LINE
  5
623
  8
0
 10
139.809012
 20
84.243813000000003
 30
0.0
 11
138.51406900000001
 21
81.818511000000015
 31
0.0
  0
LINE
  5
624
  8
0
 10
139.691979
 20
83.105269999999976
 30
0.0
 11
138.866027
 21
81.558344999999989
 31
0.0
  0
LINE
  5
625
  8
0
 10
139.55663999999999
 20
81.558344999999989
 30
0.0
 11
139.78431800000001
 21
84.160707999999985
 31
0.0
  0
LINE
  5
626
  8
0
 10
141.49130700000001
 20
81.558344999999989
 30
0.0
 11
141.71568199999999
 21
84.122968999999983
 31
0.0
  0
ARC
  5
627
  8
0
 10
141.5
 20
84.141839000000004
 30
0.0
 40
0.216506
 50
355.0
 51
175.0
  0
LINE
  5
628
  8
0
 10
141.309012
 20
84.243813000000003
 30
0.0
 11
140.01406900000001
 21
81.818511000000015
 31
0.0
  0
LINE
  5
629
  8
0
 10
141.191979
 20
83.105269999999976
 30
0.0
 11
140.366027
 21
81.558344999999989
 31
0.0
  0
LINE
  5
62A
  8
0
 10
141.05663999999999
 20
81.558344999999989
 30
0.0
 11
141.28431800000001
 21
84.160707999999985
 31
0.0
  0
LINE
  5
62B
  8
0
 10
142.99130700000001
 20
81.558344999999989
 30
0.0
 11
143.21568199999999
 21
84.122968999999983
 31
0.0
  0
ARC
  5
62C
  8
0
 10
143.0
 20
84.141839000000004
 30
0.0
 40
0.216506
 50
355.0
 51
175.0
  0
LINE
  5
62D
  8
0
 10
142.809012
 20
84.243813000000003
 30
0.0
 11
141.51406900000001
 21
81.818511000000015
 31
0.0
  0
LINE
  5
62E
  8
0
 10
142.691979
 20
83.105269999999976
 30
0.0
 11
141.866027
 21
81.558344999999989
 31
0.0
  0
LINE
  5
62F
  8
0
 10
142.55663999999999
 20
81.558344999999989
 30
0.0
 11
142.7843179999999
 21
84.160707999999985
 31
0.0
  0
LINE
  5
630
  8
0
 10
144.309012
 20
84.243813000000003
 30
0.0
 11
143.01406900000001
 21
81.818511000000015
 31
0.0
  0
LINE
  5
631
  8
0
 10
144.191979
 20
83.105269999999976
 30
0.0
 11
143.366027
 21
81.558344999999989
 31
0.0
  0
ARC
  5
632
  8
0
 10
144.5
 20
91.774850999999998
 30
0.0
 40
0.216506
 50
185.0
 51
5.0
  0
LINE
  5
633
  8
0
 10
144.0566399999999
 20
81.558344999999989
 30
0.0
 11
144.28431800000001
 21
84.160707999999985
 31
0.0
  0
LINE
  5
634
  8
0
 10
144.52630199999999
 20
93.958344999999994
 30
0.0
 11
144.71568199999999
 21
91.793721000000005
 31
0.0
  0
LINE
  5
635
  8
0
 10
148.19098799999989
 20
91.672877000000014
 30
0.0
 11
149.41127
 21
93.958344999999994
 31
0.0
  0
LINE
  5
636
  8
0
 10
148.308021
 20
92.811419999999998
 30
0.0
 11
148.9204
 21
93.958344999999994
 31
0.0
  0
LINE
  5
637
  8
0
 10
149.47369800000001
 20
93.958344999999994
 30
0.0
 11
149.28431800000001
 21
91.793721000000005
 31
0.0
  0
LINE
  5
638
  8
0
 10
149.90836400000001
 20
93.958344999999994
 30
0.0
 11
149.71568199999999
 21
91.755981999999989
 31
0.0
  0
ARC
  5
639
  8
0
 10
149.5
 20
91.774850999999998
 30
0.0
 40
0.216506
 50
175.0
 51
355.0
  0
LINE
  5
63A
  8
0
 10
149.808021
 20
92.811419999999998
 30
0.0
 11
150.4204
 21
93.958344999999994
 31
0.0
  0
LINE
  5
63B
  8
0
 10
149.690988
 20
91.672877000000014
 30
0.0
 11
150.91127
 21
93.958344999999994
 31
0.0
  0
LINE
  5
63C
  8
0
 10
151.40836399999989
 20
93.958344999999994
 30
0.0
 11
151.21568199999999
 21
91.755981999999989
 31
0.0
  0
LINE
  5
63D
  8
0
 10
151.308021
 20
92.811419999999998
 30
0.0
 11
151.9204
 21
93.958344999999994
 31
0.0
  0
LINE
  5
63E
  8
0
 10
151.19098799999989
 20
91.672877000000014
 30
0.0
 11
152.41127
 21
93.958344999999994
 31
0.0
  0
ARC
  5
63F
  8
0
 10
151.0
 20
91.774850999999998
 30
0.0
 40
0.216506
 50
175.0
 51
355.0
  0
LINE
  5
640
  8
0
 10
150.97369800000001
 20
93.958344999999994
 30
0.0
 11
150.78431800000001
 21
91.793721000000005
 31
0.0
  0
LINE
  5
641
  8
0
 10
152.90836400000001
 20
93.958344999999994
 30
0.0
 11
152.71568199999999
 21
91.755981999999989
 31
0.0
  0
LINE
  5
642
  8
0
 10
152.808021
 20
92.811419999999998
 30
0.0
 11
153.4204
 21
93.958344999999994
 31
0.0
  0
LINE
  5
643
  8
0
 10
152.690988
 20
91.672877000000014
 30
0.0
 11
153.91127
 21
93.958344999999994
 31
0.0
  0
ARC
  5
644
  8
0
 10
152.5
 20
91.774850999999998
 30
0.0
 40
0.216506
 50
175.0
 51
355.0
  0
LINE
  5
645
  8
0
 10
152.47369800000001
 20
93.958344999999994
 30
0.0
 11
152.28431800000001
 21
91.793721000000005
 31
0.0
  0
LINE
  5
646
  8
0
 10
154.40836400000001
 20
93.958344999999994
 30
0.0
 11
154.21568199999999
 21
91.755981999999989
 31
0.0
  0
LINE
  5
647
  8
0
 10
154.308021
 20
92.811419999999998
 30
0.0
 11
154.9204
 21
93.958344999999994
 31
0.0
  0
LINE
  5
648
  8
0
 10
154.19098799999989
 20
91.672877000000014
 30
0.0
 11
155.41127
 21
93.958344999999994
 31
0.0
  0
ARC
  5
649
  8
0
 10
154.0
 20
91.774850999999998
 30
0.0
 40
0.216506
 50
175.0
 51
355.0
  0
LINE
  5
64A
  8
0
 10
153.9736979999999
 20
93.958344999999994
 30
0.0
 11
153.78431800000001
 21
91.793721000000005
 31
0.0
  0
LINE
  5
64B
  8
0
 10
155.47369800000001
 20
93.958344999999994
 30
0.0
 11
155.28431800000001
 21
91.793721000000005
 31
0.0
  0
LINE
  5
64C
  8
0
 10
155.90836400000001
 20
93.958344999999994
 30
0.0
 11
155.71568199999999
 21
91.755981999999989
 31
0.0
  0
ARC
  5
64D
  8
0
 10
155.5
 20
91.774850999999998
 30
0.0
 40
0.216506
 50
175.0
 51
355.0
  0
LINE
  5
64E
  8
0
 10
155.808021
 20
92.811419999999998
 30
0.0
 11
156.4204
 21
93.958344999999994
 31
0.0
  0
LINE
  5
64F
  8
0
 10
155.690988
 20
91.672877000000014
 30
0.0
 11
156.91127
 21
93.958344999999994
 31
0.0
  0
ARC
  5
650
  8
0
 10
157.0
 20
91.774850999999998
 30
0.0
 40
0.216506
 50
175.0
 51
355.0
  0
LINE
  5
651
  8
0
 10
156.97369800000001
 20
93.958344999999994
 30
0.0
 11
156.78431800000001
 21
91.793721000000005
 31
0.0
  0
LINE
  5
652
  8
0
 10
157.43461099999999
 20
94.258344999999977
 30
0.0
 11
157.21568199999999
 21
91.755981999999989
 31
0.0
  0
ARC
  5
653
  8
0
 10
158.5
 20
91.774850999999998
 30
0.0
 40
0.216506
 50
175.0
 51
212.555736
  0
LINE
  5
654
  8
0
 10
158.499944
 20
94.258344999999977
 30
0.0
 11
158.28431800000001
 21
91.793721000000005
 31
0.0
  0
LINE
  5
655
  8
0
 10
158.93461099999999
 20
94.258344999999977
 30
0.0
 11
158.71568199999999
 21
91.755981999999989
 31
0.0
  0
ARC
  5
656
  8
0
 10
160.0
 20
91.774850999999998
 30
0.0
 40
0.216506
 50
175.0
 51
212.555736
  0
LINE
  5
657
  8
0
 10
159.999944
 20
94.258344999999977
 30
0.0
 11
159.78431800000001
 21
91.793721000000005
 31
0.0
  0
LINE
  5
658
  8
0
 10
160.43461099999999
 20
94.258344999999977
 30
0.0
 11
160.21568199999999
 21
91.755981999999989
 31
0.0
  0
ARC
  5
659
  8
0
 10
166.285
 20
87.958344999999994
 30
0.0
 40
0.215
 50
270.0
 51
90.0
  0
LINE
  5
65A
  8
0
 10
164.59357399999999
 20
87.743345000000005
 30
0.0
 11
166.285
 21
87.743345000000005
 31
0.0
  0
LINE
  5
65B
  8
0
 10
164.59357399999999
 20
88.173344999999983
 30
0.0
 11
166.285
 21
88.173344999999983
 31
0.0
  0
LINE
  5
65C
  8
0
 10
164.29459
 20
89.642291
 30
0.0
 11
165.90153900000001
 21
90.164419999999993
 31
0.0
  0
LINE
  5
65D
  8
0
 10
164.46846500000001
 20
89.246657999999996
 30
0.0
 11
166.03441699999999
 21
89.755465999999984
 31
0.0
  0
ARC
  5
65E
  8
0
 10
165.96797799999999
 20
89.95994300000001
 30
0.0
 40
0.215
 50
288.0
 51
108.0
  0
LINE
  5
65F
  8
0
 10
163.36191199999999
 20
90.806392000000002
 30
0.0
 11
164.92157
 21
91.939549999999997
 31
0.0
  0
LINE
  5
660
  8
0
 10
163.6818889999999
 20
90.507358999999994
 30
0.0
 11
165.174318
 21
91.591672000000003
 31
0.0
  0
ARC
  5
661
  8
0
 10
165.047944
 20
91.765610999999979
 30
0.0
 40
0.215
 50
306.0
 51
126.0
  0
LINE
  5
662
  8
0
 10
162.10700700000001
 20
91.488860000000003
 30
0.0
 11
163.44102000000001
 21
93.324970999999991
 31
0.0
  0
LINE
  5
663
  8
0
 10
162.523269
 20
91.330235999999985
 30
0.0
 11
163.78889699999999
 21
93.072222999999994
 31
0.0
  0
ARC
  5
664
  8
0
 10
163.614958
 20
93.198597000000007
 30
0.0
 40
0.215
 50
324.0
 51
144.0
  0
LINE
  5
665
  8
0
 10
161.00132300000001
 20
91.716549999999984
 30
0.0
 11
161.76459500000001
 21
94.065659999999994
 31
0.0
  0
LINE
  5
666
  8
0
 10
161.426525
 20
91.633679000000001
 30
0.0
 11
162.17354900000001
 21
93.932783000000001
 31
0.0
  0
ARC
  5
667
  8
0
 10
161.96907200000001
 20
93.999220999999991
 30
0.0
 40
0.215
 50
342.0
 51
162.0
  0
ARC
  5
668
  8
0
 10
160.21562700000001
 20
94.239474999999999
 30
0.0
 40
0.216506
 50
355.0
 51
175.0
  0
ARC
  5
669
  8
0
 10
158.71562700000001
 20
94.239474999999999
 30
0.0
 40
0.216506
 50
355.0
 51
175.0
  0
ARC
  5
66A
  8
0
 10
157.21562700000001
 20
94.239474999999999
 30
0.0
 40
0.216506
 50
355.0
 51
94.139002000000005
  0
LINE
  5
66B
  8
0
 10
157.286496
 20
92.565387000000001
 30
0.0
 11
158.53793300000001
 21
94.363168000000002
 31
0.0
  0
LINE
  5
66C
  8
0
 10
157.177694
 20
91.651158999999993
 30
0.0
 11
158.42912999999999
 21
93.448938999999996
 31
0.0
  0
LINE
  5
66D
  8
0
 10
158.677694
 20
91.651158999999993
 30
0.0
 11
159.92912999999999
 21
93.448938999999996
 31
0.0
  0
LINE
  5
66E
  8
0
 10
158.786496
 20
92.565387000000001
 30
0.0
 11
160.03793300000001
 21
94.363168000000002
 31
0.0
  0
LINE
  5
66F
  8
0
 10
160.186015
 20
91.658344999999997
 30
0.0
 11
161.44423699999999
 21
93.079701
 31
0.0
  0
LINE
  5
670
  8
0
 10
160.27287999999999
 20
92.409750000000003
 30
0.0
 11
161.80695900000001
 21
94.142728000000005
 31
0.0
  0
LINE
  5
671
  8
0
 10
161.554113
 20
91.616618000000003
 30
0.0
 11
162.76555200000001
 21
92.395269999999996
 31
0.0
  0
LINE
  5
672
  8
0
 10
161.597238
 20
92.159080000000003
 30
0.0
 11
163.497895
 21
93.380725999999996
 31
0.0
  0
LINE
  5
673
  8
0
 10
162.91148699999999
 20
91.126343999999989
 30
0.0
 11
164.13127
 21
91.365363000000016
 31
0.0
  0
LINE
  5
674
  8
0
 10
162.65989999999999
 20
91.518291999999988
 30
0.0
 11
165.00631100000001
 21
91.978076999999999
 31
0.0
  0
LINE
  5
675
  8
0
 10
164.10697999999999
 20
89.967493000000005
 30
0.0
 11
164.972486
 21
89.862551999999994
 31
0.0
  0
LINE
  5
676
  8
0
 10
163.73654400000001
 20
90.448592000000005
 30
0.0
 11
165.99403799999999
 21
90.174874999999986
 31
0.0
  0
LINE
  5
677
  8
0
 10
164.664106
 20
88.472474000000005
 30
0.0
 11
165.30813499999999
 21
88.173344999999983
 31
0.0
  0
LINE
  5
678
  8
0
 10
164.549409
 20
89.003186999999997
 30
0.0
 11
166.37620200000001
 21
88.154705000000007
 31
0.0
  0
ARC
  5
679
  8
0
 10
161.20580000000001
 20
91.650111999999993
 30
0.0
 40
0.215
 50
162.0
 51
177.80534399999999
  0
ARC
  5
67A
  8
0
 10
161.20580000000001
 20
84.266577999999996
 30
0.0
 40
0.215
 50
182.19465600000001
 51
198.0
  0
LINE
  5
67B
  8
0
 10
164.549409
 20
86.913503000000006
 30
0.0
 11
166.37620200000001
 21
87.761984999999996
 31
0.0
  0
LINE
  5
67C
  8
0
 10
164.664106
 20
87.444215999999997
 30
0.0
 11
165.30813499999999
 21
87.743345000000005
 31
0.0
  0
LINE
  5
67D
  8
0
 10
163.73654400000001
 20
85.468097999999998
 30
0.0
 11
165.99403799999999
 21
85.741814999999988
 31
0.0
  0
LINE
  5
67E
  8
0
 10
164.10697999999999
 20
85.949196999999998
 30
0.0
 11
164.972486
 21
86.054137999999995
 31
0.0
  0
LINE
  5
67F
  8
0
 10
162.65989999999999
 20
84.398397999999986
 30
0.0
 11
165.00631100000001
 21
83.938613000000004
 31
0.0
  0
LINE
  5
680
  8
0
 10
162.91148699999999
 20
84.790346
 30
0.0
 11
164.13127
 21
84.551327000000001
 31
0.0
  0
LINE
  5
681
  8
0
 10
161.597238
 20
83.75761
 30
0.0
 11
163.497895
 21
82.535964000000007
 31
0.0
  0
LINE
  5
682
  8
0
 10
161.554113
 20
84.300072
 30
0.0
 11
162.76555200000001
 21
83.521419999999978
 31
0.0
  0
LINE
  5
683
  8
0
 10
160.27287999999999
 20
83.50694
 30
0.0
 11
161.80695900000001
 21
81.773961999999997
 31
0.0
  0
LINE
  5
684
  8
0
 10
160.186015
 20
84.258344999999977
 30
0.0
 11
161.44423699999999
 21
82.836989000000003
 31
0.0
  0
LINE
  5
685
  8
0
 10
158.786496
 20
83.351303000000016
 30
0.0
 11
160.03793300000001
 21
81.553522000000015
 31
0.0
  0
LINE
  5
686
  8
0
 10
158.68269599999999
 20
84.258344999999977
 30
0.0
 11
159.92912999999999
 21
82.467751000000007
 31
0.0
  0
LINE
  5
687
  8
0
 10
157.177694
 20
84.26553100000001
 30
0.0
 11
158.42912999999999
 21
82.467751000000007
 31
0.0
  0
LINE
  5
688
  8
0
 10
157.286496
 20
83.351303000000016
 30
0.0
 11
158.53793300000001
 21
81.553522000000015
 31
0.0
  0
ARC
  5
689
  8
0
 10
157.21562700000001
 20
81.677215000000004
 30
0.0
 40
0.216506
 50
185.0
 51
214.40006500000001
  0
ARC
  5
68A
  8
0
 10
158.71562700000001
 20
81.677215000000004
 30
0.0
 40
0.216506
 50
185.0
 51
5.0
  0
ARC
  5
68B
  8
0
 10
160.21562700000001
 20
81.677215000000004
 30
0.0
 40
0.216506
 50
185.0
 51
5.0
  0
ARC
  5
68C
  8
0
 10
161.96907200000001
 20
81.917468999999997
 30
0.0
 40
0.215
 50
198.0
 51
18.0
  0
LINE
  5
68D
  8
0
 10
161.426525
 20
84.283011000000002
 30
0.0
 11
162.17354900000001
 21
81.983906999999988
 31
0.0
  0
LINE
  5
68E
  8
0
 10
161.00132300000001
 20
84.200140000000005
 30
0.0
 11
161.76459500000001
 21
81.851030000000009
 31
0.0
  0
ARC
  5
68F
  8
0
 10
163.614958
 20
82.71809300000001
 30
0.0
 40
0.215
 50
216.0
 51
36.0
  0
LINE
  5
690
  8
0
 10
162.523269
 20
84.586453999999989
 30
0.0
 11
163.78889699999999
 21
82.844467000000009
 31
0.0
  0
LINE
  5
691
  8
0
 10
162.10700700000001
 20
84.42783
 30
0.0
 11
163.44102000000001
 21
82.591718999999998
 31
0.0
  0
ARC
  5
692
  8
0
 10
165.047944
 20
84.151078999999996
 30
0.0
 40
0.215
 50
234.0
 51
54.0
  0
LINE
  5
693
  8
0
 10
163.6818889999999
 20
85.409331000000009
 30
0.0
 11
165.174318
 21
84.325018
 31
0.0
  0
LINE
  5
694
  8
0
 10
163.36191199999999
 20
85.110298000000014
 30
0.0
 11
164.92157
 21
83.977140000000006
 31
0.0
  0
ARC
  5
695
  8
0
 10
165.96797799999999
 20
85.956746999999993
 30
0.0
 40
0.215
 50
252.0
 51
72.0
  0
LINE
  5
696
  8
0
 10
164.46846500000001
 20
86.670031999999992
 30
0.0
 11
166.03441699999999
 21
86.161224000000004
 31
0.0
  0
LINE
  5
697
  8
0
 10
164.29459
 20
86.274399000000003
 30
0.0
 11
165.90153900000001
 21
85.752269999999996
 31
0.0
  0
LINE
  5
698
  8
0
 10
164.693748
 20
87.743345000000005
 30
0.0
 11
166.285
 21
87.743345000000005
 31
0.0
  0
LINE
  5
699
  8
0
 10
164.693748
 20
88.173344999999983
 30
0.0
 11
166.285
 21
88.173344999999983
 31
0.0
  0
ARC
  5
69A
  8
0
 10
166.285
 20
87.958344999999994
 30
0.0
 40
0.215
 50
270.0
 51
90.0
  0
LINE
  5
69B
  8
0
 10
160.43461099999999
 20
81.658344999999997
 30
0.0
 11
160.21568199999999
 21
84.160707999999985
 31
0.0
  0
LINE
  5
69C
  8
0
 10
159.999944
 20
81.658344999999997
 30
0.0
 11
159.78431800000001
 21
84.122968999999983
 31
0.0
  0
ARC
  5
69D
  8
0
 10
160.0
 20
84.141839000000004
 30
0.0
 40
0.216506
 50
5.0
 51
32.555736000000003
  0
LINE
  5
69E
  8
0
 10
158.93461099999999
 20
81.658344999999997
 30
0.0
 11
158.71568199999999
 21
84.160707999999985
 31
0.0
  0
LINE
  5
69F
  8
0
 10
158.499944
 20
81.658344999999997
 30
0.0
 11
158.28431800000001
 21
84.122968999999983
 31
0.0
  0
ARC
  5
6A0
  8
0
 10
158.5
 20
84.141839000000004
 30
0.0
 40
0.216506
 50
5.0
 51
32.555736000000003
  0
LINE
  5
6A1
  8
0
 10
157.43461099999999
 20
81.658344999999997
 30
0.0
 11
157.21568199999999
 21
84.160707999999985
 31
0.0
  0
LINE
  5
6A2
  8
0
 10
156.999944
 20
81.658344999999997
 30
0.0
 11
156.78431800000001
 21
84.122968999999983
 31
0.0
  0
ARC
  5
6A3
  8
0
 10
157.0
 20
84.141839000000004
 30
0.0
 40
0.216506
 50
5.0
 51
185.0
  0
LINE
  5
6A4
  8
0
 10
155.690988
 20
84.243813000000003
 30
0.0
 11
156.98593099999999
 21
81.818511000000015
 31
0.0
  0
LINE
  5
6A5
  8
0
 10
155.808021
 20
83.105269999999976
 30
0.0
 11
156.633973
 21
81.558344999999989
 31
0.0
  0
ARC
  5
6A6
  8
0
 10
155.5
 20
84.141839000000004
 30
0.0
 40
0.216506
 50
5.0
 51
185.0
  0
LINE
  5
6A7
  8
0
 10
155.94336000000001
 20
81.558344999999989
 30
0.0
 11
155.71568199999999
 21
84.160707999999985
 31
0.0
  0
LINE
  5
6A8
  8
0
 10
155.50869299999999
 20
81.558344999999989
 30
0.0
 11
155.28431800000001
 21
84.122968999999983
 31
0.0
  0
LINE
  5
6A9
  8
0
 10
154.00869299999999
 20
81.558344999999989
 30
0.0
 11
153.78431800000001
 21
84.122968999999983
 31
0.0
  0
ARC
  5
6AA
  8
0
 10
154.0
 20
84.141839000000004
 30
0.0
 40
0.216506
 50
5.0
 51
185.0
  0
LINE
  5
6AB
  8
0
 10
154.19098799999989
 20
84.243813000000003
 30
0.0
 11
155.48593099999999
 21
81.818511000000015
 31
0.0
  0
LINE
  5
6AC
  8
0
 10
154.308021
 20
83.105269999999976
 30
0.0
 11
155.133973
 21
81.558344999999989
 31
0.0
  0
LINE
  5
6AD
  8
0
 10
154.44336000000001
 20
81.558344999999989
 30
0.0
 11
154.21568199999999
 21
84.160707999999985
 31
0.0
  0
LINE
  5
6AE
  8
0
 10
152.50869299999999
 20
81.558344999999989
 30
0.0
 11
152.28431800000001
 21
84.122968999999983
 31
0.0
  0
ARC
  5
6AF
  8
0
 10
152.5
 20
84.141839000000004
 30
0.0
 40
0.216506
 50
5.0
 51
185.0
  0
LINE
  5
6B0
  8
0
 10
152.690988
 20
84.243813000000003
 30
0.0
 11
153.98593099999999
 21
81.818511000000015
 31
0.0
  0
LINE
  5
6B1
  8
0
 10
152.808021
 20
83.105269999999976
 30
0.0
 11
153.633973
 21
81.558344999999989
 31
0.0
  0
LINE
  5
6B2
  8
0
 10
152.94336000000001
 20
81.558344999999989
 30
0.0
 11
152.71568199999999
 21
84.160707999999985
 31
0.0
  0
LINE
  5
6B3
  8
0
 10
151.00869299999999
 20
81.558344999999989
 30
0.0
 11
150.78431800000001
 21
84.122968999999983
 31
0.0
  0
ARC
  5
6B4
  8
0
 10
151.0
 20
84.141839000000004
 30
0.0
 40
0.216506
 50
5.0
 51
185.0
  0
LINE
  5
6B5
  8
0
 10
151.19098799999989
 20
84.243813000000003
 30
0.0
 11
152.48593099999999
 21
81.818511000000015
 31
0.0
  0
LINE
  5
6B6
  8
0
 10
151.308021
 20
83.105269999999976
 30
0.0
 11
152.133973
 21
81.558344999999989
 31
0.0
  0
LINE
  5
6B7
  8
0
 10
151.44336000000001
 20
81.558344999999989
 30
0.0
 11
151.21568199999999
 21
84.160707999999985
 31
0.0
  0
LINE
  5
6B8
  8
0
 10
149.690988
 20
84.243813000000003
 30
0.0
 11
150.98593099999999
 21
81.818511000000015
 31
0.0
  0
LINE
  5
6B9
  8
0
 10
149.808021
 20
83.105269999999976
 30
0.0
 11
150.633973
 21
81.558344999999989
 31
0.0
  0
ARC
  5
6BA
  8
0
 10
149.5
 20
84.141839000000004
 30
0.0
 40
0.216506
 50
5.0
 51
185.0
  0
LINE
  5
6BB
  8
0
 10
149.94336000000001
 20
81.558344999999989
 30
0.0
 11
149.71568199999999
 21
84.160707999999985
 31
0.0
  0
LINE
  5
6BC
  8
0
 10
149.50869299999999
 20
81.558344999999989
 30
0.0
 11
149.28431800000001
 21
84.122968999999983
 31
0.0
  0
ARC
  5
6BD
  8
0
 10
147.0
 20
84.141839000000004
 30
0.0
 40
0.216506
 50
0.0
 51
180.0
  0
LINE
  5
6BE
  8
0
 10
147.21650600000001
 20
81.558344999999989
 30
0.0
 11
147.21650600000001
 21
84.141839000000004
 31
0.0
  0
LINE
  5
6BF
  8
0
 10
148.00869299999999
 20
81.558344999999989
 30
0.0
 11
147.7843179999999
 21
84.122968999999983
 31
0.0
  0
LINE
  5
6C0
  8
0
 10
148.44336000000001
 20
81.558344999999989
 30
0.0
 11
148.21568199999999
 21
84.160707999999985
 31
0.0
  0
ARC
  5
6C1
  8
0
 10
148.0
 20
84.141839000000004
 30
0.0
 40
0.216506
 50
5.0
 51
185.0
  0
LINE
  5
6C2
  8
0
 10
148.308021
 20
83.105269999999976
 30
0.0
 11
149.133973
 21
81.558344999999989
 31
0.0
  0
LINE
  5
6C3
  8
0
 10
148.19098799999989
 20
84.243813000000003
 30
0.0
 11
149.48593099999999
 21
81.818511000000015
 31
0.0
  0
LINE
  5
6C4
  8
0
 10
147.333494
 20
81.558344999999989
 30
0.0
 11
147.333494
 21
84.141839000000004
 31
0.0
  0
LINE
  5
6C5
  8
0
 10
147.76650599999999
 20
81.558344999999989
 30
0.0
 11
147.76650599999999
 21
84.141839000000004
 31
0.0
  0
ARC
  5
6C6
  8
0
 10
147.55000000000001
 20
84.141839000000004
 30
0.0
 40
0.216506
 50
0.0
 51
180.0
  0
LINE
  5
6C7
  8
0
 10
148.006756
 20
81.558344999999989
 30
0.0
 11
147.76650599999999
 21
82.470241999999999
 31
0.0
  0
LINE
  5
6C8
  8
0
 10
147.330454
 20
81.558344999999989
 30
0.0
 11
147.21650600000001
 21
81.990849999999995
 31
0.0
  0
ARC
  5
6C9
  8
0
 10
135.5
 20
84.141839000000004
 30
0.0
 40
0.216506
 50
147.44426399999989
 51
175.0
  0
ARC
  5
6CA
  8
0
 10
134.0
 20
84.141839000000004
 30
0.0
 40
0.216506
 50
147.44426399999989
 51
175.0
  0
ARC
  5
6CB
  8
0
 10
134.0
 20
91.774850999999998
 30
0.0
 40
0.216506
 50
327.44426399999998
 51
5.0
  0
ARC
  5
6CC
  8
0
 10
135.5
 20
91.774850999999998
 30
0.0
 40
0.216506
 50
327.44426399999998
 51
5.0
  0
ARC
  5
6CD
  8
0
 10
158.5
 20
91.774850999999998
 30
0.0
 40
0.216506
 50
327.44426399999998
 51
355.0
  0
ARC
  5
6CE
  8
0
 10
160.0
 20
91.774850999999998
 30
0.0
 40
0.216506
 50
327.44426399999998
 51
355.0
  0
ARC
  5
6CF
  8
0
 10
160.0
 20
84.141839000000004
 30
0.0
 40
0.216506
 50
147.44426399999989
 51
185.0
  0
ARC
  5
6D0
  8
0
 10
158.5
 20
84.141839000000004
 30
0.0
 40
0.216506
 50
147.44426399999989
 51
185.0
  0
ARC
  5
6D1
  8
0
 10
157.21562700000001
 20
81.677215000000004
 30
0.0
 40
0.216506
 50
257.46511600000002
 51
5.0
  0
ARC
  5
6D2
  8
0
 10
136.78437299999999
 20
81.677215000000004
 30
0.0
 40
0.216506
 50
325.59993500000002
 51
355.0
  0
ARC
  5
6D3
  8
0
 10
148.0
 20
181.65842799999999
 30
0.0
 40
6.25
 50
270.0
 51
90.0
  0
ARC
  5
6D4
  8
0
 10
148.0
 20
181.65842799999999
 30
0.0
 40
9.25
 50
270.0
 51
90.0
  0
ARC
  5
6D5
  8
0
 10
146.0
 20
181.65842799999999
 30
0.0
 40
9.25
 50
90.0
 51
270.0
  0
ARC
  5
6D6
  8
0
 10
146.0
 20
181.65842799999999
 30
0.0
 40
6.25
 50
90.0
 51
270.0
  0
LINE
  5
6D7
  8
0
 10
146.0
 20
175.40842799999999
 30
0.0
 11
148.0
 21
175.40842799999999
 31
0.0
  0
LINE
  5
6D8
  8
0
 10
146.0
 20
172.40842799999999
 30
0.0
 11
148.0
 21
172.40842799999999
 31
0.0
  0
LINE
  5
6D9
  8
0
 10
146.0
 20
190.90842799999999
 30
0.0
 11
148.0
 21
190.90842799999999
 31
0.0
  0
LINE
  5
6DA
  8
0
 10
146.0
 20
187.90842799999999
 30
0.0
 11
148.0
 21
187.90842799999999
 31
0.0
  0
TEXT
  5
819
  8
0
 62
     3
 10
0.0
 20
0.0
 30
0.0
 40
10.0
  1
DK2-VT-W-F
  7
STANDARD1
  0
ENDSEC
  0
EOF
