  0
SECTION
  2
HEADER
  9
$ACADVER
  1
AC1009
  9
$INSBASE
 10
0.0
 20
0.0
 30
0.0
  9
$EXTMIN
 10
0.0
 20
-2.960436562073669
 30
0.0
  9
$EXTMAX
 10
1031.232551984353
 20
765.42915868146633
 30
0.0
  9
$LIMMIN
 10
0.0
 20
0.0
  9
$LIMMAX
 10
1125.0
 20
810.0
  9
$ORTHOMODE
 70
     1
  9
$REGENMODE
 70
     1
  9
$FILLMODE
 70
     1
  9
$QTEXTMODE
 70
     0
  9
$MIRRTEXT
 70
     0
  9
$DRAGMODE
 70
     2
  9
$LTSCALE
 40
30.0
  9
$OSMODE
 70
  3071
  9
$ATTMODE
 70
     1
  9
$TEXTSIZE
 40
0.2
  9
$TRACEWID
 40
0.05
  9
$TEXTSTYLE
  7
STANDARD
  9
$CLAYER
  8
0
  9
$CELTYPE
  6
BYLAYER
  9
$CECOLOR
 62
   256
  9
$DIMSCALE
 40
3.0
  9
$DIMASZ
 40
3.0
  9
$DIMEXO
 40
2.0
  9
$DIMDLI
 40
0.3799999999999999
  9
$DIMRND
 40
0.0
  9
$DIMDLE
 40
0.0
  9
$DIMEXE
 40
2.0
  9
$DIMTP
 40
0.0
  9
$DIMTM
 40
0.0
  9
$DIMTXT
 40
3.2000000000000002
  9
$DIMCEN
 40
0.09
  9
$DIMTSZ
 40
0.0
  9
$DIMTOL
 70
     0
  9
$DIMLIM
 70
     0
  9
$DIMTIH
 70
     0
  9
$DIMTOH
 70
     0
  9
$DIMSE1
 70
     0
  9
$DIMSE2
 70
     0
  9
$DIMTAD
 70
     1
  9
$DIMZIN
 70
     0
  9
$DIMBLK
  1

  9
$DIMASO
 70
     0
  9
$DIMSHO
 70
     0
  9
$DIMPOST
  1

  9
$DIMAPOST
  1

  9
$DIMALT
 70
     0
  9
$DIMALTD
 70
     2
  9
$DIMALTF
 40
25.399999999999999
  9
$DIMLFAC
 40
1.0
  9
$DIMTOFL
 70
     0
  9
$DIMTVP
 40
1.6000000000000001
  9
$DIMTIX
 70
     1
  9
$DIMSOXD
 70
     0
  9
$DIMSAH
 70
     0
  9
$DIMBLK1
  1

  9
$DIMBLK2
  1

  9
$DIMSTYLE
  2
STANDARD
  9
$DIMCLRD
 70
     0
  9
$DIMCLRE
 70
     0
  9
$DIMCLRT
 70
     0
  9
$DIMTFAC
 40
1.0
  9
$DIMGAP
 40
0.09
  9
$LUNITS
 70
     2
  9
$LUPREC
 70
     4
  9
$SKETCHINC
 40
0.1
  9
$FILLETRAD
 40
1.0
  9
$AUNITS
 70
     0
  9
$AUPREC
 70
     0
  9
$MENU
  1
E:\r13\win\SUPPORT\ACAD
  9
$ELEVATION
 40
0.0
  9
$PELEVATION
 40
0.0
  9
$THICKNESS
 40
0.0
  9
$LIMCHECK
 70
     0
  9
$BLIPMODE
 70
     0
  9
$CHAMFERA
 40
0.0
  9
$CHAMFERB
 40
0.0
  9
$SKPOLY
 70
     0
  9
$TDCREATE
 40
2448181.587614005
  9
$TDUPDATE
 40
2456598.608900371
  9
$TDINDWG
 40
0.0025334722
  9
$TDUSRTIMER
 40
0.0025334722
  9
$USRTIMER
 70
     1
  9
$ANGBASE
 50
0.0
  9
$ANGDIR
 70
     0
  9
$PDMODE
 70
     0
  9
$PDSIZE
 40
0.0
  9
$PLINEWID
 40
0.0
  9
$COORDS
 70
     1
  9
$SPLFRAME
 70
     0
  9
$SPLINETYPE
 70
     6
  9
$SPLINESEGS
 70
     8
  9
$ATTDIA
 70
     0
  9
$ATTREQ
 70
     1
  9
$HANDLING
 70
     1
  9
$HANDSEED
  5
41A
  9
$SURFTAB1
 70
     6
  9
$SURFTAB2
 70
     6
  9
$SURFTYPE
 70
     6
  9
$SURFU
 70
     6
  9
$SURFV
 70
     6
  9
$UCSNAME
  2

  9
$UCSORG
 10
0.0
 20
0.0
 30
0.0
  9
$UCSXDIR
 10
1.0
 20
0.0
 30
0.0
  9
$UCSYDIR
 10
0.0
 20
1.0
 30
0.0
  9
$PUCSNAME
  2

  9
$PUCSORG
 10
0.0
 20
0.0
 30
0.0
  9
$PUCSXDIR
 10
1.0
 20
0.0
 30
0.0
  9
$PUCSYDIR
 10
0.0
 20
1.0
 30
0.0
  9
$USERI1
 70
     0
  9
$USERI2
 70
     1
  9
$USERI3
 70
     0
  9
$USERI4
 70
     0
  9
$USERI5
 70
     0
  9
$USERR1
 40
0.0
  9
$USERR2
 40
0.0
  9
$USERR3
 40
0.0
  9
$USERR4
 40
0.0
  9
$USERR5
 40
0.0
  9
$WORLDVIEW
 70
     1
  9
$SHADEDGE
 70
     3
  9
$SHADEDIF
 70
    70
  9
$TILEMODE
 70
     1
  9
$MAXACTVP
 70
    16
  9
$PLIMCHECK
 70
     0
  9
$PEXTMIN
 10
1.0000000000000000E+020
 20
1.0000000000000000E+020
 30
1.0000000000000000E+020
  9
$PEXTMAX
 10
-1.0000000000000000E+020
 20
-1.0000000000000000E+020
 30
-1.0000000000000000E+020
  9
$PLIMMIN
 10
0.0
 20
0.0
  9
$PLIMMAX
 10
12.0
 20
9.0
  9
$UNITMODE
 70
     0
  9
$VISRETAIN
 70
     0
  9
$PLINEGEN
 70
     1
  9
$PSLTSCALE
 70
     0
  0
ENDSEC
  0
SECTION
  2
TABLES
  0
TABLE
  2
VPORT
 70
     1
  0
VPORT
  2
*ACTIVE
 70
     0
 10
0.0
 20
0.0
 11
1.0
 21
1.0
 12
585.00993858023253
 22
403.50448702520742
 13
0.0
 23
0.0
 14
30.0
 24
30.0
 15
30.0
 25
30.0
 16
0.0
 26
0.0
 36
1.0
 17
0.0
 27
0.0
 37
0.0
 40
820.28242528545559
 41
1.8318713450292401
 42
50.0
 43
0.0
 44
0.0
 50
0.0
 51
0.0
 71
     0
 72
   500
 73
     1
 74
     0
 75
     0
 76
     0
 77
     0
 78
     0
  0
ENDTAB
  0
TABLE
  2
LTYPE
 70
     4
  0
LTYPE
  2
CONTINUOUS
 70
     0
  3
Solid Line
 72
    65
 73
     0
 40
0.0
  0
LTYPE
  2
CENTER
 70
     0
  3
____ _ ____ _ ____ _ ____ _ ____ _ ____ _ ____
 72
    65
 73
     4
 40
2.0
 49
1.25
 49
-0.25
 49
0.25
 49
-0.25
  0
LTYPE
  2
HIDDEN
 70
     0
  3
_ _ _ _ _ _ _ _ _ _ _ _ _ _ _ _ _ _ _ _ _ _ _
 72
    65
 73
     2
 40
0.375
 49
0.25
 49
-0.125
  0
LTYPE
  2
PHANTOM2
 70
     0
  3
___ _ _ ___ _ _ ___ _ _ ___ _ _
 72
    65
 73
     6
 40
1.25
 49
0.625
 49
-0.125
 49
0.125
 49
-0.125
 49
0.125
 49
-0.125
  0
ENDTAB
  0
TABLE
  2
LAYER
 70
     4
  0
LAYER
  2
0
 70
     0
 62
     7
  6
CONTINUOUS
  0
LAYER
  2
1
 70
     0
 62
     1
  6
CENTER
  0
LAYER
  2
3
 70
     0
 62
     3
  6
CONTINUOUS
  0
LAYER
  2
2
 70
     0
 62
     2
  6
HIDDEN
  0
ENDTAB
  0
TABLE
  2
STYLE
 70
     2
  0
STYLE
  2
STANDARD
 70
     0
 40
0.0
 41
1.0
 50
0.0
 71
     0
 42
0.2
  3
TXT
  4
BIGFONT
  0
STYLE
  2
STANDARD1
 70
     0
 40
0.0
 41
1.0
 50
0.0
 71
     0
 42
3.0
  3
txt
  4

  0
ENDTAB
  0
TABLE
  2
VIEW
 70
     1
  0
VIEW
  2
ALL
 70
     0
 40
810.0
 10
662.97478991596643
 20
405.0
 41
0.0
 11
0.0
 21
0.0
 31
1.0
 12
0.0
 22
0.0
 32
0.0
 42
0.0
 43
0.0
 44
0.0
 50
0.0
 71
     0
  0
ENDTAB
  0
TABLE
  2
UCS
 70
     0
  0
ENDTAB
  0
TABLE
  2
APPID
 70
     3
  0
APPID
  2
ACAD
 70
     0
  0
APPID
  2
ACAD_MLEADERVER
 70
     0
  0
APPID
  2
ACAD_NAV_VCDISPLAY
 70
     0
  0
ENDTAB
  0
TABLE
  2
DIMSTYLE
 70
     1
  0
DIMSTYLE
  2
STANDARD
 70
     0
  3

  4

  5

  6

  7

 40
1.0
 41
0.18
 42
0.0625
 43
0.38
 44
0.18
 45
0.0
 46
0.0
 47
0.0
 48
0.0
140
0.18
141
0.09
142
0.0
143
25.399999999999999
144
1.0
145
0.0
146
1.0
147
0.09
 71
     0
 72
     0
 73
     1
 74
     1
 75
     0
 76
     0
 77
     0
 78
     0
170
     0
171
     2
172
     0
173
     0
174
     0
175
     0
176
     0
177
     0
178
     0
  0
ENDTAB
  0
ENDSEC
  0
SECTION
  2
BLOCKS
  0
BLOCK
  8
0
  2
$MODEL_SPACE
 70
     0
 10
0.0
 20
0.0
 30
0.0
  3
$MODEL_SPACE
  1

  0
ENDBLK
  5
2C2
  8
0
  0
BLOCK
 67
     1
  8
0
  2
$PAPER_SPACE
 70
     0
 10
0.0
 20
0.0
 30
0.0
  3
$PAPER_SPACE
  1

  0
ENDBLK
  5
2C0
 67
     1
  8
0
  0
ENDSEC
  0
SECTION
  2
ENTITIES
  0
LINE
  5
36
  8
1
 10
92.499999999999844
 20
390.0
 30
0.0
 11
322.4999999999996
 21
390.0
 31
0.0
  0
LINE
  5
37
  8
1
 10
207.4999999999998
 20
505.0
 30
0.0
 11
207.4999999999998
 21
275.0
 31
0.0
  0
LINE
  5
38
  8
1
 10
186.49999999999949
 20
474.99999999999989
 30
0.0
 11
228.49999999999949
 21
475.0
 31
0.0
  0
LINE
  5
39
  8
1
 10
619.88139312784278
 20
475.0
 30
0.0
 11
485.38139312784261
 21
475.0
 31
0.0
  0
LINE
  5
3A
  8
0
 10
646.88139312784267
 20
412.00000000000051
 30
0.0
 11
646.88139312784256
 21
367.99999999999937
 31
0.0
  0
LINE
  5
3B
  8
0
 10
619.88139312784267
 20
428.46964077120742
 30
0.0
 11
619.88139312784267
 21
351.53035922879258
 31
0.0
  0
LINE
  5
3C
  8
0
 10
609.88139312784256
 20
296.15686516701578
 30
0.0
 11
609.88139312784256
 21
483.84313483298422
 31
0.0
  0
LINE
  5
3D
  8
0
 10
584.88139312784267
 20
483.84314144023409
 30
0.0
 11
584.88139312784267
 21
296.15686516701538
 31
0.0
  0
LINE
  5
3E
  8
1
 10
661.88139312784267
 20
390.0
 30
0.0
 11
569.88139312784278
 21
390.0
 31
0.0
  0
ARC
  5
3F
  8
0
 10
597.38139312784278
 20
315.99999999999989
 30
0.0
 40
25.0
 50
244.4169980226014
 51
295.58300197739868
  0
ARC
  5
40
  8
0
 10
587.88139312784256
 20
296.15686516701538
 30
0.0
 40
3.0
 50
179.99999999999969
 51
244.4169980226014
  0
ARC
  5
41
  8
0
 10
606.88139312784267
 20
296.15686516701578
 30
0.0
 40
3.0
 50
295.58300197739879
 51
0.0
  0
LINE
  5
42
  8
2
 10
591.88139312784267
 20
352.15000000000032
 30
0.0
 11
612.48139312784269
 21
352.15000000000032
 31
0.0
  0
LINE
  5
43
  8
0
 10
643.88139312784256
 20
364.99999999999949
 30
0.0
 11
622.88139312784256
 21
364.99999999999949
 31
0.0
  0
ARC
  5
44
  8
0
 10
622.88139312784256
 20
361.99999999999937
 30
0.0
 40
3.0
 50
90.0
 51
179.99999999999989
  0
ARC
  5
45
  8
0
 10
643.88139312784256
 20
367.99999999999937
 30
0.0
 40
3.0
 50
270.0
 51
0.0
  0
LINE
  5
46
  8
2
 10
591.88139312784267
 20
432.99999999999977
 30
0.0
 11
591.88139312784267
 21
427.84999999999968
 31
0.0
  0
LINE
  5
47
  8
2
 10
612.88139312784256
 20
427.4499999999997
 30
0.0
 11
612.88139312784267
 21
352.5500000000003
 31
0.0
  0
LINE
  5
48
  8
2
 10
615.88139312784267
 20
419.50000381469698
 30
0.0
 11
615.88139312784278
 21
360.50000000000023
 31
0.0
  0
ARC
  5
49
  8
2
 10
612.88139312784267
 20
360.50000000000023
 30
0.0
 40
3.0
 50
270.0
 51
0.0000000000000127
  0
ARC
  5
4A
  8
2
 10
612.48139312784269
 20
352.5500000000003
 30
0.0
 40
0.4
 50
270.0
 51
0.0000000000000127
  0
LINE
  5
4B
  8
2
 10
592.38139312784256
 20
352.1500000000002
 30
0.0
 11
591.88139312784256
 21
351.6500000000002
 31
0.0
  0
ARC
  5
4C
  8
2
 10
592.88139312784267
 20
347.00000000000023
 30
0.0
 40
1.0
 50
180.0
 51
248.46600021003809
  0
LINE
  5
4D
  8
2
 10
591.92574090606217
 20
308.9215005574934
 30
0.0
 11
593.77746612959413
 21
344.1042798045969
 31
0.0
  0
LINE
  5
4E
  8
2
 10
602.78507810009933
 20
305.95963374935508
 30
0.0
 11
604.75052509712498
 21
343.30312669284137
 31
0.0
  0
LINE
  5
4F
  8
2
 10
607.58937071639355
 20
346.14133879773681
 30
0.0
 11
609.88139312784256
 21
346.26145860238779
 31
0.0
  0
ARC
  5
50
  8
2
 10
591.78023067114793
 20
344.20940127500188
 30
0.0
 40
2.0
 50
356.98710336458572
 51
68.465973336092532
  0
ARC
  5
51
  8
2
 10
607.74637858512256
 20
343.1454501934731
 30
0.0
 40
3.0
 50
92.999999999999858
 51
176.98721249581661
  0
LINE
  5
52
  8
2
 10
646.38139312784244
 20
380.99999999999841
 30
0.0
 11
615.88139312784267
 21
380.99999999999841
 31
0.0
  0
LINE
  5
53
  8
2
 10
646.38139312784244
 20
380.99999999999841
 30
0.0
 11
646.88139312784244
 21
380.49999999999841
 31
0.0
  0
LINE
  5
54
  8
2
 10
646.38139312784244
 20
399.00000000000159
 30
0.0
 11
646.88139312784244
 21
399.50000000000159
 31
0.0
  0
LINE
  5
55
  8
2
 10
646.38139312784244
 20
399.00000000000159
 30
0.0
 11
615.88139312784267
 21
399.00000000000159
 31
0.0
  0
LINE
  5
56
  8
2
 10
646.38139312784244
 20
380.99999999999841
 30
0.0
 11
646.38139312784244
 21
399.00000000000159
 31
0.0
  0
LINE
  5
57
  8
1
 10
636.88139312784267
 20
402.49999999999528
 30
0.0
 11
636.88139312784267
 21
354.99999999999937
 31
0.0
  0
CIRCLE
  5
58
  8
2
 10
636.88139312784267
 20
390.0
 30
0.0
 40
2.5
  0
CIRCLE
  5
59
  8
2
 10
636.88139312784267
 20
390.0
 30
0.0
 40
2.0669999999999988
  0
LINE
  5
5A
  8
2
 10
634.38139312784256
 20
380.99999999999841
 30
0.0
 11
634.38139312784256
 21
364.99999999999937
 31
0.0
  0
LINE
  5
5B
  8
2
 10
634.81439312784357
 20
380.99999999999841
 30
0.0
 11
634.81439312784357
 21
364.99999999999949
 31
0.0
  0
LINE
  5
5C
  8
2
 10
638.94839312784165
 20
380.99999999999841
 30
0.0
 11
638.94839312784165
 21
364.99999999999949
 31
0.0
  0
LINE
  5
5D
  8
2
 10
639.38139312784256
 20
380.99999999999841
 30
0.0
 11
639.38139312784256
 21
364.99999999999937
 31
0.0
  0
LINE
  5
5E
  8
2
 10
585.38139312784256
 20
302.51517244269871
 30
0.0
 11
589.43265176529553
 21
304.85416769397489
 31
0.0
  0
LINE
  5
5F
  8
2
 10
609.38139312784244
 20
299.62842109675069
 30
0.0
 11
604.77932988046416
 21
302.2854235607312
 31
0.0
  0
ARC
  5
60
  8
0
 10
614.88139312784256
 20
351.53035922879258
 30
0.0
 40
5.0
 50
273.0
 51
0.0
  0
CIRCLE
  5
61
  8
0
 10
207.4999999999998
 20
390.0
 30
0.0
 40
44.0
  0
ARC
  5
62
  8
0
 10
207.4999999999998
 20
390.0
 30
0.0
 40
87.773502691896084
 50
100.8479812823212
 51
79.152018717678729
  0
ARC
  5
63
  8
0
 10
207.4999999999998
 20
390.0
 30
0.0
 40
83.788804248470939
 50
255.7569134484377
 51
284.24308655156233
  0
ARC
  5
64
  8
0
 10
207.4999999999998
 20
390.0
 30
0.0
 40
82.618802153516853
 50
288.67962348467961
 51
71.320376515320376
  0
LINE
  5
65
  8
0
 10
184.9999999999998
 20
468.79003551304061
 30
0.0
 11
184.9999999999998
 21
432.11591148247891
 31
0.0
  0
LINE
  5
66
  8
0
 10
229.9999999999998
 20
468.79003551304061
 30
0.0
 11
229.9999999999998
 21
432.11591148247891
 31
0.0
  0
ARC
  5
67
  8
0
 10
207.4999999999998
 20
390.0
 30
0.0
 40
82.618802153516853
 50
108.6796234846796
 51
251.32037651532039
  0
ARC
  5
68
  8
0
 10
181.9999999999998
 20
314.57517877806498
 30
0.0
 40
3.0
 50
251.3203765153207
 51
0.0
  0
ARC
  5
69
  8
0
 10
232.9999999999998
 20
314.57517877806498
 30
0.0
 40
3.0
 50
180.0
 51
288.67962348467933
  0
ARC
  5
6A
  8
0
 10
181.9999999999998
 20
465.42482122193502
 30
0.0
 40
3.0
 50
0.0
 51
108.67962348467979
  0
ARC
  5
6B
  8
0
 10
232.9999999999998
 20
465.42482122193502
 30
0.0
 40
3.0
 50
71.320376515320362
 51
180.0
  0
LINE
  5
6C
  8
0
 10
229.9999999999998
 20
347.88408851752098
 30
0.0
 11
229.9999999999998
 21
311.20996448695928
 31
0.0
  0
LINE
  5
6D
  8
0
 10
184.9999999999998
 20
347.88408851752098
 30
0.0
 11
184.9999999999998
 21
311.20996448695928
 31
0.0
  0
ARC
  5
6E
  8
0
 10
176.99999999999969
 20
432.11591148247891
 30
0.0
 40
8.0
 50
305.91174977950482
 51
0.0
  0
ARC
  5
6F
  8
0
 10
237.9999999999998
 20
432.11591148247891
 30
0.0
 40
8.0
 50
180.0
 51
234.08825022049541
  0
ARC
  5
70
  8
0
 10
237.9999999999998
 20
347.88408851752098
 30
0.0
 40
8.0
 50
125.9117497795045
 51
180.0
  0
ARC
  5
71
  8
0
 10
176.99999999999969
 20
347.88408851752098
 30
0.0
 40
8.0
 50
0.0
 51
54.088250220495418
  0
ARC
  5
72
  8
0
 10
187.4999999999998
 20
311.20996448695928
 30
0.0
 40
2.5
 50
180.0
 51
255.7569134484373
  0
ARC
  5
73
  8
0
 10
227.4999999999998
 20
311.20996448695928
 30
0.0
 40
2.5
 50
284.24308655156278
 51
0.0
  0
ARC
  5
74
  8
0
 10
187.4999999999998
 20
468.79003551304072
 30
0.0
 40
2.5
 50
104.2430865515627
 51
180.0
  0
ARC
  5
75
  8
0
 10
207.4999999999998
 20
390.0
 30
0.0
 40
83.788804248470939
 50
75.7569134484377
 51
78.571921172503124
  0
ARC
  5
76
  8
0
 10
227.4999999999998
 20
468.79003551304072
 30
0.0
 40
2.5
 50
0.0
 51
75.756913448437146
  0
LINE
  5
77
  8
2
 10
169.73265299229999
 20
387.5
 30
0.0
 11
163.5710801407545
 21
387.5
 31
0.0
  0
LINE
  5
78
  8
2
 10
169.70648189173141
 20
387.93299999999942
 30
0.0
 11
163.54857782733291
 21
387.93299999999942
 31
0.0
  0
LINE
  5
79
  8
2
 10
169.70648189173141
 20
392.06700000000058
 30
0.0
 11
163.54857782733291
 21
392.06700000000058
 31
0.0
  0
LINE
  5
7A
  8
2
 10
169.73265299229999
 20
392.5
 30
0.0
 11
163.5710801407545
 21
392.5
 31
0.0
  0
ARC
  5
7B
  8
2
 10
585.88139312784256
 20
301.64914703891429
 30
0.0
 40
1.0
 50
119.9999999999999
 51
179.99999999999989
  0
ARC
  5
7C
  8
2
 10
608.88139312784244
 20
298.76239569296621
 30
0.0
 40
1.0
 50
0.0
 51
59.999999999999957
  0
ARC
  5
7D
  8
2
 10
606.77954941742928
 20
305.74939841686398
 30
0.0
 40
4.0
 50
176.98721249581661
 51
240.00000000000031
  0
ARC
  5
7E
  8
2
 10
586.93265175939973
 20
309.1842947231072
 30
0.0
 40
5.0
 50
300.0
 51
356.98721249581661
  0
ARC
  5
7F
  8
0
 10
606.88139312784267
 20
483.84313483298422
 30
0.0
 40
3.0
 50
0.0
 51
64.416998022601163
  0
ARC
  5
80
  8
0
 10
587.88139312784256
 20
483.8431348329845
 30
0.0
 40
3.0
 50
115.5830019773985
 51
180.00000000000031
  0
ARC
  5
81
  8
0
 10
597.38139312784278
 20
464.00000000000011
 30
0.0
 40
25.0
 50
64.416998022601277
 51
115.5830019773985
  0
ARC
  5
82
  8
0
 10
614.88139312784256
 20
428.46964077120742
 30
0.0
 40
5.0
 50
0.0
 51
86.999999999999986
  0
ARC
  5
83
  8
2
 10
607.74637858512256
 20
436.8545498065269
 30
0.0
 40
3.0
 50
183.01278750418339
 51
267.00000000000011
  0
ARC
  5
84
  8
2
 10
591.78023067114793
 20
435.79059872499812
 30
0.0
 40
2.0
 50
291.53402666390753
 51
3.0128966354142839
  0
LINE
  5
85
  8
2
 10
607.58937071639355
 20
433.85866120226308
 30
0.0
 11
609.88139312784256
 21
433.73854139761221
 31
0.0
  0
ARC
  5
86
  8
2
 10
592.88139312784267
 20
432.99999999999977
 30
0.0
 40
1.0
 50
111.5339997899619
 51
180.0
  0
LINE
  5
87
  8
2
 10
592.38139312784256
 20
427.8499999999998
 30
0.0
 11
591.88139312784256
 21
428.3499999999998
 31
0.0
  0
ARC
  5
88
  8
2
 10
612.88139312784267
 20
419.49999999999972
 30
0.0
 40
3.0
 50
0.0
 51
90.0
  0
ARC
  5
89
  8
0
 10
622.88139312784256
 20
418.00000000000051
 30
0.0
 40
3.0
 50
180.0
 51
270.0
  0
LINE
  5
8A
  8
2
 10
591.88139312784267
 20
427.84999999999968
 30
0.0
 11
612.48139312784269
 21
427.84999999999968
 31
0.0
  0
LINE
  5
8B
  8
2
 10
602.85888023515247
 20
472.63812568463339
 30
0.0
 11
604.75052509712498
 21
436.69687330715863
 31
0.0
  0
LINE
  5
8C
  8
2
 10
592.64865792084629
 20
457.34307616160982
 30
0.0
 11
593.77746612959413
 21
435.8957201954031
 31
0.0
  0
LINE
  5
8D
  8
0
 10
643.88139312784278
 20
415.00000000000051
 30
0.0
 11
622.88139312784256
 21
415.00000000000051
 31
0.0
  0
ARC
  5
8E
  8
0
 10
643.88139312784278
 20
412.00000000000051
 30
0.0
 40
3.0
 50
0.0
 51
90.0
  0
ARC
  5
8F
  8
2
 10
612.48139312784269
 20
427.4499999999997
 30
0.0
 40
0.4
 50
0.0000000000000509
 51
89.999999999999844
  0
LINE
  5
90
  8
2
 10
585.62257286402792
 20
462.80140251038853
 30
0.0
 11
588.94966399969644
 21
461.90991112744132
 31
0.0
  0
ARC
  5
91
  8
0
 10
207.4999999999998
 20
390.0
 30
0.0
 40
83.788804248470939
 50
101.4280788274968
 51
104.2430865515623
  0
ARC
  5
92
  8
2
 10
585.88139694254414
 20
463.76732698797838
 30
0.0
 40
1.0
 50
180.0
 51
255.0
  0
ARC
  5
93
  8
2
 10
587.65556877418385
 20
457.0802819959959
 30
0.0
 40
5.0
 50
3.012787504183378
 51
74.999999999999787
  0
ARC
  5
94
  8
2
 10
610.8478232702505
 20
473.05858874129672
 30
0.0
 40
8.0
 50
96.938492559704926
 51
183.01273293819321
  0
LINE
  5
95
  8
1
 10
601.88139312784278
 20
402.50000000000011
 30
0.0
 11
601.88139312784278
 21
377.50000000000421
 31
0.0
  0
POLYLINE
  5
96
  8
2
 66
     1
 10
0.0
 20
0.0
 30
0.0
 70
     1
  0
VERTEX
  5
97
  8
2
 10
599.49462711501269
 20
390.0
 30
0.0
 42
0.111997634476828
 50
90.0
  0
VERTEX
  5
98
  8
2
 10
599.6706062938074
 20
389.22421669870982
 30
0.0
 42
0.1030981112244734
 50
90.0
  0
VERTEX
  5
99
  8
2
 10
600.19369469506501
 20
388.53841028328782
 30
0.0
 42
0.0925889459849478
 70
     2
 50
319.10660535087618
  0
VERTEX
  5
9A
  8
2
 10
601.02508097056159
 20
388.0523216986129
 30
0.0
 42
0.1033502854018543
 50
319.10660535087618
  0
VERTEX
  5
9B
  8
2
 10
601.88139312784256
 20
387.93300000000062
 30
0.0
 42
0.0863188075832319
 50
90.0
  0
VERTEX
  5
9C
  8
2
 10
602.80981861893918
 20
388.0944843724551
 30
0.0
 42
0.0925889459849494
 50
90.0
  0
VERTEX
  5
9D
  8
2
 10
603.56909156062022
 20
388.53841028328782
 30
0.0
 42
0.1030981112244951
 70
     2
 50
40.893394649123763
  0
VERTEX
  5
9E
  8
2
 10
604.09217996187783
 20
389.22421669870982
 30
0.0
 42
0.1119976344768429
 50
40.893394649123763
  0
VERTEX
  5
9F
  8
2
 10
604.26815914067254
 20
390.0
 30
0.0
 42
0.1119976344768447
 50
90.0
  0
VERTEX
  5
A0
  8
2
 10
604.09217996187783
 20
390.77578330129018
 30
0.0
 42
0.1030981112244841
 50
90.0
  0
VERTEX
  5
A1
  8
2
 10
603.56909156062022
 20
391.46158971671218
 30
0.0
 42
0.0925889459849435
 70
     2
 50
139.10660535087621
  0
VERTEX
  5
A2
  8
2
 10
602.80981861893918
 20
391.90551562754501
 30
0.0
 42
0.0863188075832287
 50
139.10660535087621
  0
VERTEX
  5
A3
  8
2
 10
601.88139312784256
 20
392.06699999999938
 30
0.0
 42
0.0863188075832356
 50
90.0
  0
VERTEX
  5
A4
  8
2
 10
600.95296763674605
 20
391.90551562754501
 30
0.0
 42
0.0925889459849533
 50
90.0
  0
VERTEX
  5
A5
  8
2
 10
600.19369469506501
 20
391.46158971671218
 30
0.0
 42
0.1030981112244902
 70
     2
 50
220.89339464912379
  0
VERTEX
  5
A6
  8
2
 10
599.6706062938074
 20
390.77578330129018
 30
0.0
 42
0.1119976344768535
 50
220.89339464912379
  0
SEQEND
  5
A7
  8
2
  0
POLYLINE
  5
A8
  8
2
 66
     1
 10
0.0
 20
0.0
 30
0.0
 70
     1
  0
VERTEX
  5
A9
  8
2
 10
601.88139312784256
 20
392.49999999999949
 30
0.0
 42
0.0863188075832333
 50
90.0
  0
VERTEX
  5
AA
  8
2
 10
600.75847889090915
 20
392.30468750307841
 30
0.0
 42
0.0925889459849504
 50
90.0
  0
VERTEX
  5
AB
  8
2
 10
599.84015167552343
 20
391.76776695296599
 30
0.0
 42
0.1030981112244885
 70
     2
 50
220.89339464912621
  0
VERTEX
  5
AC
  8
2
 10
599.15729221217805
 20
390.87248921469472
 30
0.0
 42
0.1316659673917583
 50
220.89339464912621
  0
VERTEX
  5
AD
  8
2
 10
598.99464178189464
 20
390.0
 30
0.0
 42
0.1119976344768381
 50
90.0
  0
VERTEX
  5
AE
  8
2
 10
599.20748549112864
 20
389.06170379621398
 30
0.0
 42
0.1030981112244846
 50
90.0
  0
VERTEX
  5
AF
  8
2
 10
599.84015167552343
 20
388.23223304703401
 30
0.0
 42
0.0925889459849512
 70
     2
 50
319.10660535087379
  0
VERTEX
  5
B0
  8
2
 10
600.75847889090915
 20
387.6953124969217
 30
0.0
 42
0.0863188075832369
 50
319.10660535087379
  0
VERTEX
  5
B1
  8
2
 10
601.88139312784256
 20
387.5000000000004
 30
0.0
 42
0.0863188075832328
 50
90.0
  0
VERTEX
  5
B2
  8
2
 10
603.00430736477608
 20
387.6953124969217
 30
0.0
 42
0.0925889459849472
 50
90.0
  0
VERTEX
  5
B3
  8
2
 10
603.92263458016191
 20
388.23223304703401
 30
0.0
 42
0.1030981112244873
 70
     2
 50
40.893394649126208
  0
VERTEX
  5
B4
  8
2
 10
604.55530076455659
 20
389.06170379621398
 30
0.0
 42
0.1119976344768397
 50
40.893394649126208
  0
VERTEX
  5
B5
  8
2
 10
604.76814447379058
 20
390.0
 30
0.0
 42
0.1119976344768406
 50
90.0
  0
VERTEX
  5
B6
  8
2
 10
604.55530076455659
 20
390.93829620378602
 30
0.0
 42
0.1030981112244899
 50
90.0
  0
VERTEX
  5
B7
  8
2
 10
603.92263458016191
 20
391.76776695296599
 30
0.0
 42
0.0925889459849496
 70
     2
 50
139.10660535087379
  0
VERTEX
  5
B8
  8
2
 10
603.00430736477608
 20
392.30468750307841
 30
0.0
 42
0.0863188075832359
 50
139.10660535087379
  0
SEQEND
  5
B9
  8
2
  0
LINE
  5
BA
  8
2
 10
597.38139312784415
 20
479.99999999999841
 30
0.0
 11
606.8707879752651
 21
479.99999999999852
 31
0.0
  0
LINE
  5
BB
  8
2
 10
598.19339312784575
 20
479.18799999999692
 30
0.0
 11
605.70678080576158
 21
479.18799999999698
 31
0.0
  0
LINE
  5
BC
  8
2
 10
591.88139312784267
 20
352.15000000000032
 30
0.0
 11
591.88139312784267
 21
347.00000000000023
 31
0.0
  0
LINE
  5
BD
  8
2
 10
615.28139312784174
 20
388.19999999999891
 30
0.0
 11
615.28139312784174
 21
388.19999999999891
 31
0.0
  0
LINE
  5
BE
  8
2
 10
615.88139312784278
 20
391.20000000000039
 30
0.0
 11
615.78139312784515
 21
391.29999999999802
 31
0.0
  0
LINE
  5
BF
  8
2
 10
615.88139312784278
 20
388.79999999999973
 30
0.0
 11
615.78139312784822
 21
388.70000000000522
 31
0.0
  0
ARC
  5
C0
  8
2
 10
610.06889312784369
 20
389.99999999999773
 30
0.0
 40
5.7115655439868123
 50
339.28036122274978
 51
20.71963877730083
  0
LINE
  5
C1
  8
2
 10
613.38139312784267
 20
392.02072594207141
 30
0.0
 11
615.41105070978438
 21
392.02072594207141
 31
0.0
  0
ARC
  5
C2
  8
2
 10
614.21799290208401
 20
393.03108891317981
 30
0.0
 40
1.5634002257586559
 50
319.73979101933088
 51
19.739791019247502
  0
ARC
  5
C3
  8
2
 10
614.21799290208401
 20
386.9689110868203
 30
0.0
 40
1.5634002257586559
 50
340.26020898075262
 51
40.260208980669169
  0
ARC
  5
C4
  8
2
 10
614.21799290208401
 20
386.9689110868203
 30
0.0
 40
1.5634002257586559
 50
319.73979101933168
 51
319.7397910194257
  0
LINE
  5
C5
  8
2
 10
613.38139312784267
 20
387.97927405792882
 30
0.0
 11
615.41105070978438
 21
387.97927405792882
 31
0.0
  0
LINE
  5
C6
  8
2
 10
615.78139312784265
 20
393.40000000001362
 30
0.0
 11
615.78139312785049
 21
386.60000000000048
 31
0.0
  0
LINE
  5
C7
  8
2
 10
613.38139312784267
 20
394.04145188428822
 30
0.0
 11
615.41105070978438
 21
394.04145188428822
 31
0.0
  0
LINE
  5
C8
  8
2
 10
615.41105070978438
 20
394.04145188428822
 30
0.0
 11
615.78139312784265
 21
393.40000000001362
 31
0.0
  0
LINE
  5
C9
  8
2
 10
615.41105070978438
 20
385.95854811571201
 30
0.0
 11
615.78139312784265
 21
386.59999999998661
 31
0.0
  0
LINE
  5
CA
  8
2
 10
613.38139312784267
 20
385.95854811571201
 30
0.0
 11
615.41105070978438
 21
385.95854811571201
 31
0.0
  0
LINE
  5
CB
  8
2
 10
613.38139312784267
 20
394.50000000000011
 30
0.0
 11
613.38139312784267
 21
385.50000000000011
 31
0.0
  0
LINE
  5
CC
  8
2
 10
612.88139312784267
 20
394.50000000000011
 30
0.0
 11
613.38139312784267
 21
394.50000000000011
 31
0.0
  0
LINE
  5
CD
  8
2
 10
612.88139312784267
 20
385.50000000000011
 30
0.0
 11
613.38139312784267
 21
385.50000000000011
 31
0.0
  0
LINE
  5
CE
  8
2
 10
608.88139312784267
 20
352.2000000000117
 30
0.0
 11
608.88139312784267
 21
427.85000000000002
 31
0.0
  0
LINE
  5
CF
  8
2
 10
590.88139312784278
 20
427.61779368939398
 30
0.0
 11
590.88139312784267
 21
353.15000000000009
 31
0.0
  0
ARC
  5
D0
  8
2
 10
589.89437206705941
 20
423.61779368939398
 30
0.0
 40
1.0
 50
180.0
 51
270.0
  0
ARC
  5
D1
  8
2
 10
589.89437206705941
 20
426.61779368939398
 30
0.0
 40
1.0
 50
90.0
 51
180.0
  0
LINE
  5
D2
  8
2
 10
589.89437206705941
 20
427.61779368939398
 30
0.0
 11
590.88139312784278
 21
427.61779368939398
 31
0.0
  0
LINE
  5
D3
  8
2
 10
588.89437206705941
 20
423.61779368939398
 30
0.0
 11
588.89437206705941
 21
426.61779368939398
 31
0.0
  0
LINE
  5
D4
  8
2
 10
590.89437206705975
 20
422.61779368939398
 30
0.0
 11
589.89437206705941
 21
422.61779368939398
 31
0.0
  0
LINE
  5
D5
  8
1
 10
578.89437206705941
 20
425.14999999999429
 30
0.0
 11
600.88139312784267
 21
425.14999999999429
 31
0.0
  0
ARC
  5
D6
  8
2
 10
591.88139312784267
 20
426.85000000000002
 30
0.0
 40
1.0
 50
90.0
 51
179.99999999999989
  0
ARC
  5
D7
  8
2
 10
591.88139312784256
 20
353.15000000000009
 30
0.0
 40
1.0
 50
180.0
 51
269.99999999999989
  0
ARC
  5
D8
  8
2
 10
611.88139312784267
 20
425.75
 30
0.0
 40
1.0
 50
0.0
 51
90.000000000000099
  0
LINE
  5
D9
  8
2
 10
611.88139312784267
 20
426.75
 30
0.0
 11
608.88139312784267
 21
426.75
 31
0.0
  0
ARC
  5
DA
  8
2
 10
611.88139312784267
 20
354.25
 30
0.0
 40
1.0
 50
269.99999999999977
 51
0.0
  0
LINE
  5
DB
  8
2
 10
611.88139312784267
 20
353.25000000000011
 30
0.0
 11
608.88139312784267
 21
353.25000000000011
 31
0.0
  0
CIRCLE
  5
DC
  8
0
 10
207.4999999999998
 20
390.0
 30
0.0
 40
37.799999999999997
  0
CIRCLE
  5
DD
  8
0
 10
207.4999999999998
 20
390.0
 30
0.0
 40
32.5
  0
CIRCLE
  5
DE
  8
0
 10
207.50000000002541
 20
390.0
 30
0.0
 40
27.75
  0
LINE
  5
DF
  8
0
 10
207.4999999999998
 20
415.50000000000023
 30
0.0
 11
207.4999999999998
 21
422.49999999999989
 31
0.0
  0
LINE
  5
E0
  8
3
 10
214.68222850161749
 20
416.80444167952231
 30
0.0
 11
215.9116189658528
 21
421.39258935438897
 31
0.0
  0
TEXT
  5
E1
  8
0
 10
218.33333333332581
 20
408.23557158515428
 30
0.0
 40
2.5
  1
1
 72
     1
 11
218.7499999999925
 21
408.23557158515428
 31
0.0
  0
TEXT
  5
E2
  8
0
 10
226.15223825181261
 20
400.0000000000062
 30
0.0
 40
2.5
  1
2
 72
     1
 11
226.985571585146
 21
400.0000000000062
 31
0.0
  0
TEXT
  5
E3
  8
0
 10
229.1666666666664
 20
388.75
 30
0.0
 40
2.5
  1
3
 72
     1
 11
229.9999999999998
 21
388.75
 31
0.0
  0
TEXT
  5
E4
  8
0
 10
226.15223825181999
 20
377.5000000000062
 30
0.0
 40
2.5
  1
4
 72
     1
 11
226.98557158515339
 21
377.5000000000062
 31
0.0
  0
TEXT
  5
E5
  8
0
 10
217.91666666665921
 20
369.2644284148459
 30
0.0
 40
2.5
  1
5
 72
     1
 11
218.74999999999261
 21
369.2644284148459
 31
0.0
  0
TEXT
  5
E6
  8
0
 10
206.6666666666664
 20
366.25000000000011
 30
0.0
 40
2.5
  1
6
 72
     1
 11
207.4999999999998
 21
366.25000000000011
 31
0.0
  0
TEXT
  5
E7
  8
0
 10
195.4166666666591
 20
369.26442841485431
 30
0.0
 40
2.5
  1
7
 72
     1
 11
196.2499999999925
 21
369.26442841485431
 31
0.0
  0
TEXT
  5
E8
  8
0
 10
187.18109508151301
 20
377.50000000000631
 30
0.0
 40
2.5
  1
8
 72
     1
 11
188.01442841484641
 21
377.50000000000631
 31
0.0
  0
TEXT
  5
E9
  8
0
 10
184.1666666666664
 20
388.75
 30
0.0
 40
2.5
  1
9
 72
     1
 11
184.9999999999998
 21
388.75
 31
0.0
  0
TEXT
  5
EA
  8
0
 10
186.55609508152
 20
400.00000000000631
 30
0.0
 40
2.5
  1
10
 72
     1
 11
188.0144284148534
 21
400.00000000000631
 31
0.0
  0
TEXT
  5
EB
  8
0
 10
194.9999999999925
 20
408.23557158514569
 30
0.0
 40
2.5
  1
11
 72
     1
 11
196.2499999999925
 21
408.23557158514569
 31
0.0
  0
LINE
  5
EC
  8
3
 10
227.12221317794661
 20
409.6222131779158
 30
0.0
 11
230.48097038857799
 21
412.98097038854729
 31
0.0
  0
LINE
  5
ED
  8
0
 10
220.24999999999989
 20
412.08364779650333
 30
0.0
 11
223.7499999999998
 21
418.14582562299421
 31
0.0
  0
LINE
  5
EE
  8
3
 10
234.3044416795334
 20
397.18222850157548
 30
0.0
 11
238.8925893544002
 21
398.41161896581082
 31
0.0
  0
LINE
  5
EF
  8
0
 10
229.58364779650319
 20
402.75000000000011
 30
0.0
 11
235.64582562299401
 21
406.25
 31
0.0
  0
LINE
  5
F0
  8
3
 10
234.30444167952211
 20
382.81777149838229
 30
0.0
 11
238.89258935438889
 21
381.58838103414689
 31
0.0
  0
LINE
  5
F1
  8
0
 10
233.0
 20
390.0
 30
0.0
 11
239.9999999999998
 21
390.0
 31
0.0
  0
LINE
  5
F2
  8
3
 10
227.12221317791571
 20
370.37778682205322
 30
0.0
 11
230.48097038854709
 21
367.01902961142167
 31
0.0
  0
LINE
  5
F3
  8
0
 10
229.58364779650319
 20
377.24999999999989
 30
0.0
 11
235.64582562299401
 21
373.75
 31
0.0
  0
LINE
  5
F4
  8
3
 10
214.68222850157531
 20
363.19555832046638
 30
0.0
 11
215.91161896581059
 21
358.6074106455996
 31
0.0
  0
LINE
  5
F5
  8
0
 10
220.24999999999989
 20
367.91635220349661
 30
0.0
 11
223.7499999999998
 21
361.85417437700579
 31
0.0
  0
LINE
  5
F6
  8
3
 10
200.317771498382
 20
363.19555832047769
 30
0.0
 11
199.08838103414669
 21
358.60741064561091
 31
0.0
  0
LINE
  5
F7
  8
0
 10
207.4999999999998
 20
364.49999999999977
 30
0.0
 11
207.4999999999998
 21
357.50000000000011
 31
0.0
  0
LINE
  5
F8
  8
3
 10
187.877786822053
 20
370.37778682208409
 30
0.0
 11
184.51902961142159
 21
367.01902961145259
 31
0.0
  0
LINE
  5
F9
  8
0
 10
194.74999999999969
 20
367.91635220349661
 30
0.0
 11
191.2499999999998
 21
361.85417437700568
 31
0.0
  0
LINE
  5
FA
  8
3
 10
180.69555832046609
 20
382.81777149842452
 30
0.0
 11
176.1074106455994
 21
381.58838103418918
 31
0.0
  0
LINE
  5
FB
  8
0
 10
185.41635220349639
 20
377.24999999999989
 30
0.0
 11
179.35417437700551
 21
373.75
 31
0.0
  0
LINE
  5
FC
  8
3
 10
180.6955583204774
 20
397.18222850161777
 30
0.0
 11
176.10741064561071
 21
398.41161896585299
 31
0.0
  0
LINE
  5
FD
  8
0
 10
181.99999999999949
 20
390.0
 30
0.0
 11
174.9999999999998
 21
390.0
 31
0.0
  0
LINE
  5
FE
  8
3
 10
187.87778682208389
 20
409.62221317794678
 30
0.0
 11
184.51902961145251
 21
412.98097038857821
 31
0.0
  0
LINE
  5
FF
  8
0
 10
185.41635220349639
 20
402.75000000000011
 30
0.0
 11
179.35417437700551
 21
406.25
 31
0.0
  0
LINE
  5
100
  8
3
 10
200.31777149842429
 20
416.80444167953362
 30
0.0
 11
199.08838103418901
 21
421.39258935440029
 31
0.0
  0
LINE
  5
101
  8
0
 10
194.74999999999969
 20
412.08364779650333
 30
0.0
 11
191.2499999999998
 21
418.14582562299421
 31
0.0
  0
LINE
  5
102
  8
0
 10
224.4456768637308
 20
379.35077329662653
 30
0.0
 11
209.1905996601925
 21
388.15829622659783
 31
0.0
  0
LINE
  5
103
  8
0
 10
225.1953392877638
 20
380.64922670357691
 30
0.0
 11
224.4456768637308
 21
379.35077329662653
 31
0.0
  0
LINE
  5
104
  8
0
 10
209.94026208415991
 20
389.45674963358618
 30
0.0
 11
225.1953392877638
 21
380.64922670357691
 31
0.0
  0
LINE
  5
105
  8
0
 10
211.17611048606639
 20
399.99470418186371
 30
0.0
 11
212.16164745377719
 21
399.99470418186371
 31
0.0
  0
LINE
  5
106
  8
0
 10
210.83693217899719
 20
400.33955259260949
 30
0.0
 11
211.17611048606639
 21
399.99470418186371
 31
0.0
  0
LINE
  5
107
  8
0
 10
210.83693217899719
 20
401.00935431348148
 30
0.0
 11
210.83693217899719
 21
400.33955259260949
 31
0.0
  0
LINE
  5
108
  8
0
 10
211.16971089536699
 20
401.33430762360757
 30
0.0
 11
210.83693217899719
 21
401.00935431348148
 31
0.0
  0
LINE
  5
109
  8
0
 10
212.17444663517591
 20
401.33430762360757
 30
0.0
 11
211.16971089536699
 21
401.33430762360757
 31
0.0
  0
LINE
  5
10A
  8
0
 10
210.16497515555801
 20
400.9960909130682
 30
0.0
 11
210.16497515555801
 21
399.99470418186371
 31
0.0
  0
LINE
  5
10B
  8
0
 10
210.16497515555801
 20
401.66589263394019
 30
0.0
 11
210.16497515555801
 21
401.33430762360757
 31
0.0
  0
LINE
  5
10C
  8
0
 10
209.16663900644849
 20
400.33292089240291
 30
0.0
 11
209.50581731351781
 21
399.99470418186371
 31
0.0
  0
LINE
  5
10D
  8
0
 10
209.16663900644849
 20
402.00410934447939
 30
0.0
 11
209.16663900644849
 21
400.33292089240291
 31
0.0
  0
LINE
  5
10E
  8
0
 10
208.50108157370889
 20
401.0027226132749
 30
0.0
 11
208.50108157370889
 21
400.00133588207029
 31
0.0
  0
LINE
  5
10F
  8
0
 10
208.24979397801559
 20
401.24809552092108
 30
0.0
 11
208.50108157370889
 21
401.0027226132749
 31
0.0
  0
LINE
  5
110
  8
0
 10
206.49876934843451
 20
400.66555552435108
 30
0.0
 11
206.75020602195221
 21
400.91846662359899
 31
0.0
  0
LINE
  5
111
  8
0
 10
205.50112380263781
 20
400.66555552435108
 30
0.0
 11
206.49876934843451
 21
400.66555552435108
 31
0.0
  0
LINE
  5
112
  8
0
 10
205.83938130528989
 20
399.99556296318542
 30
0.0
 11
206.50305108897439
 21
399.99556296318542
 31
0.0
  0
LINE
  5
113
  8
0
 10
205.50112380263781
 20
400.32834072535383
 30
0.0
 11
205.83938130528989
 21
399.99556296318542
 31
0.0
  0
LINE
  5
114
  8
0
 10
205.50112380263781
 20
401.00277032334827
 30
0.0
 11
205.50112380263781
 21
400.32834072535383
 31
0.0
  0
LINE
  5
115
  8
0
 10
205.83938130528989
 20
401.33554808551668
 30
0.0
 11
205.50112380263781
 21
401.00277032334827
 31
0.0
  0
LINE
  5
116
  8
0
 10
206.49876934843451
 20
401.33554808551668
 30
0.0
 11
205.83938130528989
 21
401.33554808551668
 31
0.0
  0
LINE
  5
117
  8
0
 10
206.75020602195221
 20
401.08263698626871
 30
0.0
 11
206.49876934843451
 21
401.33554808551668
 31
0.0
  0
LINE
  5
118
  8
0
 10
203.8312449920769
 20
400.00000000001421
 30
0.0
 11
204.83317227841351
 21
402.00110360985349
 31
0.0
  0
LINE
  5
119
  8
0
 10
202.82931770574041
 20
402.00554064668228
 30
0.0
 11
203.8312449920769
 21
400.00000000001421
 31
0.0
  0
LINE
  5
11A
  8
0
 10
208.24979397801559
 20
415.50000000000023
 30
0.0
 11
208.24979397801559
 21
392.38491278468331
 31
0.0
  0
LINE
  5
11B
  8
0
 10
206.75020602195221
 20
392.38491278467188
 30
0.0
 11
206.75020602195221
 21
415.50000000000023
 31
0.0
  0
LINE
  5
11C
  8
0
 10
206.75020602195221
 20
415.50000000000023
 30
0.0
 11
208.24979397801559
 21
415.50000000000023
 31
0.0
  0
ARC
  5
11D
  8
0
 10
207.4999999999998
 20
390.00000000000011
 30
0.0
 40
2.5
 50
107.4526535302864
 51
72.547346470478814
  0
TEXT
  5
11E
  8
0
 10
204.75218424654491
 20
377.4999999999979
 30
0.0
 40
1.0
  1
D75R
 72
     1
 11
206.58551757987831
 21
377.4999999999979
 31
0.0
  0
LINE
  5
11F
  8
0
 10
208.73551757987829
 20
377.99999999999801
 30
0.0
 11
209.73551757987821
 21
377.99999999999801
 31
0.0
  0
TEXT
  5
120
  8
0
 10
209.11051757987829
 20
378.24999999999801
 30
0.0
 40
0.75
  1
1
 72
     1
 11
209.23551757987829
 21
378.24999999999801
 31
0.0
  0
TEXT
  5
121
  8
0
 10
208.73551757987829
 20
376.99999999999801
 30
0.0
 40
0.75
  1
12
 72
     1
 11
209.23551757987829
 21
376.99999999999801
 31
0.0
  0
CIRCLE
  5
122
  8
0
 10
207.4999999999998
 20
425.14999999999412
 30
0.0
 40
2.5
  0
LINE
  5
123
  8
1
 10
199.99999999999829
 20
425.14999999999401
 30
0.0
 11
214.99999999999929
 21
425.14999999999418
 31
0.0
  0
LINE
  5
124
  8
0
 10
207.09999999999999
 20
426.79999999981948
 30
0.0
 11
207.09999999999999
 21
426.04999999999859
 31
0.0
  0
LINE
  5
125
  8
0
 10
207.1999999999999
 20
426.8999999998195
 30
0.0
 11
207.80000000000419
 21
426.8999999998195
 31
0.0
  0
LINE
  5
126
  8
0
 10
207.90000000000421
 20
426.79999999981948
 30
0.0
 11
207.90000000000421
 21
426.04999999999399
 31
0.0
  0
ARC
  5
127
  8
0
 10
207.80000000000419
 20
426.79999999981948
 30
0.0
 40
0.1
 50
0.0
 51
90.000000000001023
  0
ARC
  5
128
  8
0
 10
207.1999999999999
 20
426.79999999981948
 30
0.0
 40
0.1
 50
90.0
 51
180.0
  0
ARC
  5
129
  8
0
 10
205.85000000017439
 20
424.84999999999428
 30
0.0
 40
0.1
 50
180.0
 51
270.0
  0
LINE
  5
12A
  8
0
 10
205.85000000017439
 20
424.74999999999432
 30
0.0
 11
206.59999999999539
 21
424.74999999999432
 31
0.0
  0
LINE
  5
12B
  8
0
 10
205.7500000001744
 20
424.84999999999428
 30
0.0
 11
205.7500000001744
 21
425.44999999999851
 31
0.0
  0
ARC
  5
12C
  8
0
 10
205.85000000017439
 20
425.44999999999851
 30
0.0
 40
0.1
 50
90.0
 51
180.00000000000099
  0
LINE
  5
12D
  8
0
 10
205.85000000017439
 20
425.54999999999859
 30
0.0
 11
206.59999999999999
 21
425.54999999999859
 31
0.0
  0
ARC
  5
12E
  8
0
 10
207.79999999999961
 20
423.50000000016882
 30
0.0
 40
0.1
 50
270.0
 51
0.0
  0
LINE
  5
12F
  8
0
 10
207.89999999999961
 20
423.50000000016882
 30
0.0
 11
207.89999999999961
 21
424.24999999998971
 31
0.0
  0
LINE
  5
130
  8
0
 10
207.79999999999961
 20
423.4000000001688
 30
0.0
 11
207.19999999999541
 21
423.4000000001688
 31
0.0
  0
ARC
  5
131
  8
0
 10
207.19999999999541
 20
423.50000000016882
 30
0.0
 40
0.1
 50
180.0
 51
270.00000000000102
  0
LINE
  5
132
  8
0
 10
207.09999999999539
 20
423.50000000016882
 30
0.0
 11
207.09999999999539
 21
424.24999999999432
 31
0.0
  0
ARC
  5
133
  8
0
 10
209.1499999998251
 20
425.44999999999402
 30
0.0
 40
0.1
 50
0.0
 51
89.999999999999986
  0
LINE
  5
134
  8
0
 10
209.1499999998251
 20
425.54999999999399
 30
0.0
 11
208.40000000000421
 21
425.54999999999399
 31
0.0
  0
LINE
  5
135
  8
0
 10
209.24999999982509
 20
425.44999999999402
 30
0.0
 11
209.24999999982509
 21
424.84999999998968
 31
0.0
  0
ARC
  5
136
  8
0
 10
209.1499999998251
 20
424.84999999998968
 30
0.0
 40
0.1
 50
270.0
 51
0.0000000000010037
  0
LINE
  5
137
  8
0
 10
209.1499999998251
 20
424.74999999998971
 30
0.0
 11
208.39999999999961
 21
424.74999999998971
 31
0.0
  0
ARC
  5
138
  8
0
 10
206.59999999999999
 20
426.04999999999859
 30
0.0
 40
0.5
 50
270.0
 51
0.0000000000012977
  0
ARC
  5
139
  8
0
 10
206.59999999999539
 20
424.24999999999432
 30
0.0
 40
0.5
 50
0.0
 51
90.000000000001336
  0
ARC
  5
13A
  8
0
 10
208.39999999999961
 20
424.24999999998971
 30
0.0
 40
0.5
 50
90.0
 51
180.00000000000131
  0
ARC
  5
13B
  8
0
 10
208.40000000000421
 20
426.04999999999399
 30
0.0
 40
0.5
 50
180.0
 51
270.00000000000131
  0
ARC
  5
13C
  8
0
 10
223.5073091641739
 20
469.18710087647031
 30
0.0
 40
3.0
 50
78.571921172503181
 51
160.04200020442411
  0
ARC
  5
13D
  8
0
 10
191.4926908358257
 20
469.18710087647031
 30
0.0
 40
3.0
 50
19.957999795576111
 51
101.4280788274968
  0
ARC
  5
13E
  8
0
 10
207.4999999999998
 20
474.99999999999989
 30
0.0
 40
14.0300834671408
 50
199.9579997955762
 51
340.0420002044238
  0
ARC
  5
13F
  8
0
 10
223.26649547735991
 20
472.27646913687698
 30
0.0
 40
4.0
 50
79.152018717679084
 51
170.19934995975859
  0
ARC
  5
140
  8
0
 10
191.73350452263961
 20
472.27646913687698
 30
0.0
 40
4.0
 50
9.8006500402413597
 51
100.8479812823213
  0
ARC
  5
141
  8
0
 10
207.4999999999998
 20
474.99999999999989
 30
0.0
 40
12.0
 50
189.80065004024189
 51
350.19934995975819
  0
CIRCLE
  5
142
  8
0
 10
207.4999999999998
 20
474.99999999999989
 30
0.0
 40
11.0
  0
CIRCLE
  5
145
  8
0
 10
916.23255198435356
 20
390.0
 30
0.0
 40
18.000000000000771
  0
CIRCLE
  5
146
  8
0
 10
916.23255198435356
 20
390.0
 30
0.0
 40
43.999999999999787
  0
CIRCLE
  5
147
  8
0
 10
916.23255198435356
 20
390.0
 30
0.0
 40
43.214463604781677
  0
CIRCLE
  5
148
  8
0
 10
916.23255198435356
 20
390.0
 30
0.0
 40
24.999999999999691
  0
CIRCLE
  5
149
  8
2
 10
916.23255198435356
 20
390.0
 30
0.0
 40
37.849999999999802
  0
ARC
  5
14A
  8
0
 10
916.23255198435356
 20
390.0
 30
0.0
 40
90.660254037844197
 50
94.384631018089749
 51
85.615368981910237
  0
ARC
  5
14B
  8
0
 10
900.73255198435379
 20
312.03706991215029
 30
0.0
 40
7.0
 50
180.0
 51
258.75550786641929
  0
ARC
  5
14C
  8
0
 10
890.73255198435368
 20
314.57517877806498
 30
0.0
 40
3.0
 50
251.32037651532079
 51
0.0000000000000254
  0
LINE
  5
14D
  8
0
 10
893.73255198435356
 20
347.88408851752098
 30
0.0
 11
893.73255198435379
 21
312.03706991215029
 31
0.0
  0
ARC
  5
14E
  8
0
 10
885.73255198435356
 20
347.88408851752098
 30
0.0
 40
8.0
 50
0.0000000000000254
 51
54.088250220495539
  0
ARC
  5
14F
  8
0
 10
885.73255198435356
 20
432.11591148247879
 30
0.0
 40
8.0
 50
305.9117497795047
 51
0.0000000000000254
  0
ARC
  5
150
  8
0
 10
916.23255198435356
 20
390.0
 30
0.0
 40
82.618802153516853
 50
108.6796234846796
 51
251.3203765153205
  0
ARC
  5
151
  8
0
 10
890.73255198435368
 20
465.42482122193491
 30
0.0
 40
3.0
 50
0.0000000000000254
 51
108.6796234846796
  0
LINE
  5
152
  8
0
 10
893.73255198435356
 20
470.13331426391352
 30
0.0
 11
893.73255198435356
 21
432.11591148247879
 31
0.0
  0
ARC
  5
153
  8
0
 10
900.73255198435356
 20
470.13331426391352
 30
0.0
 40
7.0
 50
118.0146279819684
 51
180.0
  0
CIRCLE
  5
154
  8
3
 10
916.23255198435356
 20
475.0
 30
0.0
 40
5.0
  0
LINE
  5
155
  8
2
 10
953.99989899205332
 20
392.5
 30
0.0
 11
960.16147184359886
 21
392.5
 31
0.0
  0
LINE
  5
156
  8
2
 10
954.02607009262204
 20
392.06700000000058
 30
0.0
 11
960.18397415702043
 21
392.06700000000058
 31
0.0
  0
LINE
  5
157
  8
2
 10
954.02607009262204
 20
387.93299999999931
 30
0.0
 11
960.18397415702043
 21
387.93299999999931
 31
0.0
  0
LINE
  5
158
  8
2
 10
953.99989899205332
 20
387.5
 30
0.0
 11
960.16147184359886
 21
387.5
 31
0.0
  0
ARC
  5
159
  8
0
 10
946.73255198435368
 20
347.88408851752098
 30
0.0
 40
8.0
 50
125.9117497795045
 51
180.0
  0
ARC
  5
15A
  8
0
 10
946.73255198435368
 20
432.11591148247879
 30
0.0
 40
8.0
 50
180.0
 51
234.08825022049541
  0
LINE
  5
15B
  8
0
 10
938.73255198435368
 20
347.88408851752098
 30
0.0
 11
938.73255198435345
 21
312.03706991215029
 31
0.0
  0
ARC
  5
15C
  8
0
 10
941.73255198435368
 20
465.42482122193491
 30
0.0
 40
3.0
 50
71.320376515320362
 51
180.0
  0
ARC
  5
15D
  8
0
 10
941.73255198435368
 20
314.57517877806498
 30
0.0
 40
3.0
 50
180.0
 51
288.67962348467933
  0
LINE
  5
15E
  8
0
 10
938.73255198435368
 20
470.13331426391352
 30
0.0
 11
938.73255198435368
 21
432.11591148247879
 31
0.0
  0
ARC
  5
15F
  8
0
 10
916.23255198435356
 20
390.0
 30
0.0
 40
82.618802153516853
 50
288.67962348467961
 51
71.320376515320376
  0
CIRCLE
  5
160
  8
0
 10
916.23255198435356
 20
475.0
 30
0.0
 40
4.1879999999999988
  0
LINE
  5
161
  8
1
 10
901.23255198435368
 20
475.0
 30
0.0
 11
931.23255198435356
 21
475.0
 31
0.0
  0
LINE
  5
162
  8
1
 10
801.23255198435425
 20
390.0
 30
0.0
 11
1031.232551984353
 21
390.0
 31
0.0
  0
LINE
  5
163
  8
2
 10
924.87836021724888
 20
387.5
 30
0.0
 11
941.10723791201917
 21
387.5
 31
0.0
  0
LINE
  5
164
  8
2
 10
924.99197610926069
 20
387.93299999999931
 30
0.0
 11
941.14695566977218
 21
387.93299999999931
 31
0.0
  0
LINE
  5
165
  8
2
 10
924.99197610926069
 20
392.06700000000058
 30
0.0
 11
941.14695566977173
 21
392.06700000000058
 31
0.0
  0
LINE
  5
166
  8
2
 10
924.87836021724888
 20
392.5
 30
0.0
 11
941.10723791201917
 21
392.5
 31
0.0
  0
LINE
  5
167
  8
2
 10
918.73255198435356
 20
381.35419176710468
 30
0.0
 11
918.73255198435356
 21
365.1253140723345
 31
0.0
  0
LINE
  5
168
  8
2
 10
918.29955198435425
 20
381.24057587509287
 30
0.0
 11
918.29955198435437
 21
365.08559631458189
 31
0.0
  0
LINE
  5
169
  8
2
 10
914.16555198435299
 20
381.24057587509287
 30
0.0
 11
914.16555198435299
 21
365.08559631458132
 31
0.0
  0
LINE
  5
16A
  8
2
 10
913.73255198435368
 20
381.35419176710468
 30
0.0
 11
913.73255198435368
 21
365.1253140723345
 31
0.0
  0
ARC
  5
16B
  8
0
 10
916.23255198435356
 20
390.0
 30
0.0
 40
86.488794605799086
 50
258.75550920799702
 51
281.24449213358059
  0
ARC
  5
16C
  8
0
 10
931.73255198435334
 20
312.03706991215029
 30
0.0
 40
7.0
 50
281.24449213358082
 51
0.0
  0
ARC
  5
16D
  8
0
 10
916.23255198435356
 20
441.0
 30
0.0
 40
40.0
 50
61.985372018031583
 51
118.0146279819698
  0
ARC
  5
16E
  8
0
 10
931.73255198435368
 20
470.13331426391352
 30
0.0
 40
7.0
 50
0.0
 51
61.985372018031612
  0
CIRCLE
  5
16F
  8
0
 10
916.23255198435356
 20
390.0
 30
0.0
 40
8.9999999999987637
  0
LINE
  5
170
  8
1
 10
916.23255198435356
 20
504.99999999999898
 30
0.0
 11
916.23255198435356
 21
275.00000000000051
 31
0.0
  0
LINE
  5
171
  8
2
 10
604.76814447379093
 20
88.678776978417588
 30
0.0
 11
601.28176058372378
 21
82.640182946131574
 31
0.0
  0
LINE
  5
172
  8
2
 10
604.26815914067288
 20
88.678776978417588
 30
0.0
 11
600.78040161639933
 21
82.637803741895056
 31
0.0
  0
LINE
  5
173
  8
2
 10
599.49462711501258
 20
88.678776978417588
 30
0.0
 11
595.9937550322885
 21
82.615088660340163
 31
0.0
  0
LINE
  5
174
  8
2
 10
598.99464178189464
 20
88.678776978417588
 30
0.0
 11
595.49239606496428
 21
82.612709456103687
 31
0.0
  0
LINE
  5
175
  8
1
 10
607.65489581973918
 20
98.678776978417616
 30
0.0
 11
592.59764861808424
 21
72.598859803026969
 31
0.0
  0
ARC
  5
176
  8
2
 10
608.88139312784244
 20
217.76638128545099
 30
0.0
 40
1.0
 50
300.0
 51
360.0
  0
ARC
  5
177
  8
2
 10
585.88139312784256
 20
214.87962993950299
 30
0.0
 40
1.0
 50
180.0
 51
240.0
  0
LINE
  5
178
  8
2
 10
609.38139312784244
 20
216.9003558816666
 30
0.0
 11
596.88139316573358
 21
209.68347751982091
 31
0.0
  0
LINE
  5
179
  8
2
 10
585.38139312784256
 20
214.0136045357186
 30
0.0
 11
592.88139316922582
 21
209.6834775117558
 31
0.0
  0
ARC
  5
17A
  8
2
 10
594.88139316049512
 20
213.14757913193421
 30
0.0
 40
4.0
 50
240.00000014440539
 51
300.00000008664261
  0
LINE
  5
17B
  8
2
 10
592.51433984819096
 20
170.45897689773369
 30
0.0
 11
607.58937071639355
 21
170.38743818068039
 31
0.0
  0
ARC
  5
17C
  8
2
 10
594.88139316049512
 20
39.909974824900289
 30
0.0
 40
4.0
 50
59.999999913357442
 51
119.9999998555946
  0
LINE
  5
17D
  8
2
 10
592.51433984819096
 20
82.598577059100805
 30
0.0
 11
607.58937071639355
 21
82.670115776154077
 31
0.0
  0
LINE
  5
17E
  8
0
 10
646.88139312784267
 20
148.5287769784178
 30
0.0
 11
646.88139312784256
 21
104.5287769784167
 31
0.0
  0
LINE
  5
17F
  8
0
 10
619.88139312784278
 20
164.99841774962471
 30
0.0
 11
619.88139312784267
 21
88.059136207209846
 31
0.0
  0
LINE
  5
180
  8
0
 10
609.88139312784256
 20
32.68564214543305
 30
0.0
 11
609.88139312784256
 21
220.3719156260988
 31
0.0
  0
LINE
  5
181
  8
0
 10
584.88139312784267
 20
220.3719184186514
 30
0.0
 11
584.88139312784267
 21
32.685642145432709
 31
0.0
  0
LINE
  5
182
  8
1
 10
661.88139312784267
 20
126.5287769784173
 30
0.0
 11
485.38139312784318
 21
126.5287769784173
 31
0.0
  0
ARC
  5
183
  8
0
 10
597.38139312784278
 20
52.528776978417149
 30
0.0
 40
25.0
 50
244.4169980226014
 51
295.58300197739868
  0
ARC
  5
184
  8
0
 10
587.88139312784256
 20
32.685642145432709
 30
0.0
 40
3.0
 50
179.99999999999969
 51
244.4169980226014
  0
ARC
  5
185
  8
0
 10
606.88139312784267
 20
32.68564214543305
 30
0.0
 40
3.0
 50
295.58300197739879
 51
0.0
  0
LINE
  5
186
  8
2
 10
591.88139312784267
 20
88.678776978417588
 30
0.0
 11
612.48139312784269
 21
88.678776978417588
 31
0.0
  0
LINE
  5
187
  8
0
 10
643.88139312784256
 20
101.5287769784167
 30
0.0
 11
622.88139312784256
 21
101.5287769784167
 31
0.0
  0
ARC
  5
188
  8
0
 10
622.88139312784256
 20
98.528776978416715
 30
0.0
 40
3.0
 50
90.0
 51
179.99999999999989
  0
ARC
  5
189
  8
0
 10
643.88139312784256
 20
104.5287769784167
 30
0.0
 40
3.0
 50
270.0
 51
0.0
  0
LINE
  5
18A
  8
2
 10
591.88139312784267
 20
169.528776978417
 30
0.0
 11
591.88139312784267
 21
164.37877697841691
 31
0.0
  0
LINE
  5
18B
  8
2
 10
612.88139312784256
 20
163.9787769784171
 30
0.0
 11
612.88139312784267
 21
89.078776978417565
 31
0.0
  0
LINE
  5
18C
  8
2
 10
615.88139312784267
 20
156.02878079311429
 30
0.0
 11
615.88139312784278
 21
97.028776978417497
 31
0.0
  0
ARC
  5
18D
  8
2
 10
612.88139312784267
 20
97.028776978417497
 30
0.0
 40
3.0
 50
270.0
 51
0.0000000000000127
  0
ARC
  5
18E
  8
2
 10
612.48139312784269
 20
89.078776978417565
 30
0.0
 40
0.4
 50
270.0
 51
0.0000000000000127
  0
LINE
  5
18F
  8
2
 10
592.38139312784256
 20
88.678776978417474
 30
0.0
 11
591.88139312784256
 21
88.178776978417474
 31
0.0
  0
ARC
  5
190
  8
2
 10
592.88139312784267
 20
83.528776978417497
 30
0.0
 40
1.0
 50
180.0
 51
248.46600021003809
  0
LINE
  5
191
  8
0
 10
609.88139312784278
 20
82.790235580805117
 30
0.0
 11
615.14307290905731
 21
83.065988533436936
 31
0.0
  0
LINE
  5
192
  8
2
 10
646.38139312784244
 20
117.52877697841571
 30
0.0
 11
615.88139312784267
 21
117.52877697841571
 31
0.0
  0
LINE
  5
193
  8
2
 10
646.38139312784244
 20
117.52877697841571
 30
0.0
 11
646.88139312784244
 21
117.02877697841571
 31
0.0
  0
LINE
  5
194
  8
2
 10
646.38139312784244
 20
135.52877697841879
 30
0.0
 11
646.88139312784244
 21
136.0287769784189
 31
0.0
  0
LINE
  5
195
  8
2
 10
646.38139312784244
 20
135.52877697841879
 30
0.0
 11
615.88139312784267
 21
135.52877697841879
 31
0.0
  0
LINE
  5
196
  8
2
 10
646.38139312784244
 20
117.52877697841571
 30
0.0
 11
646.38139312784244
 21
135.52877697841879
 31
0.0
  0
LINE
  5
197
  8
1
 10
636.88139312784267
 20
139.02877697841501
 30
0.0
 11
636.88139312784267
 21
91.528776978416701
 31
0.0
  0
CIRCLE
  5
198
  8
3
 10
636.88139312784267
 20
126.5287769784173
 30
0.0
 40
2.5
  0
CIRCLE
  5
199
  8
0
 10
636.88139312784267
 20
126.5287769784173
 30
0.0
 40
2.0669999999999988
  0
LINE
  5
19A
  8
2
 10
634.38139312784256
 20
117.52877697841571
 30
0.0
 11
634.38139312784256
 21
101.5287769784166
 31
0.0
  0
LINE
  5
19B
  8
2
 10
634.81439312784357
 20
117.52877697841571
 30
0.0
 11
634.81439312784357
 21
101.5287769784167
 31
0.0
  0
LINE
  5
19C
  8
2
 10
638.94839312784165
 20
117.52877697841571
 30
0.0
 11
638.94839312784165
 21
101.5287769784167
 31
0.0
  0
LINE
  5
19D
  8
2
 10
639.38139312784256
 20
117.52877697841571
 30
0.0
 11
639.38139312784256
 21
101.5287769784166
 31
0.0
  0
LINE
  5
19E
  8
2
 10
585.38139312784256
 20
39.043949421115983
 30
0.0
 11
592.88139316922582
 21
43.374076445078721
 31
0.0
  0
LINE
  5
19F
  8
2
 10
609.38139312784244
 20
36.157198075167962
 30
0.0
 11
596.88139316573358
 21
43.37407643701367
 31
0.0
  0
ARC
  5
1A0
  8
0
 10
614.88139312784256
 20
88.059136207209846
 30
0.0
 40
5.0
 50
273.0
 51
0.0
  0
ARC
  5
1A1
  8
2
 10
585.88139312784256
 20
38.177924017331563
 30
0.0
 40
1.0
 50
119.9999999999999
 51
179.99999999999989
  0
ARC
  5
1A2
  8
2
 10
608.88139312784244
 20
35.291172671383528
 30
0.0
 40
1.0
 50
0.0
 51
59.999999999999957
  0
ARC
  5
1A3
  8
0
 10
606.88139312784267
 20
220.3719118114015
 30
0.0
 40
3.0
 50
0.0
 51
64.416998022601163
  0
ARC
  5
1A4
  8
0
 10
587.88139312784256
 20
220.37191181140179
 30
0.0
 40
3.0
 50
115.5830019773985
 51
180.00000000000031
  0
ARC
  5
1A5
  8
0
 10
597.38139312784278
 20
200.5287769784174
 30
0.0
 40
25.0
 50
64.416998022601277
 51
115.5830019773985
  0
ARC
  5
1A6
  8
0
 10
614.88139312784256
 20
164.99841774962471
 30
0.0
 40
5.0
 50
0.0
 51
86.999999999999986
  0
LINE
  5
1A7
  8
0
 10
609.88139312784278
 20
170.26731837602941
 30
0.0
 11
615.14307290905731
 21
169.99156542339759
 31
0.0
  0
ARC
  5
1A8
  8
2
 10
592.88139312784267
 20
169.528776978417
 30
0.0
 40
1.0
 50
111.5339997899619
 51
180.0
  0
LINE
  5
1A9
  8
2
 10
592.38139312784256
 20
164.37877697841711
 30
0.0
 11
591.88139312784256
 21
164.87877697841711
 31
0.0
  0
ARC
  5
1AA
  8
2
 10
612.88139312784267
 20
156.028776978417
 30
0.0
 40
3.0
 50
0.0
 51
90.0
  0
ARC
  5
1AB
  8
0
 10
622.88139312784256
 20
154.5287769784178
 30
0.0
 40
3.0
 50
180.0
 51
270.0
  0
LINE
  5
1AC
  8
2
 10
591.88139312784267
 20
164.37877697841691
 30
0.0
 11
612.48139312784269
 21
164.37877697841691
 31
0.0
  0
LINE
  5
1AD
  8
0
 10
643.88139312784278
 20
151.5287769784178
 30
0.0
 11
622.88139312784256
 21
151.5287769784178
 31
0.0
  0
ARC
  5
1AE
  8
0
 10
643.88139312784278
 20
148.5287769784178
 30
0.0
 40
3.0
 50
0.0
 51
90.0
  0
ARC
  5
1AF
  8
2
 10
612.48139312784269
 20
163.9787769784171
 30
0.0
 40
0.4
 50
0.0000000000000509
 51
89.999999999999844
  0
LINE
  5
1B0
  8
2
 10
591.88139312784267
 20
88.678776978417588
 30
0.0
 11
591.88139312784267
 21
83.528776978417497
 31
0.0
  0
LINE
  5
1B1
  8
2
 10
607.58937071639355
 20
170.38743818068039
 30
0.0
 11
609.88139312784278
 21
170.26731837602941
 31
0.0
  0
LINE
  5
1B2
  8
2
 10
607.58937071639355
 20
82.670115776154077
 30
0.0
 11
609.88139312784278
 21
82.790235580805117
 31
0.0
  0
LINE
  5
1B3
  8
0
 10
609.88139312784244
 20
433.73854139761221
 30
0.0
 11
615.14307290905742
 21
433.46278844498022
 31
0.0
  0
LINE
  5
1B4
  8
0
 10
609.88139312784244
 20
346.26145860238779
 30
0.0
 11
615.14307290905742
 21
346.53721155501972
 31
0.0
  0
LINE
  5
1B5
  8
2
 10
590.88139312784278
 20
163.37877697841691
 30
0.0
 11
590.88139312784267
 21
89.678776978417375
 31
0.0
  0
LINE
  5
1B6
  8
2
 10
608.88139312784267
 20
88.728776978429039
 30
0.0
 11
608.88139312784267
 21
164.37877697841719
 31
0.0
  0
ARC
  5
1B7
  8
2
 10
611.88139312784267
 20
162.27877697841731
 30
0.0
 40
1.0
 50
0.0
 51
90.000000000000099
  0
LINE
  5
1B8
  8
2
 10
611.88139312784267
 20
163.27877697841731
 30
0.0
 11
608.88139312784267
 21
163.27877697841731
 31
0.0
  0
LINE
  5
1B9
  8
2
 10
611.88139312784267
 20
89.778776978417341
 30
0.0
 11
608.88139312784267
 21
89.778776978417383
 31
0.0
  0
ARC
  5
1BA
  8
2
 10
591.88139312784256
 20
89.678776978417375
 30
0.0
 40
1.0
 50
180.0
 51
269.99999999999989
  0
ARC
  5
1BB
  8
2
 10
589.89437206705941
 20
124.996570667817
 30
0.0
 40
1.0
 50
180.0
 51
270.0
  0
ARC
  5
1BC
  8
2
 10
589.89437206705941
 20
127.996570667817
 30
0.0
 40
1.0
 50
90.0
 51
180.0
  0
LINE
  5
1BD
  8
2
 10
589.89437206705941
 20
128.996570667817
 30
0.0
 11
590.88139312784278
 21
128.99657066781711
 31
0.0
  0
LINE
  5
1BE
  8
2
 10
588.89437206705941
 20
124.996570667817
 30
0.0
 11
588.89437206705941
 21
127.996570667817
 31
0.0
  0
LINE
  5
1BF
  8
2
 10
590.89437206705975
 20
123.996570667817
 30
0.0
 11
589.89437206705941
 21
123.996570667817
 31
0.0
  0
ARC
  5
1C0
  8
2
 10
591.88139312784267
 20
163.37877697841691
 30
0.0
 40
1.0
 50
89.999999999999915
 51
179.9999999999998
  0
LINE
  5
1C1
  8
2
 10
615.88139312784278
 20
127.7287769784176
 30
0.0
 11
615.78139312784515
 21
127.82877697841531
 31
0.0
  0
LINE
  5
1C2
  8
2
 10
615.88139312784278
 20
125.328776978417
 30
0.0
 11
615.78139312784822
 21
125.2287769784225
 31
0.0
  0
ARC
  5
1C3
  8
2
 10
614.21799290208401
 20
123.4976880652375
 30
0.0
 40
1.5634002257586559
 50
319.73979101933168
 51
319.7397910194257
  0
LINE
  5
1C4
  8
2
 10
615.78139312784265
 20
129.9287769784309
 30
0.0
 11
615.78139312785049
 21
123.1287769784178
 31
0.0
  0
LINE
  5
1C5
  8
2
 10
613.38139312784267
 20
131.02877697841731
 30
0.0
 11
613.38139312784267
 21
122.0287769784173
 31
0.0
  0
LINE
  5
1C6
  8
2
 10
612.88139312784267
 20
131.02877697841731
 30
0.0
 11
613.38139312784267
 21
131.02877697841731
 31
0.0
  0
LINE
  5
1C7
  8
2
 10
612.88139312784267
 20
122.0287769784173
 30
0.0
 11
613.38139312784267
 21
122.0287769784173
 31
0.0
  0
LINE
  5
1C8
  8
2
 10
615.78139312784674
 20
123.12877697840931
 30
0.0
 11
615.78139312784674
 21
129.92877697840871
 31
0.0
  0
LINE
  5
1C9
  8
2
 10
613.38139312784267
 20
130.02877697556019
 30
0.0
 11
615.72365810257224
 21
130.02877697556019
 31
0.0
  0
LINE
  5
1CA
  8
2
 10
615.72365810257202
 20
123.02877698125729
 30
0.0
 11
613.38139312784267
 21
123.02877698125729
 31
0.0
  0
LINE
  5
1CB
  8
2
 10
615.78139312784674
 20
123.12877697840941
 30
0.0
 11
615.72365810257202
 21
123.02877698125729
 31
0.0
  0
ARC
  5
1CC
  8
2
 10
610.66903772617684
 20
124.77877697983349
 30
0.0
 40
5.054620376395234
 50
339.74384199953772
 51
20.25615800045583
  0
ARC
  5
1CD
  8
2
 10
610.66903772617684
 20
128.2787769769846
 30
0.0
 40
5.054620376395234
 50
339.7438419995442
 51
20.256158000462239
  0
LINE
  5
1CE
  8
2
 10
615.78139312784674
 20
129.92877697840871
 30
0.0
 11
615.72365810257224
 21
130.02877697556019
 31
0.0
  0
LINE
  5
1CF
  8
2
 10
615.41105071165623
 20
126.528776978409
 30
0.0
 11
613.38139312784267
 21
126.528776978409
 31
0.0
  0
LINE
  5
1D0
  8
2
 10
615.41105071165623
 20
666.52877697840904
 30
0.0
 11
613.38139312784267
 21
666.52877697840904
 31
0.0
  0
LINE
  5
1D1
  8
2
 10
615.78139312784674
 20
669.92877697840868
 30
0.0
 11
615.72365810257224
 21
670.02877697556005
 31
0.0
  0
ARC
  5
1D2
  8
2
 10
610.66903772617684
 20
668.27877697698455
 30
0.0
 40
5.054620376395234
 50
339.7438419995442
 51
20.256158000462239
  0
ARC
  5
1D3
  8
2
 10
610.66903772617684
 20
664.77877697983354
 30
0.0
 40
5.054620376395234
 50
339.74384199953772
 51
20.25615800045583
  0
LINE
  5
1D4
  8
2
 10
615.78139312784674
 20
663.12877697840941
 30
0.0
 11
615.72365810257202
 21
663.02877698125735
 31
0.0
  0
LINE
  5
1D5
  8
2
 10
615.72365810257202
 20
663.02877698125735
 30
0.0
 11
613.38139312784267
 21
663.02877698125735
 31
0.0
  0
LINE
  5
1D6
  8
2
 10
613.38139312784267
 20
670.02877697556005
 30
0.0
 11
615.72365810257224
 21
670.02877697556005
 31
0.0
  0
LINE
  5
1D7
  8
2
 10
615.78139312784674
 20
663.12877697840941
 30
0.0
 11
615.78139312784674
 21
669.92877697840868
 31
0.0
  0
LINE
  5
1D8
  8
2
 10
612.88139312784267
 20
662.02877697841734
 30
0.0
 11
613.38139312784267
 21
662.02877697841734
 31
0.0
  0
LINE
  5
1D9
  8
2
 10
612.88139312784267
 20
671.02877697841734
 30
0.0
 11
613.38139312784267
 21
671.02877697841734
 31
0.0
  0
LINE
  5
1DA
  8
2
 10
613.38139312784267
 20
671.02877697841734
 30
0.0
 11
613.38139312784267
 21
662.02877697841734
 31
0.0
  0
LINE
  5
1DB
  8
2
 10
615.78139312784265
 20
669.92877697843096
 30
0.0
 11
615.78139312785049
 21
663.12877697841782
 31
0.0
  0
ARC
  5
1DC
  8
2
 10
614.21799290208401
 20
663.49768806523753
 30
0.0
 40
1.5634002257586559
 50
319.73979101933168
 51
319.7397910194257
  0
LINE
  5
1DD
  8
2
 10
615.88139312784278
 20
665.32877697841695
 30
0.0
 11
615.78139312784822
 21
665.2287769784225
 31
0.0
  0
LINE
  5
1DE
  8
2
 10
615.88139312784278
 20
667.72877697841773
 30
0.0
 11
615.78139312784515
 21
667.82877697841525
 31
0.0
  0
ARC
  5
1DF
  8
2
 10
591.88139312784267
 20
703.37877697841691
 30
0.0
 40
1.0
 50
89.999999999999915
 51
179.9999999999998
  0
LINE
  5
1E0
  8
2
 10
590.89437206705975
 20
663.99657066781685
 30
0.0
 11
589.89437206705941
 21
663.99657066781685
 31
0.0
  0
LINE
  5
1E1
  8
2
 10
588.89437206705941
 20
664.99657066781697
 30
0.0
 11
588.89437206705941
 21
667.99657066781685
 31
0.0
  0
LINE
  5
1E2
  8
2
 10
589.89437206705941
 20
668.99657066781697
 30
0.0
 11
590.88139312784278
 21
668.99657066781708
 31
0.0
  0
ARC
  5
1E3
  8
2
 10
589.89437206705941
 20
667.99657066781685
 30
0.0
 40
1.0
 50
90.0
 51
180.0
  0
ARC
  5
1E4
  8
2
 10
589.89437206705941
 20
664.99657066781697
 30
0.0
 40
1.0
 50
180.0
 51
270.0
  0
ARC
  5
1E5
  8
2
 10
591.88139312784256
 20
629.67877697841732
 30
0.0
 40
1.0
 50
180.0
 51
269.99999999999989
  0
LINE
  5
1E6
  8
2
 10
611.88139312784267
 20
629.77877697841734
 30
0.0
 11
608.88139312784267
 21
629.77877697841745
 31
0.0
  0
LINE
  5
1E7
  8
2
 10
611.88139312784267
 20
703.27877697841734
 30
0.0
 11
608.88139312784267
 21
703.27877697841734
 31
0.0
  0
ARC
  5
1E8
  8
2
 10
611.88139312784267
 20
702.27877697841734
 30
0.0
 40
1.0
 50
0.0
 51
90.000000000000099
  0
LINE
  5
1E9
  8
2
 10
608.88139312784267
 20
628.7287769784291
 30
0.0
 11
608.88139312784267
 21
704.37877697841725
 31
0.0
  0
LINE
  5
1EA
  8
2
 10
590.88139312784278
 20
703.37877697841691
 30
0.0
 11
590.88139312784267
 21
629.67877697841732
 31
0.0
  0
LINE
  5
1EB
  8
2
 10
607.58937071639355
 20
622.67011577615403
 30
0.0
 11
609.88139312784278
 21
622.79023558080496
 31
0.0
  0
LINE
  5
1EC
  8
2
 10
607.58937071639355
 20
710.38743818068042
 30
0.0
 11
609.88139312784278
 21
710.26731837602938
 31
0.0
  0
LINE
  5
1ED
  8
2
 10
591.88139312784267
 20
628.67877697841755
 30
0.0
 11
591.88139312784267
 21
623.52877697841745
 31
0.0
  0
ARC
  5
1EE
  8
2
 10
612.48139312784269
 20
703.97877697841705
 30
0.0
 40
0.4
 50
0.0000000000000509
 51
89.999999999999844
  0
ARC
  5
1EF
  8
0
 10
643.88139312784278
 20
688.52877697841791
 30
0.0
 40
3.0
 50
0.0
 51
90.0
  0
LINE
  5
1F0
  8
0
 10
643.88139312784278
 20
691.5287769784178
 30
0.0
 11
622.88139312784256
 21
691.5287769784178
 31
0.0
  0
LINE
  5
1F1
  8
2
 10
591.88139312784267
 20
704.37877697841679
 30
0.0
 11
612.48139312784269
 21
704.37877697841679
 31
0.0
  0
ARC
  5
1F2
  8
0
 10
622.88139312784256
 20
694.52877697841791
 30
0.0
 40
3.0
 50
180.0
 51
270.0
  0
ARC
  5
1F3
  8
2
 10
612.88139312784267
 20
696.02877697841689
 30
0.0
 40
3.0
 50
0.0
 51
90.0
  0
LINE
  5
1F4
  8
2
 10
592.38139312784256
 20
704.37877697841714
 30
0.0
 11
591.88139312784256
 21
704.87877697841714
 31
0.0
  0
ARC
  5
1F5
  8
2
 10
592.88139312784267
 20
709.528776978417
 30
0.0
 40
1.0
 50
111.5339997899619
 51
180.0
  0
LINE
  5
1F6
  8
0
 10
609.88139312784278
 20
710.26731837602938
 30
0.0
 11
615.14307290905731
 21
709.99156542339745
 31
0.0
  0
ARC
  5
1F7
  8
0
 10
614.88139312784256
 20
704.99841774962465
 30
0.0
 40
5.0
 50
0.0
 51
86.999999999999986
  0
ARC
  5
1F8
  8
0
 10
597.38139312784278
 20
740.52877697841745
 30
0.0
 40
25.0
 50
64.416998022601277
 51
115.5830019773985
  0
ARC
  5
1F9
  8
0
 10
587.88139312784256
 20
760.37191181140179
 30
0.0
 40
3.0
 50
115.5830019773985
 51
180.00000000000031
  0
ARC
  5
1FA
  8
0
 10
606.88139312784267
 20
760.37191181140145
 30
0.0
 40
3.0
 50
0.0
 51
64.416998022601163
  0
ARC
  5
1FB
  8
2
 10
608.88139312784244
 20
575.29117267138338
 30
0.0
 40
1.0
 50
0.0
 51
59.999999999999957
  0
ARC
  5
1FC
  8
2
 10
585.88139312784256
 20
578.17792401733152
 30
0.0
 40
1.0
 50
119.9999999999999
 51
179.99999999999989
  0
ARC
  5
1FD
  8
0
 10
614.88139312784256
 20
628.05913620720969
 30
0.0
 40
5.0
 50
273.0
 51
0.0
  0
LINE
  5
1FE
  8
2
 10
609.38139312784244
 20
576.1571980751678
 30
0.0
 11
596.88139316573358
 21
583.37407643701363
 31
0.0
  0
LINE
  5
1FF
  8
2
 10
585.38139312784256
 20
579.04394942111594
 30
0.0
 11
592.88139316922582
 21
583.37407644507857
 31
0.0
  0
LINE
  5
200
  8
2
 10
639.38139312784256
 20
675.52877697841882
 30
0.0
 11
639.38139312784256
 21
691.5287769784178
 31
0.0
  0
LINE
  5
201
  8
2
 10
638.94839312784165
 20
675.52877697841882
 30
0.0
 11
638.94839312784165
 21
691.52877697841768
 31
0.0
  0
LINE
  5
202
  8
2
 10
634.81439312784357
 20
675.52877697841882
 30
0.0
 11
634.81439312784357
 21
691.52877697841768
 31
0.0
  0
LINE
  5
203
  8
2
 10
634.38139312784256
 20
675.52877697841882
 30
0.0
 11
634.38139312784256
 21
691.5287769784178
 31
0.0
  0
CIRCLE
  5
204
  8
2
 10
636.88139312784267
 20
666.52877697841723
 30
0.0
 40
2.0669999999999988
  0
CIRCLE
  5
205
  8
2
 10
636.88139312784267
 20
666.52877697841723
 30
0.0
 40
2.5
  0
LINE
  5
206
  8
1
 10
636.88139312784267
 20
654.02877697841939
 30
0.0
 11
636.88139312784267
 21
701.5287769784178
 31
0.0
  0
LINE
  5
207
  8
2
 10
646.38139312784244
 20
657.52877697841564
 30
0.0
 11
646.38139312784244
 21
675.52877697841882
 31
0.0
  0
LINE
  5
208
  8
2
 10
646.38139312784244
 20
675.52877697841882
 30
0.0
 11
615.88139312784267
 21
675.52877697841882
 31
0.0
  0
LINE
  5
209
  8
2
 10
646.38139312784244
 20
675.52877697841882
 30
0.0
 11
646.88139312784244
 21
676.02877697841882
 31
0.0
  0
LINE
  5
20A
  8
2
 10
646.38139312784244
 20
657.52877697841564
 30
0.0
 11
646.88139312784244
 21
657.02877697841564
 31
0.0
  0
LINE
  5
20B
  8
2
 10
646.38139312784244
 20
657.52877697841564
 30
0.0
 11
615.88139312784267
 21
657.52877697841564
 31
0.0
  0
LINE
  5
20C
  8
0
 10
609.88139312784278
 20
622.79023558080496
 30
0.0
 11
615.14307290905731
 21
623.06598853343678
 31
0.0
  0
ARC
  5
20D
  8
2
 10
592.88139312784267
 20
623.52877697841745
 30
0.0
 40
1.0
 50
180.0
 51
248.46600021003809
  0
LINE
  5
20E
  8
2
 10
592.38139312784256
 20
628.67877697841743
 30
0.0
 11
591.88139312784256
 21
628.17877697841743
 31
0.0
  0
ARC
  5
20F
  8
2
 10
612.48139312784269
 20
629.07877697841741
 30
0.0
 40
0.4
 50
270.0
 51
0.0000000000000127
  0
ARC
  5
210
  8
2
 10
612.88139312784267
 20
637.02877697841745
 30
0.0
 40
3.0
 50
270.0
 51
0.0000000000000127
  0
LINE
  5
211
  8
2
 10
615.88139312784267
 20
696.02878079311415
 30
0.0
 11
615.88139312784278
 21
637.02877697841745
 31
0.0
  0
LINE
  5
212
  8
2
 10
612.88139312784256
 20
703.97877697841705
 30
0.0
 11
612.88139312784267
 21
629.07877697841741
 31
0.0
  0
LINE
  5
213
  8
2
 10
591.88139312784267
 20
709.528776978417
 30
0.0
 11
591.88139312784267
 21
704.37877697841679
 31
0.0
  0
ARC
  5
214
  8
0
 10
643.88139312784256
 20
644.52877697841666
 30
0.0
 40
3.0
 50
270.0
 51
0.0
  0
ARC
  5
215
  8
0
 10
622.88139312784256
 20
638.52877697841666
 30
0.0
 40
3.0
 50
90.0
 51
179.99999999999989
  0
LINE
  5
216
  8
0
 10
643.88139312784256
 20
641.52877697841677
 30
0.0
 11
622.88139312784256
 21
641.52877697841677
 31
0.0
  0
LINE
  5
217
  8
2
 10
591.88139312784267
 20
628.67877697841755
 30
0.0
 11
612.48139312784269
 21
628.67877697841755
 31
0.0
  0
ARC
  5
218
  8
0
 10
606.88139312784267
 20
572.68564214543289
 30
0.0
 40
3.0
 50
295.58300197739879
 51
0.0
  0
ARC
  5
219
  8
0
 10
587.88139312784256
 20
572.68564214543267
 30
0.0
 40
3.0
 50
179.99999999999969
 51
244.4169980226014
  0
ARC
  5
21A
  8
0
 10
597.38139312784278
 20
592.52877697841711
 30
0.0
 40
25.0
 50
244.4169980226014
 51
295.58300197739868
  0
LINE
  5
21B
  8
1
 10
661.88139312784267
 20
666.52877697841723
 30
0.0
 11
485.38139312784318
 21
666.52877697841723
 31
0.0
  0
LINE
  5
21C
  8
0
 10
584.88139312784267
 20
760.37191841865126
 30
0.0
 11
584.88139312784267
 21
572.68564214543267
 31
0.0
  0
LINE
  5
21D
  8
0
 10
609.88139312784256
 20
572.68564214543289
 30
0.0
 11
609.88139312784256
 21
760.37191562609883
 31
0.0
  0
LINE
  5
21E
  8
0
 10
619.88139312784278
 20
704.99841774962465
 30
0.0
 11
619.88139312784267
 21
628.05913620720969
 31
0.0
  0
LINE
  5
21F
  8
0
 10
646.88139312784267
 20
688.52877697841791
 30
0.0
 11
646.88139312784256
 21
644.52877697841666
 31
0.0
  0
LINE
  5
220
  8
2
 10
592.51433984819096
 20
622.59857705910065
 30
0.0
 11
607.58937071639355
 21
622.67011577615403
 31
0.0
  0
ARC
  5
221
  8
2
 10
594.88139316049512
 20
579.90997482490025
 30
0.0
 40
4.0
 50
59.999999913357442
 51
119.9999998555946
  0
LINE
  5
222
  8
2
 10
592.51433984819096
 20
710.45897689773358
 30
0.0
 11
607.58937071639355
 21
710.38743818068042
 31
0.0
  0
ARC
  5
223
  8
2
 10
594.88139316049512
 20
753.14757913193409
 30
0.0
 40
4.0
 50
240.00000014440539
 51
300.00000008664261
  0
LINE
  5
224
  8
2
 10
585.38139312784256
 20
754.01360453571851
 30
0.0
 11
592.88139316922582
 21
749.68347751175588
 31
0.0
  0
LINE
  5
225
  8
2
 10
609.38139312784244
 20
756.90035588166666
 30
0.0
 11
596.88139316573358
 21
749.68347751982083
 31
0.0
  0
ARC
  5
226
  8
2
 10
585.88139312784256
 20
754.87962993950305
 30
0.0
 40
1.0
 50
180.0
 51
240.0
  0
ARC
  5
227
  8
2
 10
608.88139312784244
 20
757.76638128545096
 30
0.0
 40
1.0
 50
300.0
 51
360.0
  0
LINE
  5
228
  8
1
 10
607.65489581973918
 20
694.37877697841691
 30
0.0
 11
592.59764861808424
 21
720.45869415380741
 31
0.0
  0
LINE
  5
229
  8
2
 10
598.99464178189464
 20
704.37877697841679
 30
0.0
 11
595.49239606496428
 21
710.44484450073071
 31
0.0
  0
LINE
  5
22A
  8
2
 10
599.49462711501258
 20
704.37877697841679
 30
0.0
 11
595.9937550322885
 21
710.44246529649433
 31
0.0
  0
LINE
  5
22B
  8
2
 10
604.26815914067288
 20
704.37877697841679
 30
0.0
 11
600.78040161639933
 21
710.41975021493943
 31
0.0
  0
LINE
  5
22C
  8
2
 10
604.76814447379093
 20
704.37877697841679
 30
0.0
 11
601.28176058372378
 21
710.41737101070294
 31
0.0
  0
LINE
  5
22D
  8
2
 10
587.88139312784267
 20
470.0
 30
0.0
 11
584.88139312784267
 21
470.0
 31
0.0
  0
LINE
  5
22E
  8
2
 10
587.73450567557268
 20
470.81200000000001
 30
0.0
 11
585.02828058011573
 21
470.81200000000001
 31
0.0
  0
LINE
  5
22F
  8
2
 10
587.73450567557268
 20
479.18799999999987
 30
0.0
 11
585.02828058011573
 21
479.18799999999987
 31
0.0
  0
LINE
  5
230
  8
2
 10
587.88139312784267
 20
479.99999999999989
 30
0.0
 11
584.88139312784267
 21
479.99999999999989
 31
0.0
  0
LINE
  5
231
  8
3
 10
577.38139312784278
 20
469.5227744249483
 30
0.0
 11
584.88139312784267
 21
480.47722557505159
 31
0.0
  0
LINE
  5
232
  8
3
 10
577.38139312784278
 20
480.47722557505159
 30
0.0
 11
584.88139312784267
 21
469.5227744249483
 31
0.0
  0
LINE
  5
233
  8
0
 10
577.38139312784278
 20
480.47722557505159
 30
0.0
 11
577.38139312784278
 21
469.5227744249483
 31
0.0
  0
ARC
  5
234
  8
0
 10
572.88139312784278
 20
483.0815979750891
 30
0.0
 40
2.0
 50
360.0
 51
87.614055969610931
  0
ARC
  5
235
  8
0
 10
572.88139312784278
 20
466.91840202491068
 30
0.0
 40
2.0
 50
272.38594403038888
 51
360.0
  0
LINE
  5
236
  8
2
 10
598.88139312784278
 20
478.49999999999989
 30
0.0
 11
598.88139312784278
 21
471.49999999999989
 31
0.0
  0
LINE
  5
237
  8
0
 10
574.88139312784267
 20
483.0815979750891
 30
0.0
 11
574.88139312784267
 21
466.91840202491068
 31
0.0
  0
LINE
  5
238
  8
0
 10
584.38139312784267
 20
483.49999999999989
 30
0.0
 11
584.38139312784267
 21
480.47722557505159
 31
0.0
  0
LINE
  5
239
  8
2
 10
597.38139312784278
 20
479.99999999999989
 30
0.0
 11
587.88139312784267
 21
479.99999999999989
 31
0.0
  0
LINE
  5
23A
  8
2
 10
597.38139312784278
 20
470.0
 30
0.0
 11
587.88139312784267
 21
470.0
 31
0.0
  0
LINE
  5
23B
  8
0
 10
584.88139312784267
 20
483.0
 30
0.0
 11
584.88139312784267
 21
467.0
 31
0.0
  0
LINE
  5
23C
  8
0
 10
584.38139312784267
 20
483.49999999999989
 30
0.0
 11
575.38139312784267
 21
483.49999999999989
 31
0.0
  0
LINE
  5
23D
  8
0
 10
584.38139312784267
 20
466.5
 30
0.0
 11
575.38139312784267
 21
466.5
 31
0.0
  0
LINE
  5
23E
  8
0
 10
584.88139312784267
 20
483.0
 30
0.0
 11
584.38139312784267
 21
483.49999999999989
 31
0.0
  0
LINE
  5
23F
  8
0
 10
575.38139312784267
 20
483.49999999999989
 30
0.0
 11
574.88139312784267
 21
483.0
 31
0.0
  0
LINE
  5
240
  8
0
 10
575.38139312784267
 20
466.5
 30
0.0
 11
574.88139312784267
 21
467.0
 31
0.0
  0
LINE
  5
241
  8
0
 10
584.38139312784267
 20
466.5
 30
0.0
 11
584.88139312784267
 21
467.0
 31
0.0
  0
LINE
  5
242
  8
0
 10
504.56850596182369
 20
485.99999999999989
 30
0.0
 11
550.88139312784244
 21
486.0
 31
0.0
  0
LINE
  5
243
  8
0
 10
504.56850596182369
 20
464.0
 30
0.0
 11
550.88139312784301
 21
464.0
 31
0.0
  0
LINE
  5
244
  8
2
 10
598.88139312784278
 20
478.49999999999989
 30
0.0
 11
597.38139312784278
 21
479.99999999999989
 31
0.0
  0
LINE
  5
245
  8
2
 10
598.88139312784278
 20
471.49999999999989
 30
0.0
 11
597.38139312784278
 21
470.0
 31
0.0
  0
LINE
  5
246
  8
2
 10
597.38139312784278
 20
470.0
 30
0.0
 11
597.38139312784278
 21
479.99999999999989
 31
0.0
  0
LINE
  5
247
  8
2
 10
598.1933931278428
 20
479.18799999999987
 30
0.0
 11
587.88139312784267
 21
479.18799999999987
 31
0.0
  0
LINE
  5
248
  8
2
 10
598.1933931278428
 20
470.81200000000001
 30
0.0
 11
587.88139312784267
 21
470.81200000000001
 31
0.0
  0
LINE
  5
249
  8
0
 10
584.88139312784267
 20
480.47722557505159
 30
0.0
 11
577.38139312784278
 21
480.47722557505159
 31
0.0
  0
LINE
  5
24A
  8
0
 10
584.88139312784267
 20
469.5227744249483
 30
0.0
 11
577.38139312784278
 21
469.5227744249483
 31
0.0
  0
LINE
  5
24B
  8
0
 10
584.38139312784267
 20
466.5
 30
0.0
 11
584.38139312784267
 21
469.5227744249483
 31
0.0
  0
LINE
  5
24C
  8
0
 10
575.38139312784267
 20
466.5
 30
0.0
 11
575.38139312784267
 21
483.49999999999989
 31
0.0
  0
ARC
  5
24D
  8
0
 10
539.88139312784278
 20
474.99999999999989
 30
0.0
 40
40.000000000000021
 50
168.78772858235021
 51
191.21227141764959
  0
LINE
  5
24E
  8
0
 10
572.96465421726714
 20
485.07986412127389
 30
0.0
 11
550.88139312784244
 21
486.0
 31
0.0
  0
LINE
  5
24F
  8
0
 10
550.88139312784301
 20
464.0
 30
0.0
 11
572.96465421726714
 21
464.920135878726
 31
0.0
  0
ARC
  5
250
  8
0
 10
504.56850596182369
 20
481.99999999999989
 30
0.0
 40
4.0
 50
89.999999999999986
 51
168.7877285823507
  0
ARC
  5
251
  8
0
 10
504.56850596182369
 20
468.0
 30
0.0
 40
4.0
 50
191.2122714176497
 51
270.0
  0
LINE
  5
252
  8
2
 10
587.88139312784267
 20
479.99999999999989
 30
0.0
 11
587.88139312784267
 21
470.0
 31
0.0
  0
LINE
  5
253
  8
2
 10
587.08139312784283
 20
471.14999999999998
 30
0.0
 11
585.68139312784274
 21
471.14999999999998
 31
0.0
  0
ARC
  5
254
  8
2
 10
587.08139312784283
 20
470.35000000000002
 30
0.0
 40
0.8
 50
360.0
 51
89.999999999999915
  0
ARC
  5
255
  8
2
 10
585.68139312784274
 20
470.35000000000002
 30
0.0
 40
0.8
 50
89.999999999999986
 51
180.0
  0
ARC
  5
256
  8
2
 10
585.68139312784274
 20
479.64999999999992
 30
0.0
 40
0.8
 50
180.0
 51
270.0
  0
ARC
  5
257
  8
2
 10
587.08139312784283
 20
479.64999999999992
 30
0.0
 40
0.8
 50
270.00000000000011
 51
360.0
  0
LINE
  5
258
  8
2
 10
587.08139312784283
 20
478.84999999999991
 30
0.0
 11
585.68139312784274
 21
478.84999999999991
 31
0.0
  0
LINE
  5
259
  8
0
 10
550.88139312784244
 20
486.0
 30
0.0
 11
550.88139312784301
 21
464.0
 31
0.0
  0
LINE
  5
25A
  8
2
 10
597.38139312784415
 20
470.00000000000142
 30
0.0
 11
602.9977289553965
 21
470.00000000000142
 31
0.0
  0
LINE
  5
25B
  8
2
 10
598.19339312784575
 20
470.81200000000291
 30
0.0
 11
602.95499211329104
 21
470.81200000000291
 31
0.0
  0
LINE
  5
25C
  8
0
 10
550.88139312784244
 20
677.52877697841711
 30
0.0
 11
550.8813931278429
 21
655.528776978417
 31
0.0
  0
ARC
  5
25D
  8
0
 10
504.56850596182352
 20
659.52877697841711
 30
0.0
 40
4.0
 50
191.2122714176497
 51
270.0
  0
ARC
  5
25E
  8
0
 10
504.56850596182352
 20
673.528776978417
 30
0.0
 40
4.0
 50
89.999999999999986
 51
168.7877285823507
  0
LINE
  5
25F
  8
0
 10
550.8813931278429
 20
655.528776978417
 30
0.0
 11
572.96465421726703
 21
656.448912857143
 31
0.0
  0
LINE
  5
260
  8
0
 10
572.96465421726703
 20
676.60864109969089
 30
0.0
 11
550.88139312784244
 21
677.52877697841711
 31
0.0
  0
ARC
  5
261
  8
0
 10
539.88139312784278
 20
666.52877697841689
 30
0.0
 40
40.000000000000021
 50
168.78772858235021
 51
191.21227141764959
  0
LINE
  5
262
  8
0
 10
575.38139312784256
 20
658.02877697841689
 30
0.0
 11
575.38139312784256
 21
675.02877697841689
 31
0.0
  0
LINE
  5
263
  8
0
 10
504.56850596182352
 20
655.52877697841711
 30
0.0
 11
550.8813931278429
 21
655.528776978417
 31
0.0
  0
LINE
  5
264
  8
0
 10
504.56850596182352
 20
677.528776978417
 30
0.0
 11
550.88139312784244
 21
677.52877697841711
 31
0.0
  0
LINE
  5
265
  8
0
 10
575.38139312784256
 20
658.02877697841689
 30
0.0
 11
574.88139312784256
 21
658.52877697841689
 31
0.0
  0
LINE
  5
266
  8
0
 10
575.38139312784256
 20
675.02877697841711
 30
0.0
 11
574.88139312784256
 21
674.528776978417
 31
0.0
  0
LINE
  5
267
  8
0
 10
577.38139312784256
 20
658.02877697841689
 30
0.0
 11
575.38139312784256
 21
658.02877697841689
 31
0.0
  0
LINE
  5
268
  8
0
 10
577.38139312784256
 20
675.02877697841689
 30
0.0
 11
575.38139312784256
 21
675.02877697841689
 31
0.0
  0
LINE
  5
269
  8
0
 10
584.88139312784256
 20
673.028776978417
 30
0.0
 11
584.88139312784256
 21
660.028776978417
 31
0.0
  0
LINE
  5
26A
  8
0
 10
574.88139312784256
 20
674.61037495350627
 30
0.0
 11
574.88139312784256
 21
658.44717900332785
 31
0.0
  0
ARC
  5
26B
  8
0
 10
572.88139312784256
 20
658.44717900332785
 30
0.0
 40
2.0
 50
272.38594403038888
 51
360.0
  0
ARC
  5
26C
  8
0
 10
572.88139312784256
 20
674.61037495350627
 30
0.0
 40
2.0
 50
360.0
 51
87.614055969610931
  0
LINE
  5
26D
  8
0
 10
577.38139312784256
 20
675.02877697841689
 30
0.0
 11
577.38139312784256
 21
673.028776978417
 31
0.0
  0
LINE
  5
26E
  8
0
 10
577.38139312784256
 20
673.028776978417
 30
0.0
 11
584.88139312784256
 21
673.028776978417
 31
0.0
  0
LINE
  5
26F
  8
0
 10
577.38139312784256
 20
660.028776978417
 30
0.0
 11
584.88139312784256
 21
660.028776978417
 31
0.0
  0
LINE
  5
270
  8
0
 10
577.38139312784256
 20
660.028776978417
 30
0.0
 11
577.38139312784256
 21
658.02877697841689
 31
0.0
  0
LINE
  5
271
  8
0
 10
550.88139312784244
 20
137.5287769784172
 30
0.0
 11
550.8813931278429
 21
115.5287769784173
 31
0.0
  0
ARC
  5
272
  8
0
 10
504.56850596182352
 20
119.5287769784173
 30
0.0
 40
4.0
 50
191.2122714176497
 51
270.0
  0
ARC
  5
273
  8
0
 10
504.56850596182352
 20
133.5287769784172
 30
0.0
 40
4.0
 50
89.999999999999986
 51
168.7877285823507
  0
LINE
  5
274
  8
0
 10
550.8813931278429
 20
115.5287769784173
 30
0.0
 11
572.96465421726703
 21
116.4489128571433
 31
0.0
  0
LINE
  5
275
  8
0
 10
572.96465421726703
 20
136.60864109969111
 30
0.0
 11
550.88139312784244
 21
137.5287769784172
 31
0.0
  0
ARC
  5
276
  8
0
 10
539.88139312784278
 20
126.5287769784172
 30
0.0
 40
40.000000000000021
 50
168.78772858235021
 51
191.21227141764959
  0
LINE
  5
277
  8
0
 10
575.38139312784256
 20
118.0287769784172
 30
0.0
 11
575.38139312784256
 21
135.02877697841731
 31
0.0
  0
LINE
  5
278
  8
0
 10
504.56850596182352
 20
115.5287769784173
 30
0.0
 11
550.8813931278429
 21
115.5287769784173
 31
0.0
  0
LINE
  5
279
  8
0
 10
504.56850596182352
 20
137.5287769784172
 30
0.0
 11
550.88139312784244
 21
137.5287769784172
 31
0.0
  0
LINE
  5
27A
  8
0
 10
575.38139312784256
 20
118.0287769784172
 30
0.0
 11
574.88139312784256
 21
118.5287769784173
 31
0.0
  0
LINE
  5
27B
  8
0
 10
575.38139312784256
 20
135.02877697841731
 30
0.0
 11
574.88139312784256
 21
134.52877697841731
 31
0.0
  0
LINE
  5
27C
  8
0
 10
577.38139312784256
 20
118.0287769784172
 30
0.0
 11
575.38139312784256
 21
118.0287769784172
 31
0.0
  0
LINE
  5
27D
  8
0
 10
577.38139312784256
 20
135.02877697841731
 30
0.0
 11
575.38139312784256
 21
135.02877697841731
 31
0.0
  0
LINE
  5
27E
  8
0
 10
584.88139312784256
 20
133.02877697841731
 30
0.0
 11
584.88139312784256
 21
120.0287769784172
 31
0.0
  0
LINE
  5
27F
  8
0
 10
574.88139312784256
 20
134.61037495350649
 30
0.0
 11
574.88139312784256
 21
118.447179003328
 31
0.0
  0
ARC
  5
280
  8
0
 10
572.88139312784256
 20
118.447179003328
 30
0.0
 40
2.0
 50
272.38594403038888
 51
360.0
  0
ARC
  5
281
  8
0
 10
572.88139312784256
 20
134.61037495350649
 30
0.0
 40
2.0
 50
360.0
 51
87.614055969610931
  0
LINE
  5
282
  8
0
 10
577.38139312784256
 20
135.02877697841731
 30
0.0
 11
577.38139312784256
 21
133.02877697841731
 31
0.0
  0
LINE
  5
283
  8
0
 10
577.38139312784256
 20
133.02877697841731
 30
0.0
 11
584.88139312784256
 21
133.02877697841731
 31
0.0
  0
LINE
  5
284
  8
0
 10
577.38139312784256
 20
120.0287769784172
 30
0.0
 11
584.88139312784256
 21
120.0287769784172
 31
0.0
  0
LINE
  5
285
  8
0
 10
577.38139312784256
 20
120.0287769784172
 30
0.0
 11
577.38139312784256
 21
118.0287769784172
 31
0.0
  0
CIRCLE
  5
28D
  8
0
 10
207.4999999999998
 20
390.0
 30
0.0
 40
99.0
  0
CIRCLE
  5
28E
  8
0
 10
916.23255198435356
 20
390.0
 30
0.0
 40
99.0
  0
TEXT
  5
389
  8
0
 62
     3
 10
0.0
 20
0.0
 30
0.0
 40
10.0
  1
DHW200ER
  7
STANDARD1
  0
ENDSEC
  0
EOF
