  0
SECTION
  2
HEADER
  9
$ACADVER
  1
AC1009
  9
$INSBASE
 10
0.0
 20
0.0
 30
0.0
  9
$EXTMIN
 10
0.0
 20
-2.960436562073669
 30
0.0
  9
$EXTMAX
 10
688.98718645121471
 20
511.97699707473799
 30
0.0
  9
$LIMMIN
 10
0.0
 20
0.0
  9
$LIMMAX
 10
750.0
 20
540.0
  9
$ORTHOMODE
 70
     1
  9
$REGENMODE
 70
     1
  9
$FILLMODE
 70
     1
  9
$QTEXTMODE
 70
     0
  9
$MIRRTEXT
 70
     0
  9
$DRAGMODE
 70
     2
  9
$LTSCALE
 40
20.0
  9
$OSMODE
 70
  3071
  9
$ATTMODE
 70
     1
  9
$TEXTSIZE
 40
0.2
  9
$TRACEWID
 40
0.05
  9
$TEXTSTYLE
  7
STANDARD
  9
$CLAYER
  8
0
  9
$CELTYPE
  6
BYLAYER
  9
$CECOLOR
 62
   256
  9
$DIMSCALE
 40
2.0
  9
$DIMASZ
 40
3.0
  9
$DIMEXO
 40
2.0
  9
$DIMDLI
 40
0.3799999999999999
  9
$DIMRND
 40
0.0
  9
$DIMDLE
 40
0.0
  9
$DIMEXE
 40
2.0
  9
$DIMTP
 40
0.0
  9
$DIMTM
 40
0.0
  9
$DIMTXT
 40
3.2000000000000002
  9
$DIMCEN
 40
0.09
  9
$DIMTSZ
 40
0.0
  9
$DIMTOL
 70
     0
  9
$DIMLIM
 70
     0
  9
$DIMTIH
 70
     0
  9
$DIMTOH
 70
     0
  9
$DIMSE1
 70
     0
  9
$DIMSE2
 70
     0
  9
$DIMTAD
 70
     1
  9
$DIMZIN
 70
     0
  9
$DIMBLK
  1

  9
$DIMASO
 70
     0
  9
$DIMSHO
 70
     0
  9
$DIMPOST
  1

  9
$DIMAPOST
  1

  9
$DIMALT
 70
     0
  9
$DIMALTD
 70
     2
  9
$DIMALTF
 40
25.399999999999999
  9
$DIMLFAC
 40
1.0
  9
$DIMTOFL
 70
     0
  9
$DIMTVP
 40
1.6000000000000001
  9
$DIMTIX
 70
     1
  9
$DIMSOXD
 70
     0
  9
$DIMSAH
 70
     0
  9
$DIMBLK1
  1

  9
$DIMBLK2
  1

  9
$DIMSTYLE
  2
STANDARD
  9
$DIMCLRD
 70
     0
  9
$DIMCLRE
 70
     0
  9
$DIMCLRT
 70
     0
  9
$DIMTFAC
 40
1.0
  9
$DIMGAP
 40
0.09
  9
$LUNITS
 70
     2
  9
$LUPREC
 70
     4
  9
$SKETCHINC
 40
0.1
  9
$FILLETRAD
 40
0.0
  9
$AUNITS
 70
     0
  9
$AUPREC
 70
     0
  9
$MENU
  1
E:\r13\win\SUPPORT\ACAD
  9
$ELEVATION
 40
0.0
  9
$PELEVATION
 40
0.0
  9
$THICKNESS
 40
0.0
  9
$LIMCHECK
 70
     0
  9
$BLIPMODE
 70
     0
  9
$CHAMFERA
 40
0.0
  9
$CHAMFERB
 40
0.0
  9
$SKPOLY
 70
     0
  9
$TDCREATE
 40
2448181.545183681
  9
$TDUPDATE
 40
2456598.6088126739
  9
$TDINDWG
 40
0.0027058218
  9
$TDUSRTIMER
 40
0.0027058218
  9
$USRTIMER
 70
     1
  9
$ANGBASE
 50
0.0
  9
$ANGDIR
 70
     0
  9
$PDMODE
 70
     0
  9
$PDSIZE
 40
0.0
  9
$PLINEWID
 40
0.0
  9
$COORDS
 70
     1
  9
$SPLFRAME
 70
     0
  9
$SPLINETYPE
 70
     6
  9
$SPLINESEGS
 70
     8
  9
$ATTDIA
 70
     0
  9
$ATTREQ
 70
     1
  9
$HANDLING
 70
     1
  9
$HANDSEED
  5
3DE
  9
$SURFTAB1
 70
     6
  9
$SURFTAB2
 70
     6
  9
$SURFTYPE
 70
     6
  9
$SURFU
 70
     6
  9
$SURFV
 70
     6
  9
$UCSNAME
  2

  9
$UCSORG
 10
0.0
 20
0.0
 30
0.0
  9
$UCSXDIR
 10
1.0
 20
0.0
 30
0.0
  9
$UCSYDIR
 10
0.0
 20
1.0
 30
0.0
  9
$PUCSNAME
  2

  9
$PUCSORG
 10
0.0
 20
0.0
 30
0.0
  9
$PUCSXDIR
 10
1.0
 20
0.0
 30
0.0
  9
$PUCSYDIR
 10
0.0
 20
1.0
 30
0.0
  9
$USERI1
 70
     0
  9
$USERI2
 70
     1
  9
$USERI3
 70
     0
  9
$USERI4
 70
     0
  9
$USERI5
 70
     0
  9
$USERR1
 40
0.0
  9
$USERR2
 40
0.0
  9
$USERR3
 40
0.0
  9
$USERR4
 40
0.0
  9
$USERR5
 40
0.0
  9
$WORLDVIEW
 70
     1
  9
$SHADEDGE
 70
     3
  9
$SHADEDIF
 70
    70
  9
$TILEMODE
 70
     1
  9
$MAXACTVP
 70
    16
  9
$PLIMCHECK
 70
     0
  9
$PEXTMIN
 10
1.0000000000000000E+020
 20
1.0000000000000000E+020
 30
1.0000000000000000E+020
  9
$PEXTMAX
 10
-1.0000000000000000E+020
 20
-1.0000000000000000E+020
 30
-1.0000000000000000E+020
  9
$PLIMMIN
 10
0.0
 20
0.0
  9
$PLIMMAX
 10
12.0
 20
9.0
  9
$UNITMODE
 70
     0
  9
$VISRETAIN
 70
     0
  9
$PLINEGEN
 70
     1
  9
$PSLTSCALE
 70
     0
  0
ENDSEC
  0
SECTION
  2
TABLES
  0
TABLE
  2
VPORT
 70
     1
  0
VPORT
  2
*ACTIVE
 70
     0
 10
0.0
 20
0.0
 11
1.0
 21
1.0
 12
390.03402345615979
 22
268.50860658393782
 13
0.0
 23
0.0
 14
20.0
 24
20.0
 15
20.0
 25
20.0
 16
0.0
 26
0.0
 36
1.0
 17
0.0
 27
0.0
 37
0.0
 40
547.85258761088789
 41
1.831871345029239
 42
50.0
 43
0.0
 44
0.0
 50
0.0
 51
0.0
 71
     0
 72
   500
 73
     1
 74
     0
 75
     0
 76
     0
 77
     0
 78
     0
  0
ENDTAB
  0
TABLE
  2
LTYPE
 70
     4
  0
LTYPE
  2
CONTINUOUS
 70
     0
  3
Solid Line
 72
    65
 73
     0
 40
0.0
  0
LTYPE
  2
CENTER
 70
     0
  3
____ _ ____ _ ____ _ ____ _ ____ _ ____ _ ____
 72
    65
 73
     4
 40
2.0
 49
1.25
 49
-0.25
 49
0.25
 49
-0.25
  0
LTYPE
  2
HIDDEN
 70
     0
  3
_ _ _ _ _ _ _ _ _ _ _ _ _ _ _ _ _ _ _ _ _ _ _
 72
    65
 73
     2
 40
0.375
 49
0.25
 49
-0.125
  0
LTYPE
  2
PHANTOM2
 70
     0
  3
___ _ _ ___ _ _ ___ _ _ ___ _ _
 72
    65
 73
     6
 40
1.25
 49
0.625
 49
-0.125
 49
0.125
 49
-0.125
 49
0.125
 49
-0.125
  0
ENDTAB
  0
TABLE
  2
LAYER
 70
     4
  0
LAYER
  2
0
 70
     0
 62
     7
  6
CONTINUOUS
  0
LAYER
  2
1
 70
     0
 62
     1
  6
CENTER
  0
LAYER
  2
3
 70
     0
 62
     3
  6
CONTINUOUS
  0
LAYER
  2
2
 70
     0
 62
     2
  6
HIDDEN
  0
ENDTAB
  0
TABLE
  2
STYLE
 70
     2
  0
STYLE
  2
STANDARD
 70
     0
 40
0.0
 41
1.0
 50
0.0
 71
     0
 42
0.2
  3
TXT
  4
BIGFONT
  0
STYLE
  2
STANDARD1
 70
     0
 40
0.0
 41
1.0
 50
0.0
 71
     0
 42
3.0
  3
txt
  4

  0
ENDTAB
  0
TABLE
  2
VIEW
 70
     1
  0
VIEW
  2
ALL
 70
     0
 40
540.0
 10
441.98319327731087
 20
270.0
 41
0.0
 11
0.0
 21
0.0
 31
1.0
 12
0.0
 22
0.0
 32
0.0
 42
0.0
 43
0.0
 44
0.0
 50
0.0
 71
     0
  0
ENDTAB
  0
TABLE
  2
UCS
 70
     0
  0
ENDTAB
  0
TABLE
  2
APPID
 70
     3
  0
APPID
  2
ACAD
 70
     0
  0
APPID
  2
ACAD_MLEADERVER
 70
     0
  0
APPID
  2
ACAD_NAV_VCDISPLAY
 70
     0
  0
ENDTAB
  0
TABLE
  2
DIMSTYLE
 70
     1
  0
DIMSTYLE
  2
STANDARD
 70
     0
  3

  4

  5

  6

  7

 40
1.0
 41
0.18
 42
0.0625
 43
0.38
 44
0.18
 45
0.0
 46
0.0
 47
0.0
 48
0.0
140
0.18
141
0.09
142
0.0
143
25.399999999999999
144
1.0
145
0.0
146
1.0
147
0.09
 71
     0
 72
     0
 73
     1
 74
     1
 75
     0
 76
     0
 77
     0
 78
     0
170
     0
171
     2
172
     0
173
     0
174
     0
175
     0
176
     0
177
     0
178
     0
  0
ENDTAB
  0
ENDSEC
  0
SECTION
  2
BLOCKS
  0
BLOCK
  8
0
  2
$MODEL_SPACE
 70
     0
 10
0.0
 20
0.0
 30
0.0
  3
$MODEL_SPACE
  1

  0
ENDBLK
  5
286
  8
0
  0
BLOCK
 67
     1
  8
0
  2
$PAPER_SPACE
 70
     0
 10
0.0
 20
0.0
 30
0.0
  3
$PAPER_SPACE
  1

  0
ENDBLK
  5
284
 67
     1
  8
0
  0
ENDSEC
  0
SECTION
  2
ENTITIES
  0
CIRCLE
  5
36
  8
0
 10
157.6935067350507
 20
262.57593924860112
 30
0.0
 40
44.0
  0
LINE
  5
37
  8
1
 10
157.6935067350507
 20
342.57593924860112
 30
0.0
 11
157.6935067350507
 21
182.57593924860109
 31
0.0
  0
LINE
  5
38
  8
1
 10
77.693506735050704
 20
262.57593924860112
 30
0.0
 11
237.6935067350507
 21
262.57593924860112
 31
0.0
  0
CIRCLE
  5
39
  8
0
 10
157.6935067350507
 20
318.57593924860112
 30
0.0
 40
9.0
  0
LINE
  5
3A
  8
1
 10
142.64943634296901
 20
318.57593924860117
 30
0.0
 11
172.7375771271326
 21
318.57593924860112
 31
0.0
  0
LINE
  5
3B
  8
1
 10
396.88978096787139
 20
318.57593924860112
 30
0.0
 11
298.38978096787127
 21
318.57593924860112
 31
0.0
  0
LINE
  5
3C
  8
0
 10
428.88978096787139
 20
280.57593924860112
 30
0.0
 11
428.88978096787139
 21
244.57593924860109
 31
0.0
  0
LINE
  5
3D
  8
0
 10
389.8897809678715
 20
328.32401987257009
 30
0.0
 11
389.8897809678715
 21
196.82786243932941
 31
0.0
  0
LINE
  5
3E
  8
0
 10
373.8897809678715
 20
196.8278624393289
 30
0.0
 11
373.8897809678715
 21
328.32401605787328
 31
0.0
  0
LINE
  5
3F
  8
1
 10
438.8897809678715
 20
262.57593924860112
 30
0.0
 11
363.88978096787162
 21
262.57593924860112
 31
0.0
  0
ARC
  5
40
  8
0
 10
157.6935067350507
 20
318.57593924860112
 30
0.0
 40
10.0
 50
182.86132898723909
 51
357.13867101276088
  0
LINE
  5
41
  8
0
 10
426.8897809678715
 20
242.57593924860109
 30
0.0
 11
411.88978096787139
 21
242.57593924860109
 31
0.0
  0
LINE
  5
42
  8
0
 10
390.00450999770828
 20
218.7774665197359
 30
0.0
 11
407.04678883660017
 21
219.67061450760451
 31
0.0
  0
ARC
  5
43
  8
0
 10
381.8897809678715
 20
213.0759392486012
 30
0.0
 40
20.0
 50
252.89536482335649
 51
287.10463517664402
  0
ARC
  5
44
  8
0
 10
376.8897809678715
 20
196.8278624393289
 30
0.0
 40
3.0
 50
180.00000000000031
 51
252.8953648233566
  0
ARC
  5
45
  8
0
 10
386.8897809678715
 20
196.82786243932941
 30
0.0
 40
3.0
 50
287.10463517664408
 51
0.0
  0
LINE
  5
46
  8
2
 10
401.8897809678715
 20
225.12593924860121
 30
0.0
 11
401.8897809678715
 21
300.02593924860111
 31
0.0
  0
LINE
  5
47
  8
2
 10
404.88978096787139
 20
243.07593924860109
 30
0.0
 11
404.8897809678715
 21
282.07593924860112
 31
0.0
  0
ARC
  5
48
  8
2
 10
401.88978096787139
 20
243.07593924860109
 30
0.0
 40
3.0
 50
270.0
 51
0.0
  0
ARC
  5
49
  8
2
 10
401.88978096787162
 20
282.07593924860112
 30
0.0
 40
3.0
 50
359.99999999999989
 51
90.0
  0
LINE
  5
4A
  8
2
 10
380.8897809678715
 20
224.72593924860109
 30
0.0
 11
401.48978096787152
 21
224.72593924860109
 31
0.0
  0
LINE
  5
4B
  8
2
 10
381.3897809678715
 20
300.42593924860103
 30
0.0
 11
401.48978096787152
 21
300.42593924860103
 31
0.0
  0
ARC
  5
4C
  8
2
 10
401.48978096787152
 20
225.12593924860121
 30
0.0
 40
0.4
 50
270.0
 51
0.0
  0
ARC
  5
4D
  8
2
 10
401.48978096787152
 20
300.02593924860111
 30
0.0
 40
0.4
 50
0.0
 51
90.0
  0
LINE
  5
4E
  8
2
 10
380.8897809678715
 20
300.92593924860103
 30
0.0
 11
381.3897809678715
 21
300.42593924860103
 31
0.0
  0
LINE
  5
4F
  8
2
 10
381.3897809678715
 20
224.72593924860121
 30
0.0
 11
380.88978096787162
 21
224.22593924860121
 31
0.0
  0
LINE
  5
50
  8
2
 10
428.38978096787139
 20
256.57593924860112
 30
0.0
 11
404.8897809678715
 21
256.57593924860117
 31
0.0
  0
LINE
  5
51
  8
2
 10
428.38978096787139
 20
256.57593924860112
 30
0.0
 11
428.88978096787139
 21
256.07593924860112
 31
0.0
  0
LINE
  5
52
  8
2
 10
428.38978096787139
 20
268.57593924860112
 30
0.0
 11
428.88978096787139
 21
269.07593924860112
 31
0.0
  0
LINE
  5
53
  8
2
 10
428.38978096787139
 20
268.57593924860112
 30
0.0
 11
404.8897809678715
 21
268.575939248601
 31
0.0
  0
LINE
  5
54
  8
2
 10
428.38978096787139
 20
268.57593924860112
 30
0.0
 11
428.38978096787139
 21
256.57593924860117
 31
0.0
  0
LINE
  5
55
  8
1
 10
420.8897809678715
 20
270.07593924859822
 30
0.0
 11
420.8897809678715
 21
237.57593924860069
 31
0.0
  0
CIRCLE
  5
56
  8
2
 10
420.8897809678715
 20
262.57593924860112
 30
0.0
 40
2.5
  0
CIRCLE
  5
57
  8
2
 10
420.8897809678715
 20
262.57593924860112
 30
0.0
 40
2.0669999999999988
  0
LINE
  5
58
  8
2
 10
418.3897809678744
 20
256.57593924860117
 30
0.0
 11
418.3897809678744
 21
242.57593924860109
 31
0.0
  0
LINE
  5
59
  8
2
 10
418.82278096787621
 20
256.57593924860117
 30
0.0
 11
418.82278096787621
 21
242.57593924860109
 31
0.0
  0
ARC
  5
5A
  8
0
 10
426.8897809678715
 20
244.57593924860109
 30
0.0
 40
2.0
 50
270.0
 51
0.0
  0
ARC
  5
5B
  8
0
 10
426.8897809678715
 20
280.57593924860112
 30
0.0
 40
2.0
 50
0.0
 51
90.0
  0
LINE
  5
5C
  8
2
 10
422.95678096786679
 20
256.57593924860117
 30
0.0
 11
422.95678096786679
 21
242.57593924860109
 31
0.0
  0
LINE
  5
5D
  8
2
 10
423.38978096786849
 20
256.57593924860117
 30
0.0
 11
423.38978096786849
 21
242.57593924860109
 31
0.0
  0
LINE
  5
5E
  8
0
 10
409.88978096787162
 20
302.48537538533401
 30
0.0
 11
409.88978096787139
 21
222.6665031118682
 31
0.0
  0
ARC
  5
5F
  8
0
 10
411.88978096787139
 20
240.57593924860109
 30
0.0
 40
2.0
 50
90.0
 51
179.99999999999989
  0
CIRCLE
  5
60
  8
2
 10
394.88978096787162
 20
262.57593924860112
 30
0.0
 40
2.0669999999999988
  0
CIRCLE
  5
61
  8
2
 10
394.88978096787162
 20
262.57593924860112
 30
0.0
 40
2.5
  0
LINE
  5
62
  8
1
 10
394.88978096787162
 20
270.07593924859827
 30
0.0
 11
394.88978096787162
 21
255.0759446434007
 31
0.0
  0
LINE
  5
63
  8
2
 10
374.3897809678715
 20
201.82316249886881
 30
0.0
 11
376.43596020346649
 21
203.00452463134971
 31
0.0
  0
LINE
  5
64
  8
2
 10
389.38978096787162
 20
200.6684619604894
 30
0.0
 11
385.0495161554345
 21
203.17431501830421
 31
0.0
  0
LINE
  5
65
  8
2
 10
380.9341647536798
 20
218.0154858183414
 30
0.0
 11
378.35145609137902
 21
205.65076809757619
 31
0.0
  0
LINE
  5
66
  8
2
 10
385.37181991903242
 20
214.80664153210199
 30
0.0
 11
383.61289423950012
 21
206.38578484134089
 31
0.0
  0
ARC
  5
67
  8
0
 10
157.6935067350507
 20
262.57593924860112
 30
0.0
 40
61.041451884327159
 50
104.18949031574211
 51
75.810509684257852
  0
ARC
  5
68
  8
0
 10
157.6935067350507
 20
262.57593924860112
 30
0.0
 40
58.676732745649112
 50
105.30583669626689
 51
74.694163303733092
  0
ARC
  5
69
  8
2
 10
374.43596020346649
 20
206.4686262464875
 30
0.0
 40
4.0
 50
299.9999999999996
 51
348.20184463015408
  0
ARC
  5
6A
  8
2
 10
374.8897809678715
 20
200.95713709508439
 30
0.0
 40
1.0
 50
119.9999999999991
 51
179.99999999999989
  0
LINE
  5
6B
  8
2
 10
380.8897809678715
 20
218.57593924860129
 30
0.0
 11
380.8897809678715
 21
224.72593924860109
 31
0.0
  0
ARC
  5
6C
  8
2
 10
390.26618977892298
 20
213.78431884596301
 30
0.0
 40
5.0
 50
94.317411859238447
 51
168.20184463015411
  0
ARC
  5
6D
  8
2
 10
379.95529078170171
 20
218.21995035556921
 30
0.0
 40
1.0
 50
348.20184463015443
 51
20.854063521033201
  0
ARC
  5
6E
  8
2
 10
390.26618977892298
 20
311.36755965123928
 30
0.0
 40
5.0
 50
191.79815536984589
 51
265.68258814075972
  0
ARC
  5
6F
  8
2
 10
388.8897809678715
 20
325.34944194049717
 30
0.0
 40
1.0
 50
309.33052200970337
 51
0.0
  0
ARC
  5
70
  8
0
 10
406.88978096787139
 20
302.48537538533401
 30
0.0
 40
3.0
 50
0.0
 51
87.000000000000014
  0
LINE
  5
71
  8
2
 10
385.37181991903242
 20
310.3452369651003
 30
0.0
 11
385.2881512575521
 21
310.74580068193728
 31
0.0
  0
LINE
  5
72
  8
2
 10
381.3897809678715
 20
300.42593924860103
 30
0.0
 11
380.88978096787162
 21
300.92593924860103
 31
0.0
  0
ARC
  5
73
  8
0
 10
386.8897809678715
 20
328.32401605787283
 30
0.0
 40
3.0
 50
0.0
 51
72.895364823355905
  0
ARC
  5
74
  8
0
 10
376.8897809678715
 20
328.32401605787328
 30
0.0
 40
3.0
 50
107.1046351766433
 51
179.99999999999969
  0
ARC
  5
75
  8
0
 10
381.8897809678715
 20
312.07593924860112
 30
0.0
 40
20.0
 50
72.895364823356033
 51
107.1046351766435
  0
LINE
  5
76
  8
0
 10
390.00450999770828
 20
306.37441197746642
 30
0.0
 11
407.04678883660017
 21
305.48126398959778
 31
0.0
  0
ARC
  5
77
  8
0
 10
411.88978096787139
 20
284.57593924860112
 30
0.0
 40
2.0
 50
180.0
 51
270.0
  0
LINE
  5
78
  8
0
 10
426.8897809678715
 20
282.57593924860112
 30
0.0
 11
411.88978096787139
 21
282.57593924860112
 31
0.0
  0
LINE
  5
79
  8
2
 10
374.63096192276879
 20
308.37734041029029
 30
0.0
 11
380.14860001297399
 21
306.89889373989269
 31
0.0
  0
ARC
  5
7A
  8
2
 10
379.8897809678715
 20
305.93296791360359
 30
0.0
 40
1.0
 50
0.0
 51
75.000000000000753
  0
ARC
  5
7B
  8
0
 10
157.6935067350507
 20
318.57593924860112
 30
0.0
 40
11.87564434701855
 50
188.88703592061341
 51
351.11296407938647
  0
ARC
  5
7C
  8
0
 10
142.99644678689771
 20
316.27784794941772
 30
0.0
 40
3.0
 50
8.8870359206134442
 51
105.30583669626689
  0
ARC
  5
7D
  8
0
 10
172.39056668320359
 20
316.27784794941772
 30
0.0
 40
3.0
 50
74.694163303733333
 51
171.1129640793865
  0
ARC
  5
7E
  8
0
 10
143.71096086089449
 20
317.87707525817268
 30
0.0
 40
4.0
 50
2.8613289872393808
 51
104.18949031574201
  0
ARC
  5
7F
  8
0
 10
171.67605260920689
 20
317.87707525817268
 30
0.0
 40
4.0
 50
75.810509684257553
 51
177.1386710127606
  0
ARC
  5
80
  8
2
 10
399.97126083722389
 20
313.81276874035399
 30
0.0
 40
15.0
 50
134.14786334300899
 51
150.703440574186
  0
ARC
  5
81
  8
2
 10
386.5495161554345
 20
205.7723912296575
 30
0.0
 40
3.0
 50
168.2018446301548
 51
239.9999999999998
  0
ARC
  5
82
  8
2
 10
388.88978096787162
 20
199.80243655670489
 30
0.0
 40
1.0
 50
0.0
 51
59.999999999999908
  0
ARC
  5
83
  8
2
 10
374.88978096787139
 20
309.3432662365795
 30
0.0
 40
1.0
 50
180.0
 51
255.00000000000031
  0
ARC
  5
84
  8
0
 10
406.88978096787139
 20
222.6665031118682
 30
0.0
 40
3.0
 50
272.99999999999977
 51
359.99999999999977
  0
ARC
  5
85
  8
2
 10
399.97126083722389
 20
313.81276874035399
 30
0.0
 40
15.0
 50
174.49238573311669
 51
191.7981553698443
  0
LINE
  5
86
  8
2
 10
385.68978096787151
 20
322.57593924860288
 30
0.0
 11
387.79723756456161
 21
322.57593924860288
 31
0.0
  0
LINE
  5
87
  8
2
 10
386.36628096787081
 20
321.8994392486037
 30
0.0
 11
387.3377435086656
 21
321.8994392486037
 31
0.0
  0
LINE
  5
88
  8
2
 10
380.8897809678715
 20
300.42593924860103
 30
0.0
 11
380.8897809678715
 21
305.93296791360359
 31
0.0
  0
LINE
  5
89
  8
2
 10
119.92615972735079
 20
260.07593924860259
 30
0.0
 11
113.76458687580531
 21
260.07593924860259
 31
0.0
  0
LINE
  5
8A
  8
2
 10
119.8999886267823
 20
260.50893924860219
 30
0.0
 11
113.74208456238379
 21
260.50893924860219
 31
0.0
  0
LINE
  5
8B
  8
2
 10
119.8999886267823
 20
264.64293924859999
 30
0.0
 11
113.74208456238379
 21
264.64293924859999
 31
0.0
  0
LINE
  5
8C
  8
2
 10
119.92615972735079
 20
265.07593924859958
 30
0.0
 11
113.76458687580531
 21
265.07593924859958
 31
0.0
  0
LINE
  5
8D
  8
2
 10
397.8897809678715
 20
224.77593924861279
 30
0.0
 11
397.8897809678715
 21
300.42593924860103
 31
0.0
  0
LINE
  5
8E
  8
2
 10
379.88978096787162
 20
300.19373293799521
 30
0.0
 11
379.8897809678715
 21
225.72593924860121
 31
0.0
  0
LINE
  5
8F
  8
2
 10
379.90275990708869
 20
295.19373293799509
 30
0.0
 11
378.9027599070883
 21
295.19373293799509
 31
0.0
  0
LINE
  5
90
  8
2
 10
377.90275990708818
 20
296.19373293799509
 30
0.0
 11
377.90275990708818
 21
299.19373293799509
 31
0.0
  0
LINE
  5
91
  8
2
 10
378.9027599070883
 20
300.19373293799521
 30
0.0
 11
379.88978096787162
 21
300.19373293799521
 31
0.0
  0
ARC
  5
92
  8
2
 10
378.9027599070883
 20
299.19373293799509
 30
0.0
 40
1.0
 50
90.0
 51
180.0
  0
ARC
  5
93
  8
2
 10
378.9027599070883
 20
296.19373293799509
 30
0.0
 40
1.0
 50
180.0
 51
270.0
  0
LINE
  5
94
  8
2
 10
400.8897809678715
 20
225.82593924860109
 30
0.0
 11
397.8897809678715
 21
225.8259392486012
 31
0.0
  0
LINE
  5
95
  8
2
 10
400.8897809678715
 20
299.32593924860112
 30
0.0
 11
397.8897809678715
 21
299.32593924860112
 31
0.0
  0
ARC
  5
96
  8
2
 10
400.8897809678715
 20
298.32593924860112
 30
0.0
 40
1.0
 50
0.0
 51
90.000000000000099
  0
ARC
  5
97
  8
2
 10
400.8897809678715
 20
226.8259392486012
 30
0.0
 40
1.0
 50
269.99999999999977
 51
0.0
  0
LINE
  5
98
  8
2
 10
401.88978096787162
 20
258.07593924860112
 30
0.0
 11
402.3897809678715
 21
258.07593924860112
 31
0.0
  0
LINE
  5
99
  8
2
 10
401.88978096787162
 20
267.07593924860112
 30
0.0
 11
402.3897809678715
 21
267.07593924860112
 31
0.0
  0
LINE
  5
9A
  8
2
 10
402.3897809678715
 20
267.07593924860112
 30
0.0
 11
402.3897809678715
 21
258.07593924860112
 31
0.0
  0
LINE
  5
9B
  8
2
 10
402.3897809678715
 20
258.53448736431301
 30
0.0
 11
404.41943854981332
 21
258.53448736431301
 31
0.0
  0
LINE
  5
9C
  8
2
 10
404.41943854981332
 20
258.53448736431301
 30
0.0
 11
404.78978096787142
 21
259.17593924858761
 31
0.0
  0
LINE
  5
9D
  8
2
 10
404.41943854981332
 20
266.61739113288928
 30
0.0
 11
404.78978096787142
 21
265.97593924861468
 31
0.0
  0
LINE
  5
9E
  8
2
 10
402.3897809678715
 20
266.61739113288928
 30
0.0
 11
404.41943854981332
 21
266.61739113288928
 31
0.0
  0
LINE
  5
9F
  8
2
 10
404.78978096787142
 20
265.97593924861468
 30
0.0
 11
404.78978096787938
 21
259.17593924860159
 31
0.0
  0
LINE
  5
A0
  8
2
 10
402.3897809678715
 20
260.55521330652982
 30
0.0
 11
404.41943854981332
 21
260.55521330652982
 31
0.0
  0
ARC
  5
A1
  8
2
 10
403.22638074211272
 20
259.54485033542142
 30
0.0
 40
1.5634002257586559
 50
319.73979101933168
 51
319.7397910194257
  0
ARC
  5
A2
  8
2
 10
403.22638074211272
 20
259.54485033542142
 30
0.0
 40
1.5634002257586559
 50
340.26020898075262
 51
40.260208980669169
  0
ARC
  5
A3
  8
2
 10
403.22638074211272
 20
265.60702816178087
 30
0.0
 40
1.5634002257586559
 50
319.73979101933088
 51
19.739791019247502
  0
LINE
  5
A4
  8
2
 10
402.3897809678715
 20
264.59666519067241
 30
0.0
 11
404.41943854981332
 21
264.59666519067241
 31
0.0
  0
ARC
  5
A5
  8
2
 10
399.07728096787253
 20
262.57593924859879
 30
0.0
 40
5.7115655439868123
 50
339.28036122274978
 51
20.71963877730083
  0
LINE
  5
A6
  8
2
 10
404.8897809678715
 20
261.37593924860079
 30
0.0
 11
404.78978096787699
 21
261.27593924860628
 31
0.0
  0
LINE
  5
A7
  8
2
 10
404.8897809678715
 20
263.7759392486015
 30
0.0
 11
404.78978096787392
 21
263.8759392485992
 31
0.0
  0
LINE
  5
A8
  8
2
 10
404.28978096787051
 20
260.77593924860003
 30
0.0
 11
404.28978096787051
 21
260.77593924860003
 31
0.0
  0
ARC
  5
A9
  8
2
 10
380.88978096787162
 20
299.42593924860108
 30
0.0
 40
1.0
 50
90.0
 51
179.99999999999989
  0
ARC
  5
AA
  8
2
 10
380.8897809678715
 20
225.72593924860121
 30
0.0
 40
1.0
 50
180.0
 51
269.99999999999989
  0
ARC
  5
AB
  8
0
 10
158.59350673505509
 20
298.62593924859522
 30
0.0
 40
0.5
 50
180.0
 51
270.00000000000131
  0
ARC
  5
AC
  8
0
 10
158.59350673505051
 20
296.82593924859088
 30
0.0
 40
0.5
 50
90.0
 51
180.00000000000131
  0
ARC
  5
AD
  8
0
 10
156.79350673504629
 20
296.8259392485956
 30
0.0
 40
0.5
 50
0.0
 51
90.000000000001336
  0
ARC
  5
AE
  8
0
 10
156.7935067350509
 20
298.62593924859971
 30
0.0
 40
0.5
 50
270.0
 51
0.0000000000012977
  0
LINE
  5
AF
  8
0
 10
159.343506734876
 20
297.32593924859088
 30
0.0
 11
158.59350673505051
 21
297.32593924859088
 31
0.0
  0
ARC
  5
B0
  8
0
 10
159.343506734876
 20
297.42593924859091
 30
0.0
 40
0.1
 50
270.0
 51
0.0000000000010037
  0
LINE
  5
B1
  8
0
 10
159.44350673487611
 20
298.02593924859508
 30
0.0
 11
159.44350673487611
 21
297.42593924859091
 31
0.0
  0
LINE
  5
B2
  8
0
 10
159.343506734876
 20
298.12593924859522
 30
0.0
 11
158.59350673505509
 21
298.12593924859522
 31
0.0
  0
ARC
  5
B3
  8
0
 10
159.343506734876
 20
298.02593924859508
 30
0.0
 40
0.1
 50
0.0
 51
89.999999999999986
  0
LINE
  5
B4
  8
0
 10
157.29350673504629
 20
296.07593924877
 30
0.0
 11
157.29350673504629
 21
296.8259392485956
 31
0.0
  0
ARC
  5
B5
  8
0
 10
157.39350673504629
 20
296.07593924877
 30
0.0
 40
0.1
 50
180.0
 51
270.00000000000102
  0
LINE
  5
B6
  8
0
 10
157.99350673505049
 20
295.97593924876992
 30
0.0
 11
157.39350673504629
 21
295.97593924876992
 31
0.0
  0
LINE
  5
B7
  8
0
 10
158.09350673505051
 20
296.07593924877
 30
0.0
 11
158.09350673505051
 21
296.82593924859088
 31
0.0
  0
ARC
  5
B8
  8
0
 10
157.99350673505049
 20
296.07593924877
 30
0.0
 40
0.1
 50
270.0
 51
0.0
  0
LINE
  5
B9
  8
0
 10
156.04350673522529
 20
298.12593924859971
 30
0.0
 11
156.7935067350509
 21
298.12593924859971
 31
0.0
  0
ARC
  5
BA
  8
0
 10
156.04350673522529
 20
298.02593924859968
 30
0.0
 40
0.1
 50
90.0
 51
180.00000000000099
  0
LINE
  5
BB
  8
0
 10
155.9435067352253
 20
297.4259392485954
 30
0.0
 11
155.9435067352253
 21
298.02593924859968
 31
0.0
  0
LINE
  5
BC
  8
0
 10
156.04350673522529
 20
297.32593924859549
 30
0.0
 11
156.79350673504629
 21
297.32593924859549
 31
0.0
  0
ARC
  5
BD
  8
0
 10
156.04350673522529
 20
297.4259392485954
 30
0.0
 40
0.1
 50
180.0
 51
270.0
  0
ARC
  5
BE
  8
0
 10
157.39350673505081
 20
299.37593924842071
 30
0.0
 40
0.1
 50
90.0
 51
180.0
  0
ARC
  5
BF
  8
0
 10
157.99350673505509
 20
299.37593924842071
 30
0.0
 40
0.1
 50
0.0
 51
90.000000000001023
  0
LINE
  5
C0
  8
0
 10
158.09350673505509
 20
299.37593924842071
 30
0.0
 11
158.09350673505509
 21
298.62593924859522
 31
0.0
  0
LINE
  5
C1
  8
0
 10
157.39350673505081
 20
299.47593924842067
 30
0.0
 11
157.99350673505509
 21
299.47593924842067
 31
0.0
  0
LINE
  5
C2
  8
0
 10
157.29350673505081
 20
299.37593924842071
 30
0.0
 11
157.2935067350509
 21
298.62593924859971
 31
0.0
  0
LINE
  5
C3
  8
1
 10
152.69347706366949
 20
297.7259392485953
 30
0.0
 11
162.6935067350507
 21
297.72593924859541
 31
0.0
  0
CIRCLE
  5
C4
  8
0
 10
157.6935067350507
 20
297.7259392485953
 30
0.0
 40
2.5
  0
TEXT
  5
C5
  8
0
 10
158.92902431492919
 20
249.5759392485991
 30
0.0
 40
0.75
  1
12
 72
     1
 11
159.42902431492919
 21
249.5759392485991
 31
0.0
  0
TEXT
  5
C6
  8
0
 10
159.30402431492919
 20
250.8259392485991
 30
0.0
 40
0.75
  1
1
 72
     1
 11
159.42902431492919
 21
250.8259392485991
 31
0.0
  0
LINE
  5
C7
  8
0
 10
158.92902431492919
 20
250.5759392485991
 30
0.0
 11
159.92902431492919
 21
250.5759392485991
 31
0.0
  0
TEXT
  5
C8
  8
0
 10
154.94569098159579
 20
250.0759392485991
 30
0.0
 40
1.0
  1
D75R
 72
     1
 11
156.77902431492919
 21
250.0759392485991
 31
0.0
  0
ARC
  5
C9
  8
0
 10
157.6935067350507
 20
262.57593924860117
 30
0.0
 40
2.5
 50
107.4526535302864
 51
72.547346470478814
  0
LINE
  5
CA
  8
0
 10
156.94371275700311
 20
288.07593924860129
 30
0.0
 11
158.44330071306649
 21
288.07593924860129
 31
0.0
  0
LINE
  5
CB
  8
0
 10
156.94371275700311
 20
264.960852033273
 30
0.0
 11
156.94371275700311
 21
288.07593924860129
 31
0.0
  0
LINE
  5
CC
  8
0
 10
158.44330071306649
 20
288.07593924860129
 30
0.0
 11
158.44330071306649
 21
264.96085203328448
 31
0.0
  0
LINE
  5
CD
  8
0
 10
153.02282444079131
 20
274.58147989528362
 30
0.0
 11
154.02475172712781
 21
272.57593924861538
 31
0.0
  0
LINE
  5
CE
  8
0
 10
154.02475172712781
 20
272.57593924861538
 30
0.0
 11
155.02667901346439
 21
274.57704285845472
 31
0.0
  0
LINE
  5
CF
  8
0
 10
156.94371275700311
 20
273.65857623486988
 30
0.0
 11
156.69227608348541
 21
273.91148733411791
 31
0.0
  0
LINE
  5
D0
  8
0
 10
156.69227608348541
 20
273.91148733411791
 30
0.0
 11
156.03288804034079
 21
273.91148733411791
 31
0.0
  0
LINE
  5
D1
  8
0
 10
156.03288804034079
 20
273.91148733411791
 30
0.0
 11
155.69463053768871
 21
273.5787095719495
 31
0.0
  0
LINE
  5
D2
  8
0
 10
155.69463053768871
 20
273.5787095719495
 30
0.0
 11
155.69463053768871
 21
272.90427997395489
 31
0.0
  0
LINE
  5
D3
  8
0
 10
155.69463053768871
 20
272.90427997395489
 30
0.0
 11
156.03288804034079
 21
272.57150221178648
 31
0.0
  0
LINE
  5
D4
  8
0
 10
156.03288804034079
 20
272.57150221178648
 30
0.0
 11
156.69655782402529
 21
272.57150221178648
 31
0.0
  0
LINE
  5
D5
  8
0
 10
155.69463053768871
 20
273.24149477295231
 30
0.0
 11
156.69227608348541
 21
273.24149477295231
 31
0.0
  0
LINE
  5
D6
  8
0
 10
156.69227608348541
 20
273.24149477295231
 30
0.0
 11
156.94371275700311
 21
273.49440587220022
 31
0.0
  0
LINE
  5
D7
  8
0
 10
158.44330071306649
 20
273.8240347695222
 30
0.0
 11
158.69458830875971
 21
273.57866186187613
 31
0.0
  0
LINE
  5
D8
  8
0
 10
158.69458830875971
 20
273.57866186187613
 30
0.0
 11
158.69458830875971
 21
272.57727513067152
 31
0.0
  0
LINE
  5
D9
  8
0
 10
159.36014574149939
 20
274.58004859308062
 30
0.0
 11
159.36014574149939
 21
272.90886014100408
 31
0.0
  0
LINE
  5
DA
  8
0
 10
159.36014574149939
 20
272.90886014100408
 30
0.0
 11
159.69932404856871
 21
272.57064343046471
 31
0.0
  0
LINE
  5
DB
  8
0
 10
160.358481890609
 20
274.24183188254142
 30
0.0
 11
160.358481890609
 21
273.91024687220869
 31
0.0
  0
LINE
  5
DC
  8
0
 10
160.358481890609
 20
273.57203016166937
 30
0.0
 11
160.358481890609
 21
272.57064343046471
 31
0.0
  0
LINE
  5
DD
  8
0
 10
162.3679533702269
 20
273.91024687220869
 30
0.0
 11
161.36321763041789
 21
273.91024687220869
 31
0.0
  0
LINE
  5
DE
  8
0
 10
161.36321763041789
 20
273.91024687220869
 30
0.0
 11
161.03043891404809
 21
273.58529356208271
 31
0.0
  0
LINE
  5
DF
  8
0
 10
161.03043891404809
 20
273.58529356208271
 30
0.0
 11
161.03043891404809
 21
272.91549184121072
 31
0.0
  0
LINE
  5
E0
  8
0
 10
161.03043891404809
 20
272.91549184121072
 30
0.0
 11
161.3696172211173
 21
272.57064343046471
 31
0.0
  0
LINE
  5
E1
  8
0
 10
161.3696172211173
 20
272.57064343046471
 30
0.0
 11
162.35515418882801
 21
272.57064343046471
 31
0.0
  0
LINE
  5
E2
  8
0
 10
160.13376881921079
 20
262.03268888218741
 30
0.0
 11
175.3888460228147
 21
253.22516595217809
 31
0.0
  0
LINE
  5
E3
  8
0
 10
175.3888460228147
 20
253.22516595217809
 30
0.0
 11
174.6391835987817
 21
251.92671254522759
 31
0.0
  0
LINE
  5
E4
  8
0
 10
174.6391835987817
 20
251.92671254522759
 30
0.0
 11
159.38410639524329
 21
260.734235475199
 31
0.0
  0
LINE
  5
E5
  8
0
 10
144.94350673505059
 20
284.65958704510462
 30
0.0
 11
141.4435067350507
 21
290.72176487159538
 31
0.0
  0
LINE
  5
E6
  8
3
 10
150.5112782334752
 20
289.38038092813468
 30
0.0
 11
149.28188776923989
 21
293.96852860300157
 31
0.0
  0
LINE
  5
E7
  8
0
 10
135.60985893854729
 20
275.32593924860117
 30
0.0
 11
129.54768111205649
 21
278.82593924860112
 31
0.0
  0
LINE
  5
E8
  8
3
 10
138.07129355713479
 20
282.19815242654789
 30
0.0
 11
134.71253634650341
 21
285.55690963717939
 31
0.0
  0
LINE
  5
E9
  8
0
 10
132.19350673505051
 20
262.57593924860112
 30
0.0
 11
125.1935067350507
 21
262.57593924860112
 31
0.0
  0
LINE
  5
EA
  8
3
 10
130.88906505552839
 20
269.75816775021889
 30
0.0
 11
126.3009173806616
 21
270.98755821445422
 31
0.0
  0
LINE
  5
EB
  8
0
 10
135.60985893854729
 20
249.825939248601
 30
0.0
 11
129.54768111205649
 21
246.3259392486012
 31
0.0
  0
LINE
  5
EC
  8
3
 10
130.88906505551699
 20
255.39371074702561
 30
0.0
 11
126.3009173806503
 21
254.1643202827903
 31
0.0
  0
LINE
  5
ED
  8
0
 10
144.94350673505059
 20
240.49229145209779
 30
0.0
 11
141.4435067350507
 21
234.43011362560691
 31
0.0
  0
LINE
  5
EE
  8
3
 10
138.0712935571039
 20
242.95372607068521
 30
0.0
 11
134.7125363464724
 21
239.5949688600538
 31
0.0
  0
LINE
  5
EF
  8
0
 10
157.6935067350507
 20
237.07593924860089
 30
0.0
 11
157.6935067350507
 21
230.0759392486012
 31
0.0
  0
LINE
  5
F0
  8
3
 10
150.5112782334329
 20
235.7714975690788
 30
0.0
 11
149.2818877691976
 21
231.183349894212
 31
0.0
  0
LINE
  5
F1
  8
0
 10
170.44350673505079
 20
240.49229145209779
 30
0.0
 11
173.9435067350507
 21
234.43011362560691
 31
0.0
  0
LINE
  5
F2
  8
3
 10
164.87573523662621
 20
235.77149756906749
 30
0.0
 11
166.10512570086149
 21
231.18334989420069
 31
0.0
  0
LINE
  5
F3
  8
0
 10
179.77715453155409
 20
249.825939248601
 30
0.0
 11
185.83933235804491
 21
246.3259392486012
 31
0.0
  0
LINE
  5
F4
  8
3
 10
177.3157199129665
 20
242.95372607065431
 30
0.0
 11
180.674477123598
 21
239.5949688600229
 31
0.0
  0
LINE
  5
F5
  8
0
 10
183.1935067350509
 20
262.57593924860112
 30
0.0
 11
190.19350673505059
 21
262.57593924860112
 31
0.0
  0
LINE
  5
F6
  8
3
 10
184.49794841457299
 20
255.3937107469834
 30
0.0
 11
189.08609608943971
 21
254.16432028274809
 31
0.0
  0
LINE
  5
F7
  8
0
 10
179.77715453155409
 20
275.32593924860117
 30
0.0
 11
185.83933235804491
 21
278.82593924860112
 31
0.0
  0
LINE
  5
F8
  8
3
 10
184.4979484145843
 20
269.75816775017671
 30
0.0
 11
189.08609608945099
 21
270.98755821441188
 31
0.0
  0
LINE
  5
F9
  8
0
 10
170.44350673505079
 20
284.65958704510462
 30
0.0
 11
173.94350673505059
 21
290.72176487159538
 31
0.0
  0
LINE
  5
FA
  8
3
 10
177.31571991299751
 20
282.19815242651703
 30
0.0
 11
180.67447712362889
 21
285.55690963714852
 31
0.0
  0
TEXT
  5
FB
  8
0
 10
145.19350673504351
 20
280.81151083374692
 30
0.0
 40
2.5
  1
11
 72
     1
 11
146.44350673504351
 21
280.81151083374692
 31
0.0
  0
TEXT
  5
FC
  8
0
 10
136.74960181657099
 20
272.57593924860748
 30
0.0
 40
2.5
  1
10
 72
     1
 11
138.2079351499043
 21
272.57593924860748
 31
0.0
  0
TEXT
  5
FD
  8
0
 10
134.3601734017173
 20
261.32593924860112
 30
0.0
 40
2.5
  1
9
 72
     1
 11
135.1935067350507
 21
261.32593924860112
 31
0.0
  0
TEXT
  5
FE
  8
0
 10
137.374601816564
 20
250.07593924860751
 30
0.0
 40
2.5
  1
8
 72
     1
 11
138.20793514989731
 21
250.07593924860751
 31
0.0
  0
TEXT
  5
FF
  8
0
 10
145.61017340171011
 20
241.84036766345551
 30
0.0
 40
2.5
  1
7
 72
     1
 11
146.4435067350434
 21
241.84036766345551
 31
0.0
  0
TEXT
  5
100
  8
0
 10
156.8601734017173
 20
238.82593924860129
 30
0.0
 40
2.5
  1
6
 72
     1
 11
157.6935067350507
 21
238.82593924860129
 31
0.0
  0
TEXT
  5
101
  8
0
 10
168.11017340171011
 20
241.8403676634471
 30
0.0
 40
2.5
  1
5
 72
     1
 11
168.94350673504351
 21
241.8403676634471
 31
0.0
  0
TEXT
  5
102
  8
0
 10
176.3457449868709
 20
250.07593924860731
 30
0.0
 40
2.5
  1
4
 72
     1
 11
177.1790783202043
 21
250.07593924860731
 31
0.0
  0
TEXT
  5
103
  8
0
 10
179.3601734017173
 20
261.32593924860112
 30
0.0
 40
2.5
  1
3
 72
     1
 11
180.1935067350507
 21
261.32593924860112
 31
0.0
  0
TEXT
  5
104
  8
0
 10
176.34574498686351
 20
272.57593924860743
 30
0.0
 40
2.5
  1
2
 72
     1
 11
177.17907832019679
 21
272.57593924860743
 31
0.0
  0
TEXT
  5
105
  8
0
 10
168.52684006837671
 20
280.81151083375539
 30
0.0
 40
2.5
  1
1
 72
     1
 11
168.9435067350434
 21
280.81151083375539
 31
0.0
  0
LINE
  5
106
  8
3
 10
164.87573523666839
 20
289.38038092812349
 30
0.0
 11
166.1051257009037
 21
293.9685286029902
 31
0.0
  0
LINE
  5
107
  8
0
 10
157.6935067350507
 20
288.07593924860129
 30
0.0
 11
157.6935067350507
 21
295.07593924860112
 31
0.0
  0
CIRCLE
  5
108
  8
0
 10
157.69350673507631
 20
262.57593924860112
 30
0.0
 40
27.75
  0
CIRCLE
  5
109
  8
0
 10
157.6935067350507
 20
262.57593924860112
 30
0.0
 40
32.5
  0
CIRCLE
  5
10A
  8
0
 10
157.6935067350507
 20
262.57593924860112
 30
0.0
 40
37.799999999999997
  0
LINE
  5
10B
  8
1
 10
372.9027599070854
 20
297.72593924859541
 30
0.0
 11
384.88978096787162
 21
297.72593924859541
 31
0.0
  0
CIRCLE
  5
10E
  8
0
 10
608.98718645121482
 20
262.57593924860112
 30
0.0
 40
14.00000000000005
  0
CIRCLE
  5
10F
  8
3
 10
608.98718645121471
 20
318.57593924860112
 30
0.0
 40
4.0
  0
CIRCLE
  5
110
  8
2
 10
608.98718645121471
 20
262.57593924860112
 30
0.0
 40
37.850000000000001
  0
LINE
  5
111
  8
1
 10
596.09623972230645
 20
318.57593924860112
 30
0.0
 11
621.87813318012286
 21
318.57593924860112
 31
0.0
  0
CIRCLE
  5
112
  8
0
 10
608.98718645121471
 20
318.57593924860112
 30
0.0
 40
3.3235000000000001
  0
LINE
  5
113
  8
1
 10
528.9871864512146
 20
262.57593924860112
 30
0.0
 11
688.98718645121471
 21
262.57593924860112
 31
0.0
  0
LINE
  5
114
  8
1
 10
608.98718645121471
 20
342.57593924860112
 30
0.0
 11
608.98718645121471
 21
182.57593924860109
 31
0.0
  0
CIRCLE
  5
115
  8
0
 10
608.98718645121471
 20
262.57593924860112
 30
0.0
 40
44.0
  0
LINE
  5
116
  8
2
 10
652.91610631046012
 20
260.07593924860112
 30
0.0
 11
646.75453345891435
 21
260.07593924860112
 31
0.0
  0
LINE
  5
117
  8
2
 10
652.93860862388158
 20
260.50893924860219
 30
0.0
 11
646.78070455948296
 21
260.50893924860219
 31
0.0
  0
LINE
  5
118
  8
2
 10
628.83032128419916
 20
260.07593924860112
 30
0.0
 11
614.44154250853251
 21
260.07593924860112
 31
0.0
  0
LINE
  5
119
  8
2
 10
628.88008747142806
 20
260.50893924860219
 30
0.0
 11
614.61990435645419
 21
260.50893924860219
 31
0.0
  0
LINE
  5
11A
  8
2
 10
628.88008747142806
 20
264.64293924859999
 30
0.0
 11
614.61990435645419
 21
264.64293924859999
 31
0.0
  0
LINE
  5
11B
  8
2
 10
628.83032128419916
 20
265.07593924860112
 30
0.0
 11
614.44154250853251
 21
265.07593924860112
 31
0.0
  0
LINE
  5
11C
  8
2
 10
652.93860862388158
 20
264.64293924859999
 30
0.0
 11
646.78070455948296
 21
264.64293924859999
 31
0.0
  0
LINE
  5
11D
  8
2
 10
652.91610631046012
 20
265.07593924860112
 30
0.0
 11
646.75453345891435
 21
265.07593924860112
 31
0.0
  0
LINE
  5
11E
  8
2
 10
606.4871864512146
 20
242.73280441561661
 30
0.0
 11
606.4871864512146
 21
257.12158319128588
 31
0.0
  0
LINE
  5
11F
  8
2
 10
606.92018645121573
 20
242.68303822838851
 30
0.0
 11
606.92018645121573
 21
256.94322134336687
 31
0.0
  0
LINE
  5
120
  8
2
 10
611.48718645121482
 20
242.73280441561661
 30
0.0
 11
611.48718645121482
 21
257.12158319128588
 31
0.0
  0
LINE
  5
121
  8
2
 10
611.05418645121358
 20
242.68303822838851
 30
0.0
 11
611.05418645121358
 21
256.94322134336687
 31
0.0
  0
ARC
  5
122
  8
0
 10
608.98718645121448
 20
262.57593924860112
 30
0.0
 40
58.315842113670293
 50
100.0370048860311
 51
79.962995113968915
  0
CIRCLE
  5
123
  8
0
 10
608.98718645121448
 20
262.57593924860112
 30
0.0
 40
62.196152422706447
  0
ARC
  5
124
  8
0
 10
608.98718645121448
 20
318.57593924860112
 30
0.0
 40
7.8301385666637477
 50
183.1843343159756
 51
356.8156656840244
  0
ARC
  5
125
  8
0
 10
599.17222572218009
 20
318.02988968370857
 30
0.0
 40
2.0
 50
3.1843343159758528
 51
100.037004886031
  0
ARC
  5
126
  8
0
 10
618.80214718024922
 20
318.02988968370857
 30
0.0
 40
2.0
 50
79.962995113968987
 51
176.81566568402411
  0
ARC
  5
127
  8
0
 10
608.98718645121448
 20
310.74580068193728
 30
0.0
 40
13.8301385666638
 50
41.860413247434757
 51
138.13958675256521
  0
CIRCLE
  5
128
  8
0
 10
608.98718645121471
 20
262.57593924860112
 30
0.0
 40
6.000000000000056
  0
CIRCLE
  5
129
  8
0
 10
608.98718645121471
 20
262.57593924860112
 30
0.0
 40
20.00000000000264
  0
CIRCLE
  5
12A
  8
0
 10
608.98718645121471
 20
262.57593924860112
 30
0.0
 40
42.756329836877633
  0
ARC
  5
12B
  8
0
 10
390.26618977892298
 20
311.36755965123928
 30
0.0
 40
5.0
 50
265.68258814075972
 51
267.00000000000028
  0
ARC
  5
12C
  8
0
 10
390.26618977892298
 20
213.78431884596301
 30
0.0
 40
5.0
 50
92.999999999999744
 51
94.317411859238447
  0
ARC
  5
12D
  8
0
 10
390.26618977892298
 20
33.784318845962957
 30
0.0
 40
5.0
 50
92.999999999999744
 51
94.317411859238447
  0
ARC
  5
12E
  8
0
 10
390.26618977892298
 20
131.36755965123919
 30
0.0
 40
5.0
 50
265.68258814075972
 51
267.00000000000028
  0
ARC
  5
12F
  8
2
 10
380.8897809678715
 20
45.725939248601151
 30
0.0
 40
1.0
 50
180.0
 51
269.99999999999989
  0
ARC
  5
130
  8
2
 10
380.88978096787162
 20
119.425939248601
 30
0.0
 40
1.0
 50
90.0
 51
179.99999999999989
  0
LINE
  5
131
  8
2
 10
404.8897809678715
 20
83.775939248601503
 30
0.0
 11
404.78978096787392
 21
83.875939248599124
 31
0.0
  0
LINE
  5
132
  8
2
 10
404.8897809678715
 20
81.375939248600787
 30
0.0
 11
404.78978096787699
 21
81.275939248606278
 31
0.0
  0
LINE
  5
133
  8
2
 10
402.3897809678715
 20
87.075939248601117
 30
0.0
 11
402.3897809678715
 21
78.075939248601117
 31
0.0
  0
LINE
  5
134
  8
2
 10
401.88978096787162
 20
87.075939248601117
 30
0.0
 11
402.3897809678715
 21
87.075939248601117
 31
0.0
  0
LINE
  5
135
  8
2
 10
401.88978096787162
 20
78.075939248601117
 30
0.0
 11
402.3897809678715
 21
78.075939248601117
 31
0.0
  0
ARC
  5
136
  8
2
 10
400.8897809678715
 20
46.825939248601138
 30
0.0
 40
1.0
 50
269.99999999999977
 51
0.0
  0
ARC
  5
137
  8
2
 10
400.8897809678715
 20
118.3259392486011
 30
0.0
 40
1.0
 50
0.0
 51
90.000000000000099
  0
LINE
  5
138
  8
2
 10
400.8897809678715
 20
119.3259392486011
 30
0.0
 11
397.8897809678715
 21
119.3259392486011
 31
0.0
  0
LINE
  5
139
  8
2
 10
400.8897809678715
 20
45.825939248601138
 30
0.0
 11
397.8897809678715
 21
45.825939248601173
 31
0.0
  0
ARC
  5
13A
  8
2
 10
378.9027599070883
 20
81.043732938000844
 30
0.0
 40
1.0
 50
180.0
 51
270.0
  0
ARC
  5
13B
  8
2
 10
378.9027599070883
 20
84.043732938000858
 30
0.0
 40
1.0
 50
90.0
 51
180.0
  0
LINE
  5
13C
  8
2
 10
378.9027599070883
 20
85.043732938000844
 30
0.0
 11
379.88978096787162
 21
85.043732938000844
 31
0.0
  0
LINE
  5
13D
  8
2
 10
377.90275990708818
 20
81.043732938000844
 30
0.0
 11
377.90275990708818
 21
84.043732938000858
 31
0.0
  0
LINE
  5
13E
  8
2
 10
379.90275990708869
 20
80.043732938000844
 30
0.0
 11
378.9027599070883
 21
80.043732938000844
 31
0.0
  0
LINE
  5
13F
  8
2
 10
379.88978096787162
 20
119.425939248601
 30
0.0
 11
379.8897809678715
 21
45.725939248601151
 31
0.0
  0
LINE
  5
140
  8
2
 10
397.8897809678715
 20
44.775939248612808
 30
0.0
 11
397.8897809678715
 21
120.425939248601
 31
0.0
  0
ARC
  5
141
  8
0
 10
406.88978096787139
 20
42.666503111868188
 30
0.0
 40
3.0
 50
272.99999999999977
 51
359.99999999999977
  0
ARC
  5
142
  8
2
 10
388.88978096787162
 20
19.802436556704968
 30
0.0
 40
1.0
 50
0.0
 51
59.999999999999908
  0
ARC
  5
143
  8
2
 10
386.5495161554345
 20
25.772391229657529
 30
0.0
 40
3.0
 50
168.2018446301548
 51
239.9999999999998
  0
LINE
  5
144
  8
0
 10
426.8897809678715
 20
102.5759392486011
 30
0.0
 11
411.88978096787139
 21
102.5759392486011
 31
0.0
  0
ARC
  5
145
  8
0
 10
411.88978096787139
 20
104.5759392486011
 30
0.0
 40
2.0
 50
180.0
 51
270.0
  0
LINE
  5
146
  8
0
 10
390.00450999770828
 20
126.37441197746639
 30
0.0
 11
407.04678883660017
 21
125.48126398959781
 31
0.0
  0
ARC
  5
147
  8
0
 10
381.8897809678715
 20
132.075939248601
 30
0.0
 40
20.0
 50
72.895364823356033
 51
107.1046351766435
  0
ARC
  5
148
  8
0
 10
376.8897809678715
 20
148.32401605787331
 30
0.0
 40
3.0
 50
107.1046351766433
 51
179.99999999999969
  0
ARC
  5
149
  8
0
 10
386.8897809678715
 20
148.3240160578728
 30
0.0
 40
3.0
 50
0.0
 51
72.895364823355905
  0
LINE
  5
14A
  8
2
 10
381.3897809678715
 20
120.425939248601
 30
0.0
 11
380.88978096787162
 21
120.925939248601
 31
0.0
  0
ARC
  5
14B
  8
0
 10
406.88978096787139
 20
122.485375385334
 30
0.0
 40
3.0
 50
0.0
 51
87.000000000000014
  0
ARC
  5
14C
  8
2
 10
379.95529078170171
 20
38.219950355569182
 30
0.0
 40
1.0
 50
348.20184463015443
 51
20.854063521033201
  0
ARC
  5
14D
  8
2
 10
390.26618977892298
 20
33.784318845962957
 30
0.0
 40
5.0
 50
94.317411859238447
 51
168.20184463015411
  0
LINE
  5
14E
  8
2
 10
380.8897809678715
 20
38.575939248601259
 30
0.0
 11
380.8897809678715
 21
44.725939248601151
 31
0.0
  0
ARC
  5
14F
  8
2
 10
374.8897809678715
 20
20.957137095084359
 30
0.0
 40
1.0
 50
119.9999999999991
 51
179.99999999999989
  0
ARC
  5
150
  8
2
 10
374.43596020346649
 20
26.468626246487471
 30
0.0
 40
4.0
 50
299.9999999999996
 51
348.20184463015408
  0
LINE
  5
151
  8
2
 10
385.37181991903242
 20
34.806641532101992
 30
0.0
 11
383.61289423950012
 21
26.385784841340922
 31
0.0
  0
LINE
  5
152
  8
2
 10
380.9341647536798
 20
38.015485818341382
 30
0.0
 11
378.35145609137902
 21
25.65076809757625
 31
0.0
  0
LINE
  5
153
  8
2
 10
389.38978096787162
 20
20.668461960489399
 30
0.0
 11
385.0495161554345
 21
23.17431501830421
 31
0.0
  0
LINE
  5
154
  8
2
 10
374.3897809678715
 20
21.823162498868811
 30
0.0
 11
376.43596020346649
 21
23.00452463134971
 31
0.0
  0
LINE
  5
155
  8
1
 10
394.8897809678715
 20
49.725939248601151
 30
0.0
 11
394.8897809678715
 21
34.026630992488393
 31
0.0
  0
ARC
  5
156
  8
0
 10
411.88978096787139
 20
60.575939248601109
 30
0.0
 40
2.0
 50
90.0
 51
179.99999999999989
  0
LINE
  5
157
  8
0
 10
409.88978096787162
 20
122.485375385334
 30
0.0
 11
409.88978096787139
 21
42.666503111868188
 31
0.0
  0
LINE
  5
158
  8
2
 10
423.38978096786849
 20
76.575939248601173
 30
0.0
 11
423.38978096786849
 21
62.575939248601117
 31
0.0
  0
LINE
  5
159
  8
2
 10
422.95678096786679
 20
76.575939248601173
 30
0.0
 11
422.95678096786679
 21
62.575939248601117
 31
0.0
  0
ARC
  5
15A
  8
0
 10
426.8897809678715
 20
100.5759392486011
 30
0.0
 40
2.0
 50
0.0
 51
90.0
  0
ARC
  5
15B
  8
0
 10
426.8897809678715
 20
64.575939248601117
 30
0.0
 40
2.0
 50
270.0
 51
0.0
  0
LINE
  5
15C
  8
2
 10
418.82278096787621
 20
76.575939248601173
 30
0.0
 11
418.82278096787621
 21
62.575939248601117
 31
0.0
  0
LINE
  5
15D
  8
2
 10
418.3897809678744
 20
76.575939248601173
 30
0.0
 11
418.3897809678744
 21
62.575939248601117
 31
0.0
  0
CIRCLE
  5
15E
  8
0
 10
420.8897809678715
 20
82.575939248601117
 30
0.0
 40
2.0669999999999988
  0
CIRCLE
  5
15F
  8
3
 10
420.8897809678715
 20
82.575939248601117
 30
0.0
 40
2.5
  0
LINE
  5
160
  8
1
 10
420.8897809678715
 20
90.075939248598218
 30
0.0
 11
420.8897809678715
 21
57.575939248600719
 31
0.0
  0
LINE
  5
161
  8
2
 10
428.38978096787139
 20
88.575939248601117
 30
0.0
 11
428.38978096787139
 21
76.575939248601173
 31
0.0
  0
LINE
  5
162
  8
2
 10
428.38978096787139
 20
88.575939248601117
 30
0.0
 11
404.8897809678715
 21
88.575939248601003
 31
0.0
  0
LINE
  5
163
  8
2
 10
428.38978096787139
 20
88.575939248601117
 30
0.0
 11
428.88978096787139
 21
89.075939248601117
 31
0.0
  0
LINE
  5
164
  8
2
 10
428.38978096787139
 20
76.575939248601117
 30
0.0
 11
428.88978096787139
 21
76.075939248601117
 31
0.0
  0
LINE
  5
165
  8
2
 10
428.38978096787139
 20
76.575939248601117
 30
0.0
 11
404.8897809678715
 21
76.57593924860123
 31
0.0
  0
LINE
  5
166
  8
2
 10
381.3897809678715
 20
44.725939248601179
 30
0.0
 11
380.88978096787162
 21
44.225939248601179
 31
0.0
  0
LINE
  5
167
  8
2
 10
380.8897809678715
 20
120.925939248601
 30
0.0
 11
381.3897809678715
 21
120.425939248601
 31
0.0
  0
ARC
  5
168
  8
2
 10
401.48978096787152
 20
120.02593924860101
 30
0.0
 40
0.4
 50
0.0
 51
90.0
  0
ARC
  5
169
  8
2
 10
401.48978096787152
 20
45.125939248601149
 30
0.0
 40
0.4
 50
270.0
 51
0.0
  0
LINE
  5
16A
  8
2
 10
381.3897809678715
 20
120.425939248601
 30
0.0
 11
401.48978096787152
 21
120.425939248601
 31
0.0
  0
LINE
  5
16B
  8
2
 10
380.8897809678715
 20
44.725939248601151
 30
0.0
 11
401.48978096787152
 21
44.725939248601151
 31
0.0
  0
ARC
  5
16C
  8
2
 10
401.88978096787162
 20
102.0759392486011
 30
0.0
 40
3.0
 50
359.99999999999989
 51
90.0
  0
ARC
  5
16D
  8
2
 10
401.88978096787139
 20
63.075939248601088
 30
0.0
 40
3.0
 50
270.0
 51
0.0
  0
LINE
  5
16E
  8
2
 10
404.88978096787139
 20
63.075939248601088
 30
0.0
 11
404.8897809678715
 21
102.0759392486011
 31
0.0
  0
LINE
  5
16F
  8
2
 10
401.8897809678715
 20
45.125939248601149
 30
0.0
 11
401.8897809678715
 21
120.02593924860101
 31
0.0
  0
ARC
  5
170
  8
0
 10
386.8897809678715
 20
16.827862439329412
 30
0.0
 40
3.0
 50
287.10463517664408
 51
0.0
  0
ARC
  5
171
  8
0
 10
376.8897809678715
 20
16.82786243932895
 30
0.0
 40
3.0
 50
180.00000000000031
 51
252.8953648233566
  0
ARC
  5
172
  8
0
 10
381.8897809678715
 20
33.075939248601202
 30
0.0
 40
20.0
 50
252.89536482335649
 51
287.10463517664402
  0
LINE
  5
173
  8
0
 10
390.00450999770828
 20
38.777466519735839
 30
0.0
 11
407.04678883660017
 21
39.67061450760449
 31
0.0
  0
LINE
  5
174
  8
0
 10
426.8897809678715
 20
62.575939248601117
 30
0.0
 11
411.88978096787139
 21
62.575939248601117
 31
0.0
  0
LINE
  5
175
  8
1
 10
438.8897809678715
 20
82.575939248601117
 30
0.0
 11
298.3897809678715
 21
82.575939248601117
 31
0.0
  0
LINE
  5
176
  8
0
 10
373.8897809678715
 20
16.827862439328921
 30
0.0
 11
373.8897809678715
 21
148.32401605787331
 31
0.0
  0
LINE
  5
177
  8
0
 10
389.8897809678715
 20
148.32401987257009
 30
0.0
 11
389.8897809678715
 21
16.827862439329412
 31
0.0
  0
LINE
  5
178
  8
0
 10
428.88978096787139
 20
100.5759392486011
 30
0.0
 11
428.88978096787139
 21
64.575939248601117
 31
0.0
  0
LINE
  5
179
  8
2
 10
392.38978096787162
 20
44.725939248601151
 30
0.0
 11
392.38978096787162
 21
38.902473274270392
 31
0.0
  0
LINE
  5
17A
  8
2
 10
392.82278096787257
 20
44.725939248601151
 30
0.0
 11
392.82278096787269
 21
38.925165842699997
 31
0.0
  0
LINE
  5
17B
  8
2
 10
396.95678096787162
 20
44.725939248601158
 30
0.0
 11
396.95678096787162
 21
39.141819602256028
 31
0.0
  0
LINE
  5
17C
  8
2
 10
397.38978096787167
 20
44.725939248601158
 30
0.0
 11
397.38978096787162
 21
39.16451217068559
 31
0.0
  0
LINE
  5
17D
  8
2
 10
404.78978096787552
 20
79.175939248591845
 30
0.0
 11
404.78978096787552
 21
85.975939248591203
 31
0.0
  0
LINE
  5
17E
  8
2
 10
402.3897809678715
 20
86.075939245742674
 30
0.0
 11
404.73204594260108
 21
86.075939245742688
 31
0.0
  0
LINE
  5
17F
  8
2
 10
404.73204594260079
 20
79.075939251439792
 30
0.0
 11
402.3897809678715
 21
79.075939251439806
 31
0.0
  0
LINE
  5
180
  8
2
 10
404.78978096787552
 20
79.175939248591874
 30
0.0
 11
404.73204594260068
 21
79.075939251439792
 31
0.0
  0
ARC
  5
181
  8
2
 10
399.67742556620561
 20
80.825939250015978
 30
0.0
 40
5.054620376395234
 50
339.74384199953772
 51
20.25615800045583
  0
ARC
  5
182
  8
2
 10
399.67742556620561
 20
84.325939247167099
 30
0.0
 40
5.054620376395234
 50
339.7438419995442
 51
20.256158000462239
  0
LINE
  5
183
  8
2
 10
404.78978096787552
 20
85.975939248591203
 30
0.0
 11
404.73204594260108
 21
86.075939245742688
 31
0.0
  0
LINE
  5
184
  8
2
 10
404.419438551685
 20
82.575939248591538
 30
0.0
 11
402.3897809678715
 21
82.575939248591524
 31
0.0
  0
LINE
  5
185
  8
2
 10
374.3897809678715
 20
143.32871599833339
 30
0.0
 11
376.43596020346649
 21
142.14735386585249
 31
0.0
  0
LINE
  5
186
  8
2
 10
389.38978096787162
 20
144.48341653671281
 30
0.0
 11
385.0495161554345
 21
141.97756347889799
 31
0.0
  0
LINE
  5
187
  8
2
 10
380.9341647536798
 20
127.1363926788608
 30
0.0
 11
378.35145609137902
 21
139.50111039962599
 31
0.0
  0
LINE
  5
188
  8
2
 10
385.37181991903242
 20
130.34523696510021
 30
0.0
 11
383.61289423950012
 21
138.76609365586131
 31
0.0
  0
ARC
  5
189
  8
2
 10
374.43596020346649
 20
138.6832522507147
 30
0.0
 40
4.0
 50
11.798155369845929
 51
60.000000000000341
  0
ARC
  5
18A
  8
2
 10
374.8897809678715
 20
144.19474140211781
 30
0.0
 40
1.0
 50
180.0
 51
240.00000000000091
  0
ARC
  5
18B
  8
2
 10
379.95529078170171
 20
126.93192814163299
 30
0.0
 40
1.0
 50
339.1459364789668
 51
11.79815536984562
  0
ARC
  5
18C
  8
2
 10
386.5495161554345
 20
139.3794872675447
 30
0.0
 40
3.0
 50
120.0000000000001
 51
191.7981553698452
  0
ARC
  5
18D
  8
2
 10
390.26618977892298
 20
131.36755965123919
 30
0.0
 40
5.0
 50
191.79815536984589
 51
265.68258814076148
  0
ARC
  5
18E
  8
2
 10
388.88978096787162
 20
145.3494419404972
 30
0.0
 40
1.0
 50
300.0
 51
360.0
  0
LINE
  5
18F
  8
2
 10
380.8897809678715
 20
126.5759392486009
 30
0.0
 11
380.8897809678715
 21
120.425939248601
 31
0.0
  0
LINE
  5
190
  8
2
 10
380.8897809678715
 20
486.575939248601
 30
0.0
 11
380.8897809678715
 21
480.42593924860103
 31
0.0
  0
ARC
  5
191
  8
2
 10
388.88978096787162
 20
505.34944194049717
 30
0.0
 40
1.0
 50
300.0
 51
360.0
  0
ARC
  5
192
  8
2
 10
390.26618977892298
 20
491.36755965123922
 30
0.0
 40
5.0
 50
191.79815536984589
 51
265.68258814076148
  0
ARC
  5
193
  8
2
 10
386.5495161554345
 20
499.37948726754468
 30
0.0
 40
3.0
 50
120.0000000000001
 51
191.7981553698452
  0
ARC
  5
194
  8
2
 10
379.95529078170171
 20
486.93192814163308
 30
0.0
 40
1.0
 50
339.1459364789668
 51
11.79815536984562
  0
ARC
  5
195
  8
2
 10
374.8897809678715
 20
504.19474140211781
 30
0.0
 40
1.0
 50
180.0
 51
240.00000000000091
  0
ARC
  5
196
  8
2
 10
374.43596020346649
 20
498.6832522507147
 30
0.0
 40
4.0
 50
11.798155369845929
 51
60.000000000000341
  0
LINE
  5
197
  8
2
 10
385.37181991903242
 20
490.34523696510018
 30
0.0
 11
383.61289423950012
 21
498.7660936558612
 31
0.0
  0
LINE
  5
198
  8
2
 10
380.9341647536798
 20
487.13639267886077
 30
0.0
 11
378.35145609137902
 21
499.50111039962599
 31
0.0
  0
LINE
  5
199
  8
2
 10
389.38978096787162
 20
504.48341653671281
 30
0.0
 11
385.0495161554345
 21
501.97756347889788
 31
0.0
  0
LINE
  5
19A
  8
2
 10
374.3897809678715
 20
503.32871599833339
 30
0.0
 11
376.43596020346649
 21
502.14735386585249
 31
0.0
  0
LINE
  5
19B
  8
2
 10
404.419438551685
 20
442.57593924859151
 30
0.0
 11
402.3897809678715
 21
442.57593924859151
 31
0.0
  0
LINE
  5
19C
  8
2
 10
404.78978096787552
 20
445.9759392485912
 30
0.0
 11
404.73204594260108
 21
446.07593924574257
 31
0.0
  0
ARC
  5
19D
  8
2
 10
399.67742556620561
 20
444.32593924716701
 30
0.0
 40
5.054620376395234
 50
339.7438419995442
 51
20.256158000462239
  0
ARC
  5
19E
  8
2
 10
399.67742556620561
 20
440.82593925001589
 30
0.0
 40
5.054620376395234
 50
339.74384199953772
 51
20.25615800045583
  0
LINE
  5
19F
  8
2
 10
404.78978096787552
 20
439.17593924859182
 30
0.0
 11
404.73204594260068
 21
439.07593925143971
 31
0.0
  0
LINE
  5
1A0
  8
2
 10
404.73204594260079
 20
439.07593925143971
 30
0.0
 11
402.3897809678715
 21
439.07593925143971
 31
0.0
  0
LINE
  5
1A1
  8
2
 10
402.3897809678715
 20
446.07593924574257
 30
0.0
 11
404.73204594260108
 21
446.07593924574257
 31
0.0
  0
LINE
  5
1A2
  8
2
 10
404.78978096787552
 20
439.1759392485917
 30
0.0
 11
404.78978096787552
 21
445.9759392485912
 31
0.0
  0
LINE
  5
1A3
  8
2
 10
397.38978096787167
 20
480.42593924860103
 30
0.0
 11
397.38978096787162
 21
485.98736632651662
 31
0.0
  0
LINE
  5
1A4
  8
2
 10
396.95678096787162
 20
480.42593924860103
 30
0.0
 11
396.95678096787162
 21
486.01005889494621
 31
0.0
  0
LINE
  5
1A5
  8
2
 10
392.82278096787257
 20
480.42593924860103
 30
0.0
 11
392.82278096787269
 21
486.22671265450219
 31
0.0
  0
LINE
  5
1A6
  8
2
 10
392.38978096787162
 20
480.42593924860103
 30
0.0
 11
392.38978096787162
 21
486.24940522293178
 31
0.0
  0
LINE
  5
1A7
  8
0
 10
428.88978096787139
 20
460.57593924860112
 30
0.0
 11
428.88978096787139
 21
424.57593924860112
 31
0.0
  0
LINE
  5
1A8
  8
0
 10
389.8897809678715
 20
508.32401987256998
 30
0.0
 11
389.8897809678715
 21
376.82786243932941
 31
0.0
  0
LINE
  5
1A9
  8
0
 10
373.8897809678715
 20
376.8278624393289
 30
0.0
 11
373.8897809678715
 21
508.32401605787322
 31
0.0
  0
LINE
  5
1AA
  8
1
 10
438.8897809678715
 20
442.57593924860112
 30
0.0
 11
298.3897809678715
 21
442.57593924860112
 31
0.0
  0
LINE
  5
1AB
  8
0
 10
426.8897809678715
 20
422.575939248601
 30
0.0
 11
411.88978096787139
 21
422.575939248601
 31
0.0
  0
LINE
  5
1AC
  8
0
 10
390.00450999770828
 20
398.77746651973592
 30
0.0
 11
407.04678883660017
 21
399.67061450760451
 31
0.0
  0
ARC
  5
1AD
  8
0
 10
381.8897809678715
 20
393.07593924860117
 30
0.0
 40
20.0
 50
252.89536482335649
 51
287.10463517664402
  0
ARC
  5
1AE
  8
0
 10
376.8897809678715
 20
376.8278624393289
 30
0.0
 40
3.0
 50
180.00000000000031
 51
252.8953648233566
  0
ARC
  5
1AF
  8
0
 10
386.8897809678715
 20
376.82786243932941
 30
0.0
 40
3.0
 50
287.10463517664408
 51
0.0
  0
LINE
  5
1B0
  8
2
 10
401.8897809678715
 20
405.12593924860113
 30
0.0
 11
401.8897809678715
 21
480.02593924860099
 31
0.0
  0
LINE
  5
1B1
  8
2
 10
404.88978096787139
 20
423.07593924860112
 30
0.0
 11
404.8897809678715
 21
462.07593924860112
 31
0.0
  0
ARC
  5
1B2
  8
2
 10
401.88978096787139
 20
423.07593924860112
 30
0.0
 40
3.0
 50
270.0
 51
0.0
  0
ARC
  5
1B3
  8
2
 10
401.88978096787162
 20
462.07593924860112
 30
0.0
 40
3.0
 50
359.99999999999989
 51
90.0
  0
LINE
  5
1B4
  8
2
 10
380.8897809678715
 20
404.72593924860109
 30
0.0
 11
401.48978096787152
 21
404.72593924860109
 31
0.0
  0
LINE
  5
1B5
  8
2
 10
381.3897809678715
 20
480.42593924860091
 30
0.0
 11
401.48978096787152
 21
480.42593924860091
 31
0.0
  0
ARC
  5
1B6
  8
2
 10
401.48978096787152
 20
405.12593924860113
 30
0.0
 40
0.4
 50
270.0
 51
0.0
  0
ARC
  5
1B7
  8
2
 10
401.48978096787152
 20
480.02593924860099
 30
0.0
 40
0.4
 50
0.0
 51
90.0
  0
LINE
  5
1B8
  8
2
 10
380.8897809678715
 20
480.92593924860103
 30
0.0
 11
381.3897809678715
 21
480.42593924860091
 31
0.0
  0
LINE
  5
1B9
  8
2
 10
381.3897809678715
 20
404.72593924860121
 30
0.0
 11
380.88978096787162
 21
404.22593924860121
 31
0.0
  0
LINE
  5
1BA
  8
2
 10
428.38978096787139
 20
436.57593924860112
 30
0.0
 11
404.8897809678715
 21
436.57593924860117
 31
0.0
  0
LINE
  5
1BB
  8
2
 10
428.38978096787139
 20
436.57593924860112
 30
0.0
 11
428.88978096787139
 21
436.07593924860112
 31
0.0
  0
LINE
  5
1BC
  8
2
 10
428.38978096787139
 20
448.57593924860112
 30
0.0
 11
428.88978096787139
 21
449.07593924860112
 31
0.0
  0
LINE
  5
1BD
  8
2
 10
428.38978096787139
 20
448.57593924860112
 30
0.0
 11
404.8897809678715
 21
448.57593924860089
 31
0.0
  0
LINE
  5
1BE
  8
2
 10
428.38978096787139
 20
448.57593924860112
 30
0.0
 11
428.38978096787139
 21
436.57593924860112
 31
0.0
  0
LINE
  5
1BF
  8
1
 10
420.8897809678715
 20
435.07593924860402
 30
0.0
 11
420.8897809678715
 21
467.57593924860151
 31
0.0
  0
CIRCLE
  5
1C0
  8
2
 10
420.8897809678715
 20
442.57593924860112
 30
0.0
 40
2.5
  0
CIRCLE
  5
1C1
  8
2
 10
420.8897809678715
 20
442.57593924860112
 30
0.0
 40
2.0669999999999988
  0
LINE
  5
1C2
  8
2
 10
418.3897809678744
 20
448.575939248601
 30
0.0
 11
418.3897809678744
 21
462.57593924860112
 31
0.0
  0
LINE
  5
1C3
  8
2
 10
418.82278096787621
 20
448.575939248601
 30
0.0
 11
418.82278096787621
 21
462.57593924860112
 31
0.0
  0
ARC
  5
1C4
  8
0
 10
426.8897809678715
 20
424.57593924860112
 30
0.0
 40
2.0
 50
270.0
 51
0.0
  0
ARC
  5
1C5
  8
0
 10
426.8897809678715
 20
460.57593924860112
 30
0.0
 40
2.0
 50
0.0
 51
90.0
  0
LINE
  5
1C6
  8
2
 10
422.95678096786679
 20
448.575939248601
 30
0.0
 11
422.95678096786679
 21
462.57593924860112
 31
0.0
  0
LINE
  5
1C7
  8
2
 10
423.38978096786849
 20
448.575939248601
 30
0.0
 11
423.38978096786849
 21
462.57593924860112
 31
0.0
  0
LINE
  5
1C8
  8
0
 10
409.88978096787162
 20
482.4853753853339
 30
0.0
 11
409.88978096787139
 21
402.66650311186822
 31
0.0
  0
ARC
  5
1C9
  8
0
 10
411.88978096787139
 20
420.57593924860112
 30
0.0
 40
2.0
 50
90.0
 51
179.99999999999989
  0
LINE
  5
1CA
  8
1
 10
394.8897809678715
 20
475.42593924860108
 30
0.0
 11
394.8897809678715
 21
491.1252475047138
 31
0.0
  0
LINE
  5
1CB
  8
2
 10
374.3897809678715
 20
381.82316249886878
 30
0.0
 11
376.43596020346649
 21
383.00452463134968
 31
0.0
  0
LINE
  5
1CC
  8
2
 10
389.38978096787162
 20
380.66846196048942
 30
0.0
 11
385.0495161554345
 21
383.17431501830418
 31
0.0
  0
LINE
  5
1CD
  8
2
 10
380.9341647536798
 20
398.0154858183414
 30
0.0
 11
378.35145609137902
 21
385.6507680975763
 31
0.0
  0
LINE
  5
1CE
  8
2
 10
385.37181991903242
 20
394.80664153210199
 30
0.0
 11
383.61289423950012
 21
386.38578484134092
 31
0.0
  0
ARC
  5
1CF
  8
2
 10
374.43596020346649
 20
386.46862624648747
 30
0.0
 40
4.0
 50
299.9999999999996
 51
348.20184463015408
  0
ARC
  5
1D0
  8
2
 10
374.8897809678715
 20
380.95713709508442
 30
0.0
 40
1.0
 50
119.9999999999991
 51
179.99999999999989
  0
LINE
  5
1D1
  8
2
 10
380.8897809678715
 20
398.57593924860117
 30
0.0
 11
380.8897809678715
 21
404.72593924860109
 31
0.0
  0
ARC
  5
1D2
  8
2
 10
390.26618977892298
 20
393.78431884596301
 30
0.0
 40
5.0
 50
94.317411859238447
 51
168.20184463015411
  0
ARC
  5
1D3
  8
2
 10
379.95529078170171
 20
398.2199503555691
 30
0.0
 40
1.0
 50
348.20184463015443
 51
20.854063521033201
  0
ARC
  5
1D4
  8
0
 10
406.88978096787139
 20
482.4853753853339
 30
0.0
 40
3.0
 50
0.0
 51
87.000000000000014
  0
LINE
  5
1D5
  8
2
 10
381.3897809678715
 20
480.42593924860091
 30
0.0
 11
380.88978096787162
 21
480.92593924860103
 31
0.0
  0
ARC
  5
1D6
  8
0
 10
386.8897809678715
 20
508.32401605787283
 30
0.0
 40
3.0
 50
0.0
 51
72.895364823355905
  0
ARC
  5
1D7
  8
0
 10
376.8897809678715
 20
508.32401605787322
 30
0.0
 40
3.0
 50
107.1046351766433
 51
179.99999999999969
  0
ARC
  5
1D8
  8
0
 10
381.8897809678715
 20
492.07593924860112
 30
0.0
 40
20.0
 50
72.895364823356033
 51
107.1046351766435
  0
LINE
  5
1D9
  8
0
 10
390.00450999770828
 20
486.37441197746642
 30
0.0
 11
407.04678883660017
 21
485.48126398959772
 31
0.0
  0
ARC
  5
1DA
  8
0
 10
411.88978096787139
 20
464.57593924860112
 30
0.0
 40
2.0
 50
180.0
 51
270.0
  0
LINE
  5
1DB
  8
0
 10
426.8897809678715
 20
462.57593924860112
 30
0.0
 11
411.88978096787139
 21
462.57593924860112
 31
0.0
  0
ARC
  5
1DC
  8
2
 10
386.5495161554345
 20
385.7723912296575
 30
0.0
 40
3.0
 50
168.2018446301548
 51
239.9999999999998
  0
ARC
  5
1DD
  8
2
 10
388.88978096787162
 20
379.80243655670489
 30
0.0
 40
1.0
 50
0.0
 51
59.999999999999908
  0
ARC
  5
1DE
  8
0
 10
406.88978096787139
 20
402.66650311186822
 30
0.0
 40
3.0
 50
272.99999999999977
 51
359.99999999999977
  0
LINE
  5
1DF
  8
2
 10
397.8897809678715
 20
404.77593924861281
 30
0.0
 11
397.8897809678715
 21
480.42593924860091
 31
0.0
  0
LINE
  5
1E0
  8
2
 10
379.88978096787162
 20
479.42593924860108
 30
0.0
 11
379.8897809678715
 21
405.72593924860109
 31
0.0
  0
LINE
  5
1E1
  8
2
 10
379.90275990708869
 20
440.0437329380008
 30
0.0
 11
378.9027599070883
 21
440.0437329380008
 31
0.0
  0
LINE
  5
1E2
  8
2
 10
377.90275990708818
 20
441.0437329380008
 30
0.0
 11
377.90275990708818
 21
444.0437329380008
 31
0.0
  0
LINE
  5
1E3
  8
2
 10
378.9027599070883
 20
445.0437329380008
 30
0.0
 11
379.88978096787162
 21
445.0437329380008
 31
0.0
  0
ARC
  5
1E4
  8
2
 10
378.9027599070883
 20
444.0437329380008
 30
0.0
 40
1.0
 50
90.0
 51
180.0
  0
ARC
  5
1E5
  8
2
 10
378.9027599070883
 20
441.0437329380008
 30
0.0
 40
1.0
 50
180.0
 51
270.0
  0
LINE
  5
1E6
  8
2
 10
400.8897809678715
 20
405.82593924860112
 30
0.0
 11
397.8897809678715
 21
405.82593924860117
 31
0.0
  0
LINE
  5
1E7
  8
2
 10
400.8897809678715
 20
479.32593924860112
 30
0.0
 11
397.8897809678715
 21
479.32593924860112
 31
0.0
  0
ARC
  5
1E8
  8
2
 10
400.8897809678715
 20
478.325939248601
 30
0.0
 40
1.0
 50
0.0
 51
90.000000000000099
  0
ARC
  5
1E9
  8
2
 10
400.8897809678715
 20
406.82593924860112
 30
0.0
 40
1.0
 50
269.99999999999977
 51
0.0
  0
LINE
  5
1EA
  8
2
 10
401.88978096787162
 20
438.07593924860112
 30
0.0
 11
402.3897809678715
 21
438.07593924860112
 31
0.0
  0
LINE
  5
1EB
  8
2
 10
401.88978096787162
 20
447.075939248601
 30
0.0
 11
402.3897809678715
 21
447.075939248601
 31
0.0
  0
LINE
  5
1EC
  8
2
 10
402.3897809678715
 20
447.075939248601
 30
0.0
 11
402.3897809678715
 21
438.07593924860112
 31
0.0
  0
LINE
  5
1ED
  8
2
 10
404.8897809678715
 20
441.37593924860067
 30
0.0
 11
404.78978096787699
 21
441.27593924860622
 31
0.0
  0
LINE
  5
1EE
  8
2
 10
404.8897809678715
 20
443.7759392486015
 30
0.0
 11
404.78978096787392
 21
443.87593924859908
 31
0.0
  0
ARC
  5
1EF
  8
2
 10
380.88978096787162
 20
479.42593924860108
 30
0.0
 40
1.0
 50
90.0
 51
179.99999999999989
  0
ARC
  5
1F0
  8
2
 10
380.8897809678715
 20
405.72593924860109
 30
0.0
 40
1.0
 50
180.0
 51
269.99999999999989
  0
ARC
  5
1F1
  8
0
 10
390.26618977892298
 20
491.36755965123922
 30
0.0
 40
5.0
 50
265.68258814075972
 51
267.00000000000028
  0
ARC
  5
1F2
  8
0
 10
390.26618977892298
 20
393.78431884596301
 30
0.0
 40
5.0
 50
92.999999999999744
 51
94.317411859238447
  0
LINE
  5
1F3
  8
2
 10
376.3897809678715
 20
314.57593924860112
 30
0.0
 11
373.88978096787139
 21
314.57593924860112
 31
0.0
  0
LINE
  5
1F4
  8
2
 10
376.32227298659552
 20
315.25243924860081
 30
0.0
 11
373.95728894915419
 21
315.25243924860081
 31
0.0
  0
LINE
  5
1F5
  8
2
 10
376.32227298659211
 20
321.89943924860131
 30
0.0
 11
373.95728894915771
 21
321.89943924860131
 31
0.0
  0
LINE
  5
1F6
  8
2
 10
376.3897809678715
 20
322.57593924860112
 30
0.0
 11
373.88978096787139
 21
322.57593924860112
 31
0.0
  0
LINE
  5
1F7
  8
3
 10
373.8897809678715
 20
313.67695976303469
 30
0.0
 11
367.88978096787139
 21
323.47491873416737
 31
0.0
  0
LINE
  5
1F8
  8
3
 10
373.8897809678715
 20
323.47491873416737
 30
0.0
 11
367.88978096787139
 21
313.67695976303469
 31
0.0
  0
LINE
  5
1F9
  8
0
 10
367.88978096787139
 20
323.47491873416737
 30
0.0
 11
367.88978096787139
 21
313.67695976303469
 31
0.0
  0
ARC
  5
1FA
  8
0
 10
364.28978096787142
 20
312.0895175932518
 30
0.0
 40
1.6000000000000001
 50
273.1798301198649
 51
360.0
  0
ARC
  5
1FB
  8
0
 10
364.28978096787148
 20
325.06236090395038
 30
0.0
 40
1.6000000000000001
 50
360.0
 51
86.820169880135012
  0
ARC
  5
1FC
  8
0
 10
311.56488780569521
 20
312.57593924860089
 30
0.0
 40
3.0
 50
192.83958840690471
 51
269.99999999999937
  0
ARC
  5
1FD
  8
0
 10
311.56488780569521
 20
324.57593924860129
 30
0.0
 40
3.0
 50
89.999999999999986
 51
167.1604115930956
  0
ARC
  5
1FE
  8
0
 10
337.8897809678715
 20
318.57593924860112
 30
0.0
 40
30.0
 50
167.1604115930954
 51
192.83958840690451
  0
LINE
  5
1FF
  8
0
 10
347.88978096787139
 20
309.575939248601
 30
0.0
 11
364.37853299926752
 21
310.49198102812318
 31
0.0
  0
LINE
  5
200
  8
0
 10
364.37853299926752
 20
326.659897469079
 30
0.0
 11
347.8897809678715
 21
327.57593924860129
 31
0.0
  0
LINE
  5
201
  8
0
 10
311.56488780569509
 20
309.575939248601
 30
0.0
 11
347.88978096787139
 21
309.575939248601
 31
0.0
  0
LINE
  5
202
  8
0
 10
311.56488780569521
 20
327.57593924860129
 30
0.0
 11
347.8897809678715
 21
327.57593924860129
 31
0.0
  0
LINE
  5
203
  8
0
 10
365.88978096787139
 20
312.0895175932518
 30
0.0
 11
365.88978096787139
 21
325.06236090395038
 31
0.0
  0
LINE
  5
204
  8
0
 10
366.3897809678715
 20
325.57593924860112
 30
0.0
 11
366.3897809678715
 21
311.57593924860112
 31
0.0
  0
LINE
  5
205
  8
0
 10
373.38978096787139
 20
313.6769597630348
 30
0.0
 11
373.38978096787139
 21
311.57593924860112
 31
0.0
  0
LINE
  5
206
  8
0
 10
373.88978096787139
 20
323.47491873416737
 30
0.0
 11
367.88978096787139
 21
323.47491873416737
 31
0.0
  0
LINE
  5
207
  8
0
 10
373.88978096787139
 20
313.67695976303469
 30
0.0
 11
367.88978096787139
 21
313.67695976303469
 31
0.0
  0
LINE
  5
208
  8
2
 10
376.3897809678715
 20
321.89943924860131
 30
0.0
 11
386.36628096787132
 21
321.89943924860142
 31
0.0
  0
LINE
  5
209
  8
2
 10
376.3897809678715
 20
315.25243924860081
 30
0.0
 11
386.36628096787132
 21
315.25243924860081
 31
0.0
  0
LINE
  5
20A
  8
2
 10
385.68978096787151
 20
314.57593924860112
 30
0.0
 11
385.68978096787151
 21
322.57593924860112
 31
0.0
  0
LINE
  5
20B
  8
0
 10
373.38978096787139
 20
311.57593924860112
 30
0.0
 11
373.88978096787139
 21
312.07593924860112
 31
0.0
  0
LINE
  5
20C
  8
0
 10
366.3897809678715
 20
311.57593924860112
 30
0.0
 11
365.88978096787139
 21
312.07593924860112
 31
0.0
  0
LINE
  5
20D
  8
0
 10
366.3897809678715
 20
325.57593924860112
 30
0.0
 11
365.88978096787139
 21
325.07593924860112
 31
0.0
  0
LINE
  5
20E
  8
0
 10
373.88978096787139
 20
325.07593924860112
 30
0.0
 11
373.38978096787139
 21
325.57593924860112
 31
0.0
  0
LINE
  5
20F
  8
0
 10
373.38978096787139
 20
311.57593924860112
 30
0.0
 11
366.3897809678715
 21
311.57593924860112
 31
0.0
  0
LINE
  5
210
  8
0
 10
373.38978096787139
 20
325.57593924860112
 30
0.0
 11
366.3897809678715
 21
325.57593924860112
 31
0.0
  0
LINE
  5
211
  8
0
 10
373.88978096787139
 20
325.07593924860112
 30
0.0
 11
373.88978096787139
 21
312.07593924860112
 31
0.0
  0
LINE
  5
212
  8
2
 10
386.8897809678715
 20
315.77593924860122
 30
0.0
 11
385.68978096787151
 21
314.57593924860112
 31
0.0
  0
LINE
  5
213
  8
2
 10
386.8897809678715
 20
321.37593924860113
 30
0.0
 11
385.68978096787151
 21
322.57593924860112
 31
0.0
  0
LINE
  5
214
  8
2
 10
385.68978096787151
 20
314.57593924860112
 30
0.0
 11
376.3897809678715
 21
314.57593924860112
 31
0.0
  0
LINE
  5
215
  8
2
 10
385.68978096787151
 20
322.57593924860112
 30
0.0
 11
376.3897809678715
 21
322.57593924860112
 31
0.0
  0
LINE
  5
216
  8
0
 10
373.38978096787139
 20
325.57593924860112
 30
0.0
 11
373.38978096787139
 21
323.47491873416737
 31
0.0
  0
LINE
  5
217
  8
2
 10
386.8897809678715
 20
321.37593924860113
 30
0.0
 11
386.8897809678715
 21
315.77593924860122
 31
0.0
  0
LINE
  5
218
  8
2
 10
376.3897809678715
 20
322.57593924860112
 30
0.0
 11
376.3897809678715
 21
314.57593924860112
 31
0.0
  0
LINE
  5
219
  8
2
 10
375.78978096787148
 20
315.57593924860112
 30
0.0
 11
374.48978096787141
 21
315.57593924860112
 31
0.0
  0
ARC
  5
21A
  8
2
 10
375.78978096787148
 20
314.97593924860109
 30
0.0
 40
0.6
 50
360.0
 51
89.999999999999915
  0
ARC
  5
21B
  8
2
 10
374.48978096787141
 20
314.97593924860109
 30
0.0
 40
0.6
 50
89.999999999999204
 51
180.0
  0
ARC
  5
21C
  8
2
 10
374.48978096787141
 20
322.17593924860108
 30
0.0
 40
0.6
 50
180.0
 51
270.00000000000068
  0
ARC
  5
21D
  8
2
 10
375.78978096787148
 20
322.17593924860108
 30
0.0
 40
0.6
 50
270.00000000000011
 51
360.0
  0
LINE
  5
21E
  8
2
 10
375.78978096787148
 20
321.57593924860112
 30
0.0
 11
374.48978096787141
 21
321.57593924860112
 31
0.0
  0
LINE
  5
21F
  8
0
 10
347.8897809678715
 20
327.57593924860129
 30
0.0
 11
347.88978096787139
 21
309.575939248601
 31
0.0
  0
LINE
  5
220
  8
0
 10
347.8897809678715
 20
451.57593924860117
 30
0.0
 11
347.8897809678715
 21
433.57593924860089
 31
0.0
  0
LINE
  5
221
  8
0
 10
373.88978096787162
 20
447.575939248601
 30
0.0
 11
373.88978096787162
 21
437.57593924860112
 31
0.0
  0
LINE
  5
222
  8
0
 10
367.88978096787162
 20
449.57593924860112
 30
0.0
 11
366.38978096787162
 21
449.575939248601
 31
0.0
  0
LINE
  5
223
  8
0
 10
367.88978096787162
 20
435.575939248601
 30
0.0
 11
366.38978096787162
 21
435.575939248601
 31
0.0
  0
LINE
  5
224
  8
0
 10
366.38978096787162
 20
449.575939248601
 30
0.0
 11
365.88978096787162
 21
449.075939248601
 31
0.0
  0
LINE
  5
225
  8
0
 10
366.38978096787162
 20
435.575939248601
 30
0.0
 11
365.88978096787162
 21
436.075939248601
 31
0.0
  0
LINE
  5
226
  8
0
 10
366.38978096787162
 20
449.575939248601
 30
0.0
 11
366.38978096787162
 21
435.575939248601
 31
0.0
  0
LINE
  5
227
  8
0
 10
365.8897809678715
 20
436.08951759325168
 30
0.0
 11
365.88978096787162
 21
449.06236090395032
 31
0.0
  0
LINE
  5
228
  8
0
 10
311.56488780569532
 20
451.57593924860117
 30
0.0
 11
347.8897809678715
 21
451.57593924860117
 31
0.0
  0
LINE
  5
229
  8
0
 10
311.56488780569521
 20
433.57593924860089
 30
0.0
 11
347.8897809678715
 21
433.57593924860089
 31
0.0
  0
LINE
  5
22A
  8
0
 10
364.37853299926758
 20
450.659897469079
 30
0.0
 11
347.8897809678715
 21
451.57593924860117
 31
0.0
  0
LINE
  5
22B
  8
0
 10
347.8897809678715
 20
433.57593924860089
 30
0.0
 11
364.37853299926758
 21
434.49198102812312
 31
0.0
  0
ARC
  5
22C
  8
0
 10
337.8897809678715
 20
442.57593924860112
 30
0.0
 40
30.0
 50
167.1604115930954
 51
192.83958840690451
  0
ARC
  5
22D
  8
0
 10
311.56488780569532
 20
448.57593924860117
 30
0.0
 40
3.0
 50
89.999999999999986
 51
167.1604115930956
  0
ARC
  5
22E
  8
0
 10
311.56488780569532
 20
436.57593924860078
 30
0.0
 40
3.0
 50
192.83958840690471
 51
269.99999999999937
  0
ARC
  5
22F
  8
0
 10
364.28978096787159
 20
449.06236090395032
 30
0.0
 40
1.6000000000000001
 50
360.0
 51
86.820169880135012
  0
ARC
  5
230
  8
0
 10
364.28978096787148
 20
436.08951759325168
 30
0.0
 40
1.6000000000000001
 50
273.1798301198649
 51
360.0
  0
LINE
  5
231
  8
0
 10
367.88978096787162
 20
449.575939248601
 30
0.0
 11
367.88978096787162
 21
447.575939248601
 31
0.0
  0
LINE
  5
232
  8
0
 10
367.88978096787162
 20
447.575939248601
 30
0.0
 11
373.88978096787162
 21
447.575939248601
 31
0.0
  0
LINE
  5
233
  8
0
 10
367.88978096787162
 20
437.575939248601
 30
0.0
 11
373.88978096787162
 21
437.57593924860112
 31
0.0
  0
LINE
  5
234
  8
0
 10
367.88978096787162
 20
437.575939248601
 30
0.0
 11
367.88978096787162
 21
435.575939248601
 31
0.0
  0
LINE
  5
235
  8
0
 10
347.8897809678715
 20
91.575939248601287
 30
0.0
 11
347.8897809678715
 21
73.575939248600932
 31
0.0
  0
LINE
  5
236
  8
0
 10
373.8897809678715
 20
87.575939248601117
 30
0.0
 11
373.8897809678715
 21
77.575939248601117
 31
0.0
  0
LINE
  5
237
  8
0
 10
367.8897809678715
 20
89.575939248601117
 30
0.0
 11
366.3897809678715
 21
89.575939248601117
 31
0.0
  0
LINE
  5
238
  8
0
 10
367.8897809678715
 20
75.575939248601074
 30
0.0
 11
366.3897809678715
 21
75.575939248601074
 31
0.0
  0
LINE
  5
239
  8
0
 10
366.3897809678715
 20
89.575939248601117
 30
0.0
 11
365.8897809678715
 21
89.075939248601102
 31
0.0
  0
LINE
  5
23A
  8
0
 10
366.3897809678715
 20
75.575939248601074
 30
0.0
 11
365.8897809678715
 21
76.075939248601074
 31
0.0
  0
LINE
  5
23B
  8
0
 10
366.3897809678715
 20
89.575939248601117
 30
0.0
 11
366.3897809678715
 21
75.575939248601102
 31
0.0
  0
LINE
  5
23C
  8
0
 10
365.8897809678715
 20
76.089517593251784
 30
0.0
 11
365.8897809678715
 21
89.06236090395042
 31
0.0
  0
LINE
  5
23D
  8
0
 10
311.56488780569521
 20
91.575939248601287
 30
0.0
 11
347.8897809678715
 21
91.575939248601287
 31
0.0
  0
LINE
  5
23E
  8
0
 10
311.56488780569521
 20
73.575939248600932
 30
0.0
 11
347.8897809678715
 21
73.575939248600932
 31
0.0
  0
LINE
  5
23F
  8
0
 10
364.37853299926758
 20
90.659897469079084
 30
0.0
 11
347.8897809678715
 21
91.575939248601287
 31
0.0
  0
LINE
  5
240
  8
0
 10
347.8897809678715
 20
73.575939248600932
 30
0.0
 11
364.37853299926758
 21
74.491981028123135
 31
0.0
  0
ARC
  5
241
  8
0
 10
337.8897809678715
 20
82.575939248601102
 30
0.0
 40
30.0
 50
167.1604115930954
 51
192.83958840690451
  0
ARC
  5
242
  8
0
 10
311.56488780569521
 20
88.575939248601273
 30
0.0
 40
3.0
 50
89.999999999999986
 51
167.1604115930956
  0
ARC
  5
243
  8
0
 10
311.56488780569521
 20
76.575939248600932
 30
0.0
 40
3.0
 50
192.83958840690471
 51
269.99999999999937
  0
ARC
  5
244
  8
0
 10
364.28978096787148
 20
89.06236090395042
 30
0.0
 40
1.6000000000000001
 50
360.0
 51
86.820169880135012
  0
ARC
  5
245
  8
0
 10
364.28978096787148
 20
76.089517593251784
 30
0.0
 40
1.6000000000000001
 50
273.1798301198649
 51
360.0
  0
LINE
  5
246
  8
0
 10
367.8897809678715
 20
89.575939248601117
 30
0.0
 11
367.8897809678715
 21
87.575939248601131
 31
0.0
  0
LINE
  5
247
  8
0
 10
367.8897809678715
 20
87.575939248601117
 30
0.0
 11
373.8897809678715
 21
87.575939248601117
 31
0.0
  0
LINE
  5
248
  8
0
 10
367.8897809678715
 20
77.575939248601102
 30
0.0
 11
373.8897809678715
 21
77.575939248601117
 31
0.0
  0
LINE
  5
249
  8
0
 10
367.8897809678715
 20
77.575939248601102
 30
0.0
 11
367.8897809678715
 21
75.575939248601074
 31
0.0
  0
CIRCLE
  5
251
  8
0
 10
157.6935067350507
 20
262.57593924860112
 30
0.0
 40
69.5
  0
CIRCLE
  5
252
  8
0
 10
608.98718645121448
 20
262.57593924860112
 30
0.0
 40
69.5
  0
TEXT
  5
34D
  8
0
 62
     3
 10
0.0
 20
0.0
 30
0.0
 40
10.0
  1
DHW140ER
  7
STANDARD1
  0
ENDSEC
  0
EOF
