  0
SECTION
  2
HEADER
  9
$ACADVER
  1
AC1009
  9
$INSBASE
 10
0.0
 20
0.0
 30
0.0
  9
$EXTMIN
 10
0.0
 20
-2.960436562073669
 30
0.0
  9
$EXTMAX
 10
254.33634439562141
 20
227.64213197705911
 30
0.0
  9
$LIMMIN
 10
0.0
 20
0.0
  9
$LIMMAX
 10
187.5
 20
135.0
  9
$ORTHOMODE
 70
     1
  9
$REGENMODE
 70
     1
  9
$FILLMODE
 70
     1
  9
$QTEXTMODE
 70
     0
  9
$MIRRTEXT
 70
     0
  9
$DRAGMODE
 70
     2
  9
$LTSCALE
 40
2.0
  9
$OSMODE
 70
    37
  9
$ATTMODE
 70
     1
  9
$TEXTSIZE
 40
1.0
  9
$TRACEWID
 40
0.05
  9
$TEXTSTYLE
  7
K50
  9
$CLAYER
  8
0
  9
$CELTYPE
  6
BYLAYER
  9
$CECOLOR
 62
   256
  9
$DIMSCALE
 40
1.0
  9
$DIMASZ
 40
3.0
  9
$DIMEXO
 40
2.0
  9
$DIMDLI
 40
0.38
  9
$DIMRND
 40
0.0
  9
$DIMDLE
 40
0.0
  9
$DIMEXE
 40
2.0
  9
$DIMTP
 40
0.0
  9
$DIMTM
 40
0.0
  9
$DIMTXT
 40
3.2000000000000002
  9
$DIMCEN
 40
0.0
  9
$DIMTSZ
 40
0.0
  9
$DIMTOL
 70
     0
  9
$DIMLIM
 70
     0
  9
$DIMTIH
 70
     0
  9
$DIMTOH
 70
     0
  9
$DIMSE1
 70
     0
  9
$DIMSE2
 70
     0
  9
$DIMTAD
 70
     1
  9
$DIMZIN
 70
     8
  9
$DIMBLK
  1

  9
$DIMASO
 70
     0
  9
$DIMSHO
 70
     0
  9
$DIMPOST
  1

  9
$DIMAPOST
  1

  9
$DIMALT
 70
     0
  9
$DIMALTD
 70
     2
  9
$DIMALTF
 40
25.399999999999999
  9
$DIMLFAC
 40
1.0
  9
$DIMTOFL
 70
     1
  9
$DIMTVP
 40
1.6000000000000001
  9
$DIMTIX
 70
     1
  9
$DIMSOXD
 70
     0
  9
$DIMSAH
 70
     0
  9
$DIMBLK1
  1

  9
$DIMBLK2
  1

  9
$DIMSTYLE
  2
STANDARD
  9
$DIMCLRD
 70
     0
  9
$DIMCLRE
 70
     0
  9
$DIMCLRT
 70
     0
  9
$DIMTFAC
 40
1.0
  9
$DIMGAP
 40
0.09
  9
$LUNITS
 70
     2
  9
$LUPREC
 70
     1
  9
$SKETCHINC
 40
0.1
  9
$FILLETRAD
 40
0.0
  9
$AUNITS
 70
     0
  9
$AUPREC
 70
     1
  9
$MENU
  1
E:\r13\win\SUPPORT\ACAD
  9
$ELEVATION
 40
0.0
  9
$PELEVATION
 40
0.0
  9
$THICKNESS
 40
0.0
  9
$LIMCHECK
 70
     0
  9
$BLIPMODE
 70
     0
  9
$CHAMFERA
 40
0.0
  9
$CHAMFERB
 40
0.0
  9
$SKPOLY
 70
     0
  9
$TDCREATE
 40
2449839.7913773148
  9
$TDUPDATE
 40
2457903.6211063662
  9
$TDINDWG
 40
0.2224558796
  9
$TDUSRTIMER
 40
0.2224558796
  9
$USRTIMER
 70
     1
  9
$ANGBASE
 50
0.0
  9
$ANGDIR
 70
     0
  9
$PDMODE
 70
     0
  9
$PDSIZE
 40
0.0
  9
$PLINEWID
 40
0.0
  9
$COORDS
 70
     1
  9
$SPLFRAME
 70
     0
  9
$SPLINETYPE
 70
     6
  9
$SPLINESEGS
 70
     8
  9
$ATTDIA
 70
     0
  9
$ATTREQ
 70
     1
  9
$HANDLING
 70
     1
  9
$HANDSEED
  5
4C55
  9
$SURFTAB1
 70
     6
  9
$SURFTAB2
 70
     6
  9
$SURFTYPE
 70
     6
  9
$SURFU
 70
     6
  9
$SURFV
 70
     6
  9
$UCSNAME
  2

  9
$UCSORG
 10
0.0
 20
0.0
 30
0.0
  9
$UCSXDIR
 10
1.0
 20
0.0
 30
0.0
  9
$UCSYDIR
 10
0.0
 20
1.0
 30
0.0
  9
$PUCSNAME
  2

  9
$PUCSORG
 10
0.0
 20
0.0
 30
0.0
  9
$PUCSXDIR
 10
1.0
 20
0.0
 30
0.0
  9
$PUCSYDIR
 10
0.0
 20
1.0
 30
0.0
  9
$USERI1
 70
     0
  9
$USERI2
 70
     1
  9
$USERI3
 70
     0
  9
$USERI4
 70
     0
  9
$USERI5
 70
     0
  9
$USERR1
 40
0.0
  9
$USERR2
 40
0.0
  9
$USERR3
 40
0.0
  9
$USERR4
 40
0.0
  9
$USERR5
 40
0.0
  9
$WORLDVIEW
 70
     1
  9
$SHADEDGE
 70
     3
  9
$SHADEDIF
 70
    70
  9
$TILEMODE
 70
     1
  9
$MAXACTVP
 70
    16
  9
$PLIMCHECK
 70
     0
  9
$PEXTMIN
 10
1.0000000000000000E+020
 20
1.0000000000000000E+020
 30
1.0000000000000000E+020
  9
$PEXTMAX
 10
-1.0000000000000000E+020
 20
-1.0000000000000000E+020
 30
-1.0000000000000000E+020
  9
$PLIMMIN
 10
0.0
 20
0.0
  9
$PLIMMAX
 10
12.0
 20
9.0
  9
$UNITMODE
 70
     0
  9
$VISRETAIN
 70
     0
  9
$PLINEGEN
 70
     0
  9
$PSLTSCALE
 70
     0
  0
ENDSEC
  0
SECTION
  2
TABLES
  0
TABLE
  2
VPORT
 70
     1
  0
VPORT
  2
*ACTIVE
 70
     0
 10
0.0
 20
0.0
 11
1.0
 21
1.0
 12
227.0430145622698
 22
125.0
 13
0.0
 23
0.0
 14
5.0
 24
5.0
 15
5.0
 25
5.0
 16
0.0
 26
0.0
 36
1.0
 17
0.0
 27
0.0
 37
0.0
 40
250.1379213506907
 41
1.816239316239316
 42
50.0
 43
0.0
 44
0.0
 50
0.0
 51
0.0
 71
     0
 72
   500
 73
     1
 74
     0
 75
     0
 76
     0
 77
     0
 78
     2
  0
ENDTAB
  0
TABLE
  2
LTYPE
 70
     4
  0
LTYPE
  2
CONTINUOUS
 70
     0
  3
Solid Line
 72
    65
 73
     0
 40
0.0
  0
LTYPE
  2
CENTER
 70
     0
  3
____ _ ____ _ ____ _ ____ _ ____ _ ____ _ ____
 72
    65
 73
     4
 40
2.0
 49
1.25
 49
-0.25
 49
0.25
 49
-0.25
  0
LTYPE
  2
PHANTOM2
 70
     0
  3
___ _ _ ___ _ _ ___ _ _ ___ _ _
 72
    65
 73
     6
 40
1.25
 49
0.625
 49
-0.125
 49
0.125
 49
-0.125
 49
0.125
 49
-0.125
  0
LTYPE
  2
HIDDEN
 70
     0
  3
Hidden __ __ __ __ __ __ __ __ __ __ __ __ __ __
 72
    65
 73
     2
 40
1.905
 49
1.27
 49
-0.635
  0
ENDTAB
  0
TABLE
  2
LAYER
 70
     4
  0
LAYER
  2
0
 70
     0
 62
     7
  6
CONTINUOUS
  0
LAYER
  2
1
 70
     0
 62
     1
  6
CENTER
  0
LAYER
  2
3
 70
     0
 62
     3
  6
CONTINUOUS
  0
LAYER
  2
2
 70
     0
 62
     2
  6
HIDDEN
  0
ENDTAB
  0
TABLE
  2
STYLE
 70
     4
  0
STYLE
  2
STANDARD
 70
     0
 40
0.0
 41
1.0
 50
0.0
 71
     0
 42
4.000000000000048
  3
romans.shx
  4

  0
STYLE
  2
K50
 70
     0
 40
0.0
 41
1.0
 50
0.0
 71
     0
 42
1.0
  3
romans.shx
  4

  0
STYLE
  2
07500
 70
     0
 40
0.0
 41
1.0
 50
0.0
 71
     0
 42
3.0000000000000502
  3
romans.shx
  4

  0
STYLE
  2
STANDARD1
 70
     0
 40
0.0
 41
1.0
 50
0.0
 71
     0
 42
3.0
  3
txt
  4

  0
ENDTAB
  0
TABLE
  2
VIEW
 70
     1
  0
VIEW
  2
ALL
 70
     0
 40
135.0
 10
110.4957983193277
 20
67.5
 41
0.0
 11
0.0
 21
0.0
 31
1.0
 12
0.0
 22
0.0
 32
0.0
 42
0.0
 43
0.0
 44
0.0
 50
0.0
 71
     0
  0
ENDTAB
  0
TABLE
  2
UCS
 70
     0
  0
ENDTAB
  0
TABLE
  2
APPID
 70
     8
  0
APPID
  2
ACAD
 70
     0
  0
APPID
  2
ACAD_EXEMPT_FROM_CAD_STANDARDS
 70
     0
  0
APPID
  2
ACAD_MLEADERVER
 70
     0
  0
APPID
  2
ACAD_NAV_VCDISPLAY
 70
     0
  0
APPID
  2
ACAD_DSTYLE_DIMJAG
 70
     0
  0
APPID
  2
ACAD_DSTYLE_DIMTALN
 70
     0
  0
APPID
  2
GRADIENTCOLOR1ACI
 70
     0
  0
APPID
  2
GRADIENTCOLOR2ACI
 70
     0
  0
ENDTAB
  0
TABLE
  2
DIMSTYLE
 70
     1
  0
DIMSTYLE
  2
STANDARD
 70
     0
  3

  4

  5

  6

  7

 40
1.0
 41
0.18
 42
0.0625
 43
0.38
 44
0.18
 45
0.0
 46
0.0
 47
0.0
 48
0.0
140
0.18
141
0.09
142
0.0
143
25.399999999999999
144
1.0
145
0.0
146
1.0
147
0.09
 71
     0
 72
     0
 73
     1
 74
     1
 75
     0
 76
     0
 77
     0
 78
     0
170
     0
171
     2
172
     0
173
     0
174
     0
175
     0
176
     0
177
     0
178
     0
  0
ENDTAB
  0
ENDSEC
  0
SECTION
  2
BLOCKS
  0
BLOCK
  8
0
  2
$MODEL_SPACE
 70
     0
 10
0.0
 20
0.0
 30
0.0
  3
$MODEL_SPACE
  1

  0
ENDBLK
  5
128
  8
0
  0
BLOCK
 67
     1
  8
0
  2
$PAPER_SPACE
 70
     0
 10
0.0
 20
0.0
 30
0.0
  3
$PAPER_SPACE
  1

  0
ENDBLK
  5
126
 67
     1
  8
0
  0
BLOCK
  8
0
  2
*U0
 70
     1
 10
0.0
 20
0.0
 30
0.0
  3
*U0
  1

  0
SOLID
  5
4C19
  8
0
  6
CONTINUOUS
 10
113.7424345948714
 20
202.8838527020157
 30
0.0
 11
102.3066625146966
 21
195.08453507217169
 31
0.0
 12
106.3941680844127
 22
195.08453507217169
 32
0.0
 13
106.3941680844127
 23
195.08453507217169
 33
0.0
210
0.0
220
0.0
230
1.0
  0
SOLID
  5
4C1A
  8
0
  6
CONTINUOUS
 10
-102.11877777140769
 20
194.95639568810219
 30
0.0
 11
-103.7094546363853
 21
194.95639568810219
 31
0.0
 12
-101.87294702221079
 22
194.78873651452591
 32
0.0
 13
-101.87294702221079
 23
194.78873651452591
 33
0.0
210
0.0
220
0.0
230
-1.0
  0
SOLID
  5
4C1B
  8
0
  6
CONTINUOUS
 10
105.11306977714609
 20
195.08453507217169
 30
0.0
 11
105.494095675872
 21
194.95639568810219
 31
0.0
 12
106.2734392733401
 22
194.95639568810219
 32
0.0
 13
106.2734392733401
 23
194.95639568810219
 33
0.0
  0
SOLID
  5
4C1C
  8
0
  6
CONTINUOUS
 10
-105.11306977714609
 20
195.08453507217169
 30
0.0
 11
-106.3941680844127
 21
195.08453507217169
 31
0.0
 12
-106.2734392733401
 22
194.95639568810219
 32
0.0
 13
-106.2734392733401
 23
194.95639568810219
 33
0.0
210
0.0
220
0.0
230
-1.0
  0
SOLID
  5
4C1D
  8
0
  6
CONTINUOUS
 10
102.3066625146966
 20
195.08453507217169
 30
0.0
 11
102.11877777140769
 21
194.95639568810219
 31
0.0
 12
103.7094546363853
 22
194.95639568810219
 32
0.0
 13
103.7094546363853
 23
194.95639568810219
 33
0.0
210
0.0
220
0.0
230
1.0
  0
SOLID
  5
4C1E
  8
0
  6
CONTINUOUS
 10
-102.3066625146966
 20
195.08453507217169
 30
0.0
 11
-105.11306977714609
 21
195.08453507217169
 31
0.0
 12
-103.7094546363853
 22
194.95639568810219
 32
0.0
 13
-103.7094546363853
 23
194.95639568810219
 33
0.0
210
0.0
220
0.0
230
-1.0
  0
SOLID
  5
4C1F
  8
0
  6
CONTINUOUS
 10
-105.65634511086149
 20
194.58859743077201
 30
0.0
 11
-105.9269115711469
 21
194.58859743077201
 31
0.0
 12
-105.65634511086149
 22
194.30142306648551
 32
0.0
 13
-105.65634511086149
 23
194.30142306648551
 33
0.0
210
0.0
220
0.0
230
-1.0
  0
SOLID
  5
4C20
  8
0
  6
CONTINUOUS
 10
105.494095675872
 20
194.95639568810219
 30
0.0
 11
105.65634511086149
 21
194.58859743077201
 31
0.0
 12
105.9269115711469
 22
194.58859743077201
 32
0.0
 13
105.9269115711469
 23
194.58859743077201
 33
0.0
210
0.0
220
0.0
230
1.0
  0
SOLID
  5
4C21
  8
0
  6
CONTINUOUS
 10
-105.494095675872
 20
194.95639568810219
 30
0.0
 11
-106.2734392733401
 21
194.95639568810219
 31
0.0
 12
-105.9269115711469
 22
194.58859743077201
 32
0.0
 13
-105.9269115711469
 23
194.58859743077201
 33
0.0
210
0.0
220
0.0
230
-1.0
  0
SOLID
  5
4C22
  8
0
  6
CONTINUOUS
 10
99.165485753927243
 20
191.74269805584601
 30
0.0
 11
99.458420254154348
 21
191.39971582335571
 31
0.0
 12
102.92244976644631
 22
191.39971582335571
 32
0.0
 13
102.92244976644631
 23
191.39971582335571
 33
0.0
  0
SOLID
  5
4C23
  8
0
  6
CONTINUOUS
 10
99.458420254154348
 20
191.39971582335571
 30
0.0
 11
100.7449991930681
 21
189.8933254309589
 31
0.0
 12
101.5031771329316
 22
189.8933254309589
 32
0.0
 13
101.5031771329316
 23
189.8933254309589
 33
0.0
  0
SOLID
  5
4C24
  8
0
  6
CONTINUOUS
 10
-99.458420254154348
 20
191.39971582335571
 30
0.0
 11
-102.92244976644631
 21
191.39971582335571
 31
0.0
 12
-101.5031771329316
 22
189.8933254309589
 32
0.0
 13
-101.5031771329316
 23
189.8933254309589
 33
0.0
210
0.0
220
0.0
230
-1.0
  0
SOLID
  5
4C25
  8
0
  6
CONTINUOUS
 10
-100.7829860704628
 20
189.87524843255571
 30
0.0
 11
-101.4861455657766
 21
189.87524843255571
 31
0.0
 12
-101.1115384607554
 22
189.71889862330519
 32
0.0
 13
-101.1115384607554
 23
189.71889862330519
 33
0.0
210
0.0
220
0.0
230
-1.0
  0
SOLID
  5
4C26
  8
0
  6
CONTINUOUS
 10
100.7449991930681
 20
189.8933254309589
 30
0.0
 11
100.7829860704628
 21
189.87524843255571
 31
0.0
 12
101.4861455657766
 22
189.87524843255571
 32
0.0
 13
101.4861455657766
 23
189.87524843255571
 33
0.0
210
0.0
220
0.0
230
1.0
  0
SOLID
  5
4C27
  8
0
  6
CONTINUOUS
 10
-100.7449991930681
 20
189.8933254309589
 30
0.0
 11
-101.5031771329316
 21
189.8933254309589
 31
0.0
 12
-101.4861455657766
 22
189.87524843255571
 32
0.0
 13
-101.4861455657766
 23
189.87524843255571
 33
0.0
210
0.0
220
0.0
230
-1.0
  0
LINE
  5
4C28
  8
0
  6
CONTINUOUS
 10
113.7424345948714
 20
202.8838527020157
 30
0.0
 11
102.3066625146966
 21
195.08453507217169
 31
0.0
  0
LINE
  5
4C29
  8
0
  6
CONTINUOUS
 10
106.3941680844127
 20
195.08453507217169
 30
0.0
 11
113.7424345948714
 21
202.8838527020157
 31
0.0
  0
LINE
  5
4C2A
  8
0
  6
CONTINUOUS
 10
103.7094546363853
 20
194.95639568810219
 30
0.0
 11
101.87294702221079
 21
194.78873651452591
 31
0.0
  0
LINE
  5
4C2B
  8
0
  6
CONTINUOUS
 10
101.87294702221079
 20
194.78873651452591
 30
0.0
 11
102.11877777140769
 21
194.95639568810219
 31
0.0
  0
LINE
  5
4C2C
  8
0
  6
CONTINUOUS
 10
106.3941680844127
 20
195.08453507217169
 30
0.0
 11
106.2734392733401
 21
194.95639568810219
 31
0.0
  0
LINE
  5
4C2D
  8
0
  6
CONTINUOUS
 10
102.3066625146966
 20
195.08453507217169
 30
0.0
 11
102.11877777140769
 21
194.95639568810219
 31
0.0
  0
LINE
  5
4C2E
  8
0
  6
CONTINUOUS
 10
105.9269115711469
 20
194.58859743077201
 30
0.0
 11
105.65634511086149
 21
194.30142306648551
 31
0.0
  0
LINE
  5
4C2F
  8
0
  6
CONTINUOUS
 10
105.65634511086149
 20
194.30142306648551
 30
0.0
 11
105.65634511086149
 21
194.58859743077201
 31
0.0
  0
LINE
  5
4C30
  8
0
  6
CONTINUOUS
 10
105.494095675872
 20
194.95639568810219
 30
0.0
 11
105.65634511086149
 21
194.58859743077201
 31
0.0
  0
LINE
  5
4C31
  8
0
  6
CONTINUOUS
 10
106.2734392733401
 20
194.95639568810219
 30
0.0
 11
105.9269115711469
 21
194.58859743077201
 31
0.0
  0
LINE
  5
4C32
  8
0
  6
CONTINUOUS
 10
99.165485753927243
 20
191.74269805584601
 30
0.0
 11
99.458420254154348
 21
191.39971582335571
 31
0.0
  0
LINE
  5
4C33
  8
0
  6
CONTINUOUS
 10
102.92244976644631
 20
191.39971582335571
 30
0.0
 11
99.165485753927243
 21
191.74269805584601
 31
0.0
  0
LINE
  5
4C34
  8
0
  6
CONTINUOUS
 10
99.458420254154348
 20
191.39971582335571
 30
0.0
 11
100.7449991930681
 21
189.8933254309589
 31
0.0
  0
LINE
  5
4C35
  8
0
  6
CONTINUOUS
 10
102.92244976644631
 20
191.39971582335571
 30
0.0
 11
101.5031771329316
 21
189.8933254309589
 31
0.0
  0
LINE
  5
4C36
  8
0
  6
CONTINUOUS
 10
101.4861455657766
 20
189.87524843255571
 30
0.0
 11
101.1115384607554
 21
189.71889862330519
 31
0.0
  0
LINE
  5
4C37
  8
0
  6
CONTINUOUS
 10
101.1115384607554
 20
189.71889862330519
 30
0.0
 11
100.7829860704628
 21
189.87524843255571
 31
0.0
  0
LINE
  5
4C38
  8
0
  6
CONTINUOUS
 10
100.7449991930681
 20
189.8933254309589
 30
0.0
 11
100.7829860704628
 21
189.87524843255571
 31
0.0
  0
LINE
  5
4C39
  8
0
  6
CONTINUOUS
 10
101.5031771329316
 20
189.8933254309589
 30
0.0
 11
101.4861455657766
 21
189.87524843255571
 31
0.0
  0
ENDBLK
  5
4C3B
  8
0
  0
BLOCK
  8
0
  2
*U1
 70
     1
 10
0.0
 20
0.0
 30
0.0
  3
*U1
  1

  0
SOLID
  5
4C3D
  8
0
  6
CONTINUOUS
 10
102.3363451108773
 20
194.1381319770592
 30
0.0
 11
101.8383451108773
 21
194.00469327922849
 31
0.0
 12
102.83434511087729
 22
194.00469327922849
 32
0.0
 13
102.83434511087729
 23
194.00469327922849
 33
0.0
210
0.0
220
0.0
230
1.0
  0
SOLID
  5
4C3E
  8
0
  6
CONTINUOUS
 10
101.8383451108773
 20
194.00469327922849
 30
0.0
 11
101.47378380870801
 21
193.64013197705921
 31
0.0
 12
103.1989064130467
 22
193.64013197705921
 32
0.0
 13
103.1989064130467
 23
193.64013197705921
 33
0.0
210
0.0
220
0.0
230
1.0
  0
SOLID
  5
4C3F
  8
0
  6
CONTINUOUS
 10
-101.8383451108773
 20
194.00469327922849
 30
0.0
 11
-102.83434511087729
 21
194.00469327922849
 31
0.0
 12
-103.1989064130467
 22
193.64013197705921
 32
0.0
 13
-103.1989064130467
 23
193.64013197705921
 33
0.0
210
0.0
220
0.0
230
-1.0
  0
SOLID
  5
4C40
  8
0
  6
CONTINUOUS
 10
101.47378380870801
 20
193.64013197705921
 30
0.0
 11
101.34034511087729
 21
193.14213197705919
 31
0.0
 12
103.3323451108773
 22
193.14213197705919
 32
0.0
 13
103.3323451108773
 23
193.14213197705919
 33
0.0
210
0.0
220
0.0
230
1.0
  0
SOLID
  5
4C41
  8
0
  6
CONTINUOUS
 10
-101.47378380870801
 20
193.64013197705921
 30
0.0
 11
-103.1989064130466
 21
193.64013197705921
 31
0.0
 12
-103.3323451108773
 22
193.14213197705919
 32
0.0
 13
-103.3323451108773
 23
193.14213197705919
 33
0.0
210
0.0
220
0.0
230
-1.0
  0
SOLID
  5
4C42
  8
0
  6
CONTINUOUS
 10
101.34034511087729
 20
193.14213197705919
 30
0.0
 11
101.47378380870801
 21
192.6441319770592
 31
0.0
 12
103.1989064130466
 22
192.6441319770592
 32
0.0
 13
103.1989064130466
 23
192.6441319770592
 33
0.0
210
0.0
220
0.0
230
1.0
  0
SOLID
  5
4C43
  8
0
  6
CONTINUOUS
 10
-101.34034511087729
 20
193.14213197705919
 30
0.0
 11
-103.3323451108773
 21
193.14213197705919
 31
0.0
 12
-103.1989064130466
 22
192.6441319770592
 32
0.0
 13
-103.1989064130466
 23
192.6441319770592
 33
0.0
210
0.0
220
0.0
230
-1.0
  0
SOLID
  5
4C44
  8
0
  6
CONTINUOUS
 10
-101.8383451108773
 20
192.2795706748899
 30
0.0
 11
-102.83434511087729
 21
192.2795706748899
 31
0.0
 12
-102.3363451108773
 22
192.14613197705921
 32
0.0
 13
-102.3363451108773
 23
192.14613197705921
 33
0.0
210
0.0
220
0.0
230
-1.0
  0
SOLID
  5
4C45
  8
0
  6
CONTINUOUS
 10
101.47378380870801
 20
192.6441319770592
 30
0.0
 11
101.8383451108773
 21
192.2795706748899
 31
0.0
 12
102.83434511087729
 22
192.2795706748899
 32
0.0
 13
102.83434511087729
 23
192.2795706748899
 33
0.0
210
0.0
220
0.0
230
1.0
  0
SOLID
  5
4C46
  8
0
  6
CONTINUOUS
 10
-101.47378380870801
 20
192.6441319770592
 30
0.0
 11
-103.1989064130466
 21
192.6441319770592
 31
0.0
 12
-102.83434511087729
 22
192.2795706748899
 32
0.0
 13
-102.83434511087729
 23
192.2795706748899
 33
0.0
210
0.0
220
0.0
230
-1.0
  0
LINE
  5
4C47
  8
0
  6
CONTINUOUS
 10
102.3363451108773
 20
194.1381319770592
 30
0.0
 11
101.8383451108773
 21
194.00469327922849
 31
0.0
  0
LINE
  5
4C48
  8
0
  6
CONTINUOUS
 10
102.83434511087729
 20
194.00469327922849
 30
0.0
 11
102.3363451108773
 21
194.1381319770592
 31
0.0
  0
LINE
  5
4C49
  8
0
  6
CONTINUOUS
 10
101.8383451108773
 20
194.00469327922849
 30
0.0
 11
101.47378380870801
 21
193.64013197705921
 31
0.0
  0
LINE
  5
4C4A
  8
0
  6
CONTINUOUS
 10
102.83434511087729
 20
194.00469327922849
 30
0.0
 11
103.1989064130467
 21
193.64013197705921
 31
0.0
  0
LINE
  5
4C4B
  8
0
  6
CONTINUOUS
 10
101.47378380870801
 20
193.64013197705921
 30
0.0
 11
101.34034511087729
 21
193.14213197705919
 31
0.0
  0
LINE
  5
4C4C
  8
0
  6
CONTINUOUS
 10
103.1989064130466
 20
193.64013197705921
 30
0.0
 11
103.3323451108773
 21
193.14213197705919
 31
0.0
  0
LINE
  5
4C4D
  8
0
  6
CONTINUOUS
 10
101.34034511087729
 20
193.14213197705919
 30
0.0
 11
101.47378380870801
 21
192.6441319770592
 31
0.0
  0
LINE
  5
4C4E
  8
0
  6
CONTINUOUS
 10
103.3323451108773
 20
193.14213197705919
 30
0.0
 11
103.1989064130466
 21
192.6441319770592
 31
0.0
  0
LINE
  5
4C4F
  8
0
  6
CONTINUOUS
 10
102.83434511087729
 20
192.2795706748899
 30
0.0
 11
102.3363451108773
 21
192.14613197705921
 31
0.0
  0
LINE
  5
4C50
  8
0
  6
CONTINUOUS
 10
102.3363451108773
 20
192.14613197705921
 30
0.0
 11
101.8383451108773
 21
192.2795706748899
 31
0.0
  0
LINE
  5
4C51
  8
0
  6
CONTINUOUS
 10
101.47378380870801
 20
192.6441319770592
 30
0.0
 11
101.8383451108773
 21
192.2795706748899
 31
0.0
  0
LINE
  5
4C52
  8
0
  6
CONTINUOUS
 10
103.1989064130466
 20
192.6441319770592
 30
0.0
 11
102.83434511087729
 21
192.2795706748899
 31
0.0
  0
ENDBLK
  5
4C54
  8
0
  0
ENDSEC
  0
SECTION
  2
ENTITIES
  0
LINE
  5
1B45
  8
0
 10
217.03967905495949
 20
221.06879863915611
 30
0.0
 11
213.919677649482
 21
221.06879863915611
 31
0.0
  0
LINE
  5
1B46
  8
0
 10
213.919677649482
 20
165.2154653149621
 30
0.0
 11
217.03967905495949
 21
165.2154653149621
 31
0.0
  0
LINE
  5
1B47
  8
0
 10
217.03967905495949
 20
165.2154653149621
 30
0.0
 11
218.3363445744354
 21
166.51213269708319
 31
0.0
  0
LINE
  5
1B48
  8
0
 10
218.3363445744354
 20
219.772131257035
 30
0.0
 11
217.03967905495949
 21
221.06879863915611
 31
0.0
  0
LINE
  5
1B49
  8
0
 10
183.66967967603989
 20
220.87213125107459
 30
0.0
 11
181.8363451108772
 21
219.03879854855711
 31
0.0
  0
LINE
  5
1B4A
  8
0
 10
181.8363451108772
 20
167.24546540556119
 30
0.0
 11
183.66967967603989
 21
165.41213270304371
 31
0.0
  0
LINE
  5
1B4B
  8
0
 10
184.58634323333089
 20
220.87213125107459
 30
0.0
 11
183.66967967603989
 21
220.87213125107459
 31
0.0
  0
LINE
  5
1B4C
  8
0
 10
183.66967967603989
 20
165.41213270304371
 30
0.0
 11
184.58634323333089
 21
165.41213270304371
 31
0.0
  0
ARC
  5
1B4D
  8
0
 10
222.88167814618771
 20
170.26979864372541
 30
0.0
 40
1.966666666666256
 50
269.99999999997391
 51
0.0000000000113991
  0
LINE
  5
1B4F
  8
0
 10
218.3363445744354
 20
168.30313120064901
 30
0.0
 11
222.88167836968489
 21
168.30313120064901
 31
0.0
  0
LINE
  5
1B50
  8
0
 10
226.1433451146323
 20
203.942132257201
 30
0.0
 11
224.8483447999198
 21
203.942132257201
 31
0.0
  0
LINE
  5
1B51
  8
0
 10
224.8483447999198
 20
182.34213169691731
 30
0.0
 11
226.1433451146323
 21
182.34213169691731
 31
0.0
  0
LINE
  5
1B52
  8
0
 10
235.7363448188145
 20
184.1421323644893
 30
0.0
 11
236.83634481285401
 21
185.24213235852881
 31
0.0
  0
LINE
  5
1B53
  8
0
 10
236.83634481285401
 20
201.04213159558941
 30
0.0
 11
235.7363448188145
 21
202.142131589629
 31
0.0
  0
LINE
  5
1B54
  8
0
 10
235.7363448188145
 20
202.142131589629
 30
0.0
 11
226.1433451146323
 21
202.142131589629
 31
0.0
  0
LINE
  5
1B55
  8
0
 10
234.33581285878071
 20
184.1421323644893
 30
0.0
 11
235.7363448188145
 21
184.1421323644893
 31
0.0
  0
LINE
  5
1B56
  8
0
 10
226.1433451146323
 20
184.1421323644893
 30
0.0
 11
229.33687699044469
 21
184.1421323644893
 31
0.0
  0
LINE
  5
1B57
  8
0
 10
226.33634495441501
 20
217.9811327534693
 30
0.0
 11
218.3363445744354
 21
217.9811327534693
 31
0.0
  0
LINE
  5
1B58
  8
0
 10
224.8483447999198
 20
206.30313184139899
 30
0.0
 11
226.33634495441501
 21
206.30313184139899
 31
0.0
  0
LINE
  5
1B59
  8
0
 10
250.73634448353829
 20
215.1421318578499
 30
0.0
 11
229.3363449804921
 21
215.1421318578499
 31
0.0
  0
LINE
  5
1B5A
  8
0
 10
229.3363449804921
 20
209.14213273701839
 30
0.0
 11
250.73634448353829
 21
209.14213273701839
 31
0.0
  0
LINE
  5
1B5B
  8
0
 10
250.73634448353829
 20
209.14213273701839
 30
0.0
 11
251.3363443956215
 21
209.74213171777899
 31
0.0
  0
LINE
  5
1B5C
  8
0
 10
251.3363443956215
 20
214.5421328770893
 30
0.0
 11
250.73634448353829
 21
215.1421318578499
 31
0.0
  0
LINE
  5
1B5D
  8
0
 10
229.72652676407881
 20
184.24244977561401
 30
0.0
 11
229.82684464086481
 21
184.1421323644893
 31
0.0
  0
LINE
  5
1B5E
  8
0
 10
233.84584474269931
 20
184.1421323644893
 30
0.0
 11
233.94565784264989
 21
184.24194499877859
 31
0.0
  0
LINE
  5
1B5F
  8
0
 10
185.37205911134069
 20
222.6421321558731
 30
0.0
 11
184.58634323333089
 21
221.06879863915611
 31
0.0
  0
LINE
  5
1B60
  8
0
 10
189.03872451637571
 20
222.6421321558731
 30
0.0
 11
188.25301236365621
 21
221.06879863915611
 31
0.0
  0
LINE
  5
1B61
  8
0
 10
205.80063096140211
 20
163.6421317982452
 30
0.0
 11
206.58634497676681
 21
165.2154653149621
 31
0.0
  0
LINE
  5
1B62
  8
0
 10
192.705393646701
 20
222.6421321558731
 30
0.0
 11
191.9196777686912
 21
221.06879863915611
 31
0.0
  0
LINE
  5
1B63
  8
0
 10
209.4672963664371
 20
163.6421317982452
 30
0.0
 11
210.25301224444689
 21
165.2154653149621
 31
0.0
  0
LINE
  5
1B64
  8
0
 10
191.9196777686912
 20
221.06879863915611
 30
0.0
 11
191.1339656159717
 21
222.6421321558731
 31
0.0
  0
LINE
  5
1B65
  8
0
 10
196.37205905173599
 20
222.6421321558731
 30
0.0
 11
195.58634317372619
 21
221.06879863915611
 31
0.0
  0
LINE
  5
1B66
  8
0
 10
202.91967770908661
 20
221.06879863915611
 30
0.0
 11
202.13396555636709
 21
222.6421321558731
 31
0.0
  0
LINE
  5
1B67
  8
0
 10
202.91967770908661
 20
165.2154653149621
 30
0.0
 11
203.70539358709641
 21
163.6421317982452
 31
0.0
  0
LINE
  5
1B68
  8
0
 10
202.13396555636709
 20
163.6421317982452
 30
0.0
 11
202.91967770908661
 21
165.2154653149621
 31
0.0
  0
LINE
  5
1B69
  8
0
 10
206.58634497676681
 20
165.2154653149621
 30
0.0
 11
207.3720589921314
 21
163.6421317982452
 31
0.0
  0
LINE
  5
1B6A
  8
0
 10
188.25301236365621
 20
221.06879863915611
 30
0.0
 11
187.46729648564639
 21
222.6421321558731
 31
0.0
  0
LINE
  5
1B6B
  8
0
 10
213.919677649482
 20
221.06879863915611
 30
0.0
 11
213.13396363411729
 21
222.6421321558731
 31
0.0
  0
LINE
  5
1B6C
  8
0
 10
195.58634317372619
 20
221.06879863915611
 30
0.0
 11
194.80063102100669
 21
222.6421321558731
 31
0.0
  0
LINE
  5
1B6D
  8
0
 10
187.46729648564639
 20
163.6421317982452
 30
0.0
 11
188.25301236365621
 21
165.2154653149621
 31
0.0
  0
LINE
  5
1B6E
  8
0
 10
199.25301230405159
 20
165.2154653149621
 30
0.0
 11
200.03872445677109
 21
163.6421317982452
 31
0.0
  0
LINE
  5
1B6F
  8
0
 10
194.80063102100669
 20
163.6421317982452
 30
0.0
 11
195.58634317372619
 21
165.2154653149621
 31
0.0
  0
LINE
  5
1B70
  8
0
 10
210.25301224444689
 20
221.06879863915611
 30
0.0
 11
209.4672963664371
 21
222.6421321558731
 31
0.0
  0
LINE
  5
1B71
  8
0
 10
188.25301236365621
 20
165.2154653149621
 30
0.0
 11
189.03872451637571
 21
163.6421317982452
 31
0.0
  0
LINE
  5
1B72
  8
0
 10
198.4672964260418
 20
163.6421317982452
 30
0.0
 11
199.25301230405159
 21
165.2154653149621
 31
0.0
  0
LINE
  5
1B73
  8
0
 10
191.9196777686912
 20
165.2154653149621
 30
0.0
 11
192.705393646701
 21
163.6421317982452
 31
0.0
  0
LINE
  5
1B74
  8
0
 10
213.13396363411729
 20
163.6421317982452
 30
0.0
 11
213.919677649482
 21
165.2154653149621
 31
0.0
  0
LINE
  5
1B75
  8
0
 10
200.03872445677109
 20
222.6421321558731
 30
0.0
 11
199.25301230405159
 21
221.06879863915611
 31
0.0
  0
LINE
  5
1B76
  8
0
 10
195.58634317372619
 20
165.2154653149621
 30
0.0
 11
196.37205905173599
 21
163.6421317982452
 31
0.0
  0
LINE
  5
1B77
  8
0
 10
191.1339656159717
 20
163.6421317982452
 30
0.0
 11
191.9196777686912
 21
165.2154653149621
 31
0.0
  0
LINE
  5
1B78
  8
0
 10
206.58634497676681
 20
221.06879863915611
 30
0.0
 11
205.80063096140211
 21
222.6421321558731
 31
0.0
  0
LINE
  5
1B79
  8
0
 10
211.0387262598116
 20
222.6421321558731
 30
0.0
 11
210.25301224444689
 21
221.06879863915611
 31
0.0
  0
LINE
  5
1B7A
  8
0
 10
207.3720589921314
 20
222.6421321558731
 30
0.0
 11
206.58634497676681
 21
221.06879863915611
 31
0.0
  0
LINE
  5
1B7B
  8
0
 10
184.58634323333089
 20
165.2154653149621
 30
0.0
 11
185.37205911134069
 21
163.6421317982452
 31
0.0
  0
LINE
  5
1B7C
  8
0
 10
210.25301224444689
 20
165.2154653149621
 30
0.0
 11
211.0387262598116
 21
163.6421317982452
 31
0.0
  0
LINE
  5
1B7D
  8
0
 10
203.70539358709641
 20
222.6421321558731
 30
0.0
 11
202.91967770908661
 21
221.06879863915611
 31
0.0
  0
LINE
  5
1B7E
  8
0
 10
199.25301230405159
 20
221.06879863915611
 30
0.0
 11
198.4672964260418
 21
222.6421321558731
 31
0.0
  0
LINE
  5
1B7F
  8
0
 10
203.70539358709641
 20
163.6421317982452
 30
0.0
 11
205.80063096140211
 21
163.6421317982452
 31
0.0
  0
LINE
  5
1B80
  8
0
 10
194.80063102100669
 20
222.6421321558731
 30
0.0
 11
192.705393646701
 21
222.6421321558731
 31
0.0
  0
LINE
  5
1B81
  8
0
 10
207.3720589921314
 20
163.6421317982452
 30
0.0
 11
209.4672963664371
 21
163.6421317982452
 31
0.0
  0
LINE
  5
1B82
  8
0
 10
202.13396555636709
 20
222.6421321558731
 30
0.0
 11
200.03872445677109
 21
222.6421321558731
 31
0.0
  0
LINE
  5
1B83
  8
0
 10
196.37205905173599
 20
163.6421317982452
 30
0.0
 11
198.4672964260418
 21
163.6421317982452
 31
0.0
  0
LINE
  5
1B84
  8
0
 10
192.705393646701
 20
163.6421317982452
 30
0.0
 11
194.80063102100669
 21
163.6421317982452
 31
0.0
  0
LINE
  5
1B85
  8
0
 10
191.1339656159717
 20
222.6421321558731
 30
0.0
 11
189.03872451637571
 21
222.6421321558731
 31
0.0
  0
LINE
  5
1B86
  8
0
 10
211.0387262598116
 20
163.6421317982452
 30
0.0
 11
213.13396363411729
 21
163.6421317982452
 31
0.0
  0
LINE
  5
1B87
  8
0
 10
187.46729648564639
 20
222.6421321558731
 30
0.0
 11
185.37205911134069
 21
222.6421321558731
 31
0.0
  0
LINE
  5
1B88
  8
0
 10
213.13396363411729
 20
222.6421321558731
 30
0.0
 11
211.0387262598116
 21
222.6421321558731
 31
0.0
  0
LINE
  5
1B89
  8
0
 10
198.4672964260418
 20
222.6421321558731
 30
0.0
 11
196.37205905173599
 21
222.6421321558731
 31
0.0
  0
LINE
  5
1B8A
  8
0
 10
200.03872445677109
 20
163.6421317982452
 30
0.0
 11
202.13396555636709
 21
163.6421317982452
 31
0.0
  0
LINE
  5
1B8B
  8
0
 10
205.80063096140211
 20
222.6421321558731
 30
0.0
 11
203.70539358709641
 21
222.6421321558731
 31
0.0
  0
LINE
  5
1B8C
  8
0
 10
209.4672963664371
 20
222.6421321558731
 30
0.0
 11
207.3720589921314
 21
222.6421321558731
 31
0.0
  0
LINE
  5
1B8D
  8
0
 10
189.03872451637571
 20
163.6421317982452
 30
0.0
 11
191.1339656159717
 21
163.6421317982452
 31
0.0
  0
LINE
  5
1B8E
  8
0
 10
185.37205911134069
 20
163.6421317982452
 30
0.0
 11
187.46729648564639
 21
163.6421317982452
 31
0.0
  0
LINE
  5
1B8F
  8
0
 10
211.0387262598116
 20
194.6860426853375
 30
0.0
 11
211.0387262598116
 21
191.59822126878069
 31
0.0
  0
LINE
  5
1B90
  8
0
 10
211.0387262598116
 20
194.6860426853375
 30
0.0
 11
213.13396363411729
 21
194.6860426853375
 31
0.0
  0
LINE
  5
1B91
  8
0
 10
213.13396363411729
 20
194.6860426853375
 30
0.0
 11
213.13396363411729
 21
191.59822126878069
 31
0.0
  0
LINE
  5
1B92
  8
0
 10
213.13396363411729
 20
191.59822126878069
 30
0.0
 11
211.0387262598116
 21
191.59822126878069
 31
0.0
  0
LINE
  5
1B99
  8
0
 10
185.37205911134069
 20
194.6860426853375
 30
0.0
 11
185.37205911134069
 21
191.59822126878069
 31
0.0
  0
LINE
  5
1B9A
  8
0
 10
185.37205911134069
 20
194.6860426853375
 30
0.0
 11
187.46729648564639
 21
194.6860426853375
 31
0.0
  0
LINE
  5
1B9B
  8
0
 10
187.46729648564639
 20
194.6860426853375
 30
0.0
 11
187.46729648564639
 21
191.59822126878069
 31
0.0
  0
LINE
  5
1B9C
  8
0
 10
187.46729648564639
 20
191.59822126878069
 30
0.0
 11
185.37205911134069
 21
191.59822126878069
 31
0.0
  0
LINE
  5
1B9F
  8
0
 10
189.03872451637571
 20
194.6860426853375
 30
0.0
 11
189.03872451637571
 21
191.59822126878069
 31
0.0
  0
LINE
  5
1BA1
  8
0
 10
192.705393646701
 20
194.6860426853375
 30
0.0
 11
192.705393646701
 21
191.59822126878069
 31
0.0
  0
LINE
  5
1BA2
  8
0
 10
192.705393646701
 20
194.6860426853375
 30
0.0
 11
194.80063102100669
 21
194.6860426853375
 31
0.0
  0
LINE
  5
1BA3
  8
0
 10
194.80063102100669
 20
194.6860426853375
 30
0.0
 11
194.80063102100669
 21
191.59822126878069
 31
0.0
  0
LINE
  5
1BA4
  8
0
 10
194.80063102100669
 20
191.59822126878069
 30
0.0
 11
192.705393646701
 21
191.59822126878069
 31
0.0
  0
LINE
  5
1BA8
  8
0
 10
198.4672964260418
 20
194.6860426853375
 30
0.0
 11
198.4672964260418
 21
191.59822126878069
 31
0.0
  0
LINE
  5
1BAD
  8
0
 10
200.03872445677109
 20
194.6860426853375
 30
0.0
 11
200.03872445677109
 21
191.59822126878069
 31
0.0
  0
LINE
  5
1BB1
  8
0
 10
203.70539358709641
 20
194.6860426853375
 30
0.0
 11
203.70539358709641
 21
191.59822126878069
 31
0.0
  0
LINE
  5
1BB3
  8
0
 10
205.80063096140211
 20
194.6860426853375
 30
0.0
 11
205.80063096140211
 21
191.59822126878069
 31
0.0
  0
LINE
  5
1BB7
  8
0
 10
207.3720589921314
 20
194.6860426853375
 30
0.0
 11
207.3720589921314
 21
191.59822126878069
 31
0.0
  0
LINE
  5
1BB8
  8
0
 10
207.3720589921314
 20
194.6860426853375
 30
0.0
 11
209.4672963664371
 21
194.6860426853375
 31
0.0
  0
LINE
  5
1BB9
  8
0
 10
209.4672963664371
 20
194.6860426853375
 30
0.0
 11
209.4672963664371
 21
191.59822126878069
 31
0.0
  0
LINE
  5
1BBA
  8
0
 10
209.4672963664371
 20
191.59822126878069
 30
0.0
 11
207.3720589921314
 21
191.59822126878069
 31
0.0
  0
LINE
  5
1BC2
  8
0
 10
196.37205905173599
 20
194.6860426853375
 30
0.0
 11
196.37205905173599
 21
191.59822126878069
 31
0.0
  0
LINE
  5
1BC3
  8
0
 10
196.37205905173599
 20
194.6860426853375
 30
0.0
 11
198.4672964260418
 21
194.6860426853375
 31
0.0
  0
LINE
  5
1BC4
  8
0
 10
198.4672964260418
 20
191.59822126878069
 30
0.0
 11
196.37205905173599
 21
191.59822126878069
 31
0.0
  0
LINE
  5
1BC5
  8
0
 10
189.03872451637571
 20
194.6860426853375
 30
0.0
 11
191.1339656159717
 21
194.6860426853375
 31
0.0
  0
LINE
  5
1BC6
  8
0
 10
191.1339656159717
 20
194.6860426853375
 30
0.0
 11
191.1339656159717
 21
191.59822126878069
 31
0.0
  0
LINE
  5
1BC7
  8
0
 10
191.1339656159717
 20
191.59822126878069
 30
0.0
 11
189.03872451637571
 21
191.59822126878069
 31
0.0
  0
LINE
  5
1BCF
  8
0
 10
202.13396555636709
 20
194.6860426853375
 30
0.0
 11
202.13396555636709
 21
191.59822126878069
 31
0.0
  0
LINE
  5
1BD2
  8
0
 10
203.70539358709641
 20
194.6860426853375
 30
0.0
 11
205.80063096140211
 21
194.6860426853375
 31
0.0
  0
LINE
  5
1BD3
  8
0
 10
205.80063096140211
 20
191.59822126878069
 30
0.0
 11
203.70539358709641
 21
191.59822126878069
 31
0.0
  0
LINE
  5
1BD6
  8
0
 10
200.03872445677109
 20
194.6860426853375
 30
0.0
 11
202.13396555636709
 21
194.6860426853375
 31
0.0
  0
LINE
  5
1BD7
  8
0
 10
202.13396555636709
 20
191.59822126878069
 30
0.0
 11
200.03872445677109
 21
191.59822126878069
 31
0.0
  0
LINE
  5
1BE8
  8
0
 10
203.70539358709641
 20
199.77818809477259
 30
0.0
 11
203.70539358709641
 21
196.73727762912981
 31
0.0
  0
LINE
  5
1BEC
  8
0
 10
191.1339656159717
 20
199.77818809477259
 30
0.0
 11
191.1339656159717
 21
196.73727762912981
 31
0.0
  0
LINE
  5
1BED
  8
0
 10
191.1339656159717
 20
196.73727762912981
 30
0.0
 11
189.03872451637571
 21
196.73727762912981
 31
0.0
  0
LINE
  5
1BEE
  8
0
 10
189.03872451637571
 20
199.77818809477259
 30
0.0
 11
189.03872451637571
 21
196.73727762912981
 31
0.0
  0
LINE
  5
1BEF
  8
0
 10
189.03872451637571
 20
199.77818809477259
 30
0.0
 11
191.1339656159717
 21
199.77818809477259
 31
0.0
  0
LINE
  5
1BF3
  8
0
 10
187.46729648564639
 20
189.5469863249885
 30
0.0
 11
187.46729648564639
 21
186.50607585934571
 31
0.0
  0
LINE
  5
1BF4
  8
0
 10
187.46729648564639
 20
186.50607585934571
 30
0.0
 11
185.37205911134069
 21
186.50607585934571
 31
0.0
  0
LINE
  5
1BF5
  8
0
 10
185.37205911134069
 20
189.5469863249885
 30
0.0
 11
185.37205911134069
 21
186.50607585934571
 31
0.0
  0
LINE
  5
1BF6
  8
0
 10
185.37205911134069
 20
189.5469863249885
 30
0.0
 11
187.46729648564639
 21
189.5469863249885
 31
0.0
  0
LINE
  5
1BF7
  8
0
 10
203.70539358709641
 20
189.5469863249885
 30
0.0
 11
203.70539358709641
 21
186.50607585934571
 31
0.0
  0
LINE
  5
1BFD
  8
0
 10
205.80063096140211
 20
189.5469863249885
 30
0.0
 11
205.80063096140211
 21
186.50607585934571
 31
0.0
  0
LINE
  5
1C01
  8
0
 10
213.13396363411729
 20
189.5469863249885
 30
0.0
 11
213.13396363411729
 21
186.50607585934571
 31
0.0
  0
LINE
  5
1C05
  8
0
 10
209.4672963664371
 20
189.5469863249885
 30
0.0
 11
209.4672963664371
 21
186.50607585934571
 31
0.0
  0
LINE
  5
1C07
  8
0
 10
213.13396363411729
 20
186.50607585934571
 30
0.0
 11
211.0387262598116
 21
186.50607585934571
 31
0.0
  0
LINE
  5
1C08
  8
0
 10
211.0387262598116
 20
189.5469863249885
 30
0.0
 11
211.0387262598116
 21
186.50607585934571
 31
0.0
  0
LINE
  5
1C09
  8
0
 10
211.0387262598116
 20
189.5469863249885
 30
0.0
 11
213.13396363411729
 21
189.5469863249885
 31
0.0
  0
LINE
  5
1C0A
  8
0
 10
205.80063096140211
 20
199.77818809477259
 30
0.0
 11
205.80063096140211
 21
196.73727762912981
 31
0.0
  0
LINE
  5
1C0B
  8
0
 10
205.80063096140211
 20
196.73727762912981
 30
0.0
 11
203.70539358709641
 21
196.73727762912981
 31
0.0
  0
LINE
  5
1C0C
  8
0
 10
203.70539358709641
 20
199.77818809477259
 30
0.0
 11
205.80063096140211
 21
199.77818809477259
 31
0.0
  0
LINE
  5
1C0E
  8
0
 10
202.13396555636709
 20
199.77818809477259
 30
0.0
 11
202.13396555636709
 21
196.73727762912981
 31
0.0
  0
LINE
  5
1C10
  8
0
 10
202.13396555636709
 20
196.73727762912981
 30
0.0
 11
200.03872445677109
 21
196.73727762912981
 31
0.0
  0
LINE
  5
1C11
  8
0
 10
200.03872445677109
 20
199.77818809477259
 30
0.0
 11
200.03872445677109
 21
196.73727762912981
 31
0.0
  0
LINE
  5
1C12
  8
0
 10
200.03872445677109
 20
199.77818809477259
 30
0.0
 11
202.13396555636709
 21
199.77818809477259
 31
0.0
  0
LINE
  5
1C13
  8
0
 10
192.705393646701
 20
189.5469863249885
 30
0.0
 11
192.705393646701
 21
186.50607585934571
 31
0.0
  0
LINE
  5
1C19
  8
0
 10
198.4672964260418
 20
189.5469863249885
 30
0.0
 11
198.4672964260418
 21
186.50607585934571
 31
0.0
  0
LINE
  5
1C1B
  8
0
 10
196.37205905173599
 20
199.77818809477259
 30
0.0
 11
196.37205905173599
 21
196.73727762912981
 31
0.0
  0
LINE
  5
1C21
  8
0
 10
209.4672963664371
 20
196.73727762912981
 30
0.0
 11
207.3720589921314
 21
196.73727762912981
 31
0.0
  0
LINE
  5
1C24
  8
0
 10
202.13396555636709
 20
189.5469863249885
 30
0.0
 11
202.13396555636709
 21
186.50607585934571
 31
0.0
  0
LINE
  5
1C28
  8
0
 10
203.70539358709641
 20
189.5469863249885
 30
0.0
 11
205.80063096140211
 21
189.5469863249885
 31
0.0
  0
LINE
  5
1C2A
  8
0
 10
209.4672963664371
 20
186.50607585934571
 30
0.0
 11
207.3720589921314
 21
186.50607585934571
 31
0.0
  0
LINE
  5
1C2B
  8
0
 10
207.3720589921314
 20
189.5469863249885
 30
0.0
 11
207.3720589921314
 21
186.50607585934571
 31
0.0
  0
LINE
  5
1C2C
  8
0
 10
207.3720589921314
 20
189.5469863249885
 30
0.0
 11
209.4672963664371
 21
189.5469863249885
 31
0.0
  0
LINE
  5
1C30
  8
0
 10
187.46729648564639
 20
199.77818809477259
 30
0.0
 11
187.46729648564639
 21
196.73727762912981
 31
0.0
  0
LINE
  5
1C37
  8
0
 10
198.4672964260418
 20
199.77818809477259
 30
0.0
 11
198.4672964260418
 21
196.73727762912981
 31
0.0
  0
LINE
  5
1C3B
  8
0
 10
213.13396363411729
 20
199.77818809477259
 30
0.0
 11
213.13396363411729
 21
196.73727762912981
 31
0.0
  0
LINE
  5
1C3D
  8
0
 10
213.13396363411729
 20
196.73727762912981
 30
0.0
 11
211.0387262598116
 21
196.73727762912981
 31
0.0
  0
LINE
  5
1C3E
  8
0
 10
211.0387262598116
 20
199.77818809477259
 30
0.0
 11
211.0387262598116
 21
196.73727762912981
 31
0.0
  0
LINE
  5
1C3F
  8
0
 10
211.0387262598116
 20
199.77818809477259
 30
0.0
 11
213.13396363411729
 21
199.77818809477259
 31
0.0
  0
LINE
  5
1C40
  8
0
 10
198.4672964260418
 20
186.50607585934571
 30
0.0
 11
196.37205905173599
 21
186.50607585934571
 31
0.0
  0
LINE
  5
1C41
  8
0
 10
196.37205905173599
 20
189.5469863249885
 30
0.0
 11
196.37205905173599
 21
186.50607585934571
 31
0.0
  0
LINE
  5
1C42
  8
0
 10
196.37205905173599
 20
189.5469863249885
 30
0.0
 11
198.4672964260418
 21
189.5469863249885
 31
0.0
  0
LINE
  5
1C45
  8
0
 10
209.4672963664371
 20
199.77818809477259
 30
0.0
 11
209.4672963664371
 21
196.73727762912981
 31
0.0
  0
LINE
  5
1C46
  8
0
 10
207.3720589921314
 20
199.77818809477259
 30
0.0
 11
207.3720589921314
 21
196.73727762912981
 31
0.0
  0
LINE
  5
1C47
  8
0
 10
207.3720589921314
 20
199.77818809477259
 30
0.0
 11
209.4672963664371
 21
199.77818809477259
 31
0.0
  0
LINE
  5
1C51
  8
0
 10
192.705393646701
 20
189.5469863249885
 30
0.0
 11
194.80063102100669
 21
189.5469863249885
 31
0.0
  0
LINE
  5
1C55
  8
0
 10
194.80063102100669
 20
189.5469863249885
 30
0.0
 11
194.80063102100669
 21
186.50607585934571
 31
0.0
  0
LINE
  5
1C56
  8
0
 10
194.80063102100669
 20
186.50607585934571
 30
0.0
 11
192.705393646701
 21
186.50607585934571
 31
0.0
  0
LINE
  5
1C57
  8
0
 10
189.03872451637571
 20
189.5469863249885
 30
0.0
 11
189.03872451637571
 21
186.50607585934571
 31
0.0
  0
LINE
  5
1C5B
  8
0
 10
198.4672964260418
 20
196.73727762912981
 30
0.0
 11
196.37205905173599
 21
196.73727762912981
 31
0.0
  0
LINE
  5
1C5C
  8
0
 10
196.37205905173599
 20
199.77818809477259
 30
0.0
 11
198.4672964260418
 21
199.77818809477259
 31
0.0
  0
LINE
  5
1C5E
  8
0
 10
194.80063102100669
 20
199.77818809477259
 30
0.0
 11
194.80063102100669
 21
196.73727762912981
 31
0.0
  0
LINE
  5
1C60
  8
0
 10
202.13396555636709
 20
186.50607585934571
 30
0.0
 11
200.03872445677109
 21
186.50607585934571
 31
0.0
  0
LINE
  5
1C61
  8
0
 10
200.03872445677109
 20
189.5469863249885
 30
0.0
 11
200.03872445677109
 21
186.50607585934571
 31
0.0
  0
LINE
  5
1C62
  8
0
 10
200.03872445677109
 20
189.5469863249885
 30
0.0
 11
202.13396555636709
 21
189.5469863249885
 31
0.0
  0
LINE
  5
1C63
  8
0
 10
192.705393646701
 20
199.77818809477259
 30
0.0
 11
192.705393646701
 21
196.73727762912981
 31
0.0
  0
LINE
  5
1C68
  8
0
 10
194.80063102100669
 20
196.73727762912981
 30
0.0
 11
192.705393646701
 21
196.73727762912981
 31
0.0
  0
LINE
  5
1C69
  8
0
 10
192.705393646701
 20
199.77818809477259
 30
0.0
 11
194.80063102100669
 21
199.77818809477259
 31
0.0
  0
LINE
  5
1C6D
  8
0
 10
187.46729648564639
 20
196.73727762912981
 30
0.0
 11
185.37205911134069
 21
196.73727762912981
 31
0.0
  0
LINE
  5
1C6E
  8
0
 10
185.37205911134069
 20
199.77818809477259
 30
0.0
 11
185.37205911134069
 21
196.73727762912981
 31
0.0
  0
LINE
  5
1C6F
  8
0
 10
185.37205911134069
 20
199.77818809477259
 30
0.0
 11
187.46729648564639
 21
199.77818809477259
 31
0.0
  0
LINE
  5
1C73
  8
0
 10
191.1339656159717
 20
189.5469863249885
 30
0.0
 11
191.1339656159717
 21
186.50607585934571
 31
0.0
  0
LINE
  5
1C74
  8
0
 10
191.1339656159717
 20
186.50607585934571
 30
0.0
 11
189.03872451637571
 21
186.50607585934571
 31
0.0
  0
LINE
  5
1C75
  8
0
 10
189.03872451637571
 20
189.5469863249885
 30
0.0
 11
191.1339656159717
 21
189.5469863249885
 31
0.0
  0
LINE
  5
1C7D
  8
0
 10
205.80063096140211
 20
186.50607585934571
 30
0.0
 11
203.70539358709641
 21
186.50607585934571
 31
0.0
  0
LINE
  5
1C9A
  8
0
 10
203.70539358709641
 20
204.66869983849699
 30
0.0
 11
203.70539358709641
 21
201.7670973020571
 31
0.0
  0
LINE
  5
1C9F
  8
0
 10
205.80063096140211
 20
201.7670973020571
 30
0.0
 11
203.70539358709641
 21
201.7670973020571
 31
0.0
  0
LINE
  5
1CA3
  8
0
 10
194.80063102100669
 20
204.66869983849699
 30
0.0
 11
194.80063102100669
 21
201.7670973020571
 31
0.0
  0
LINE
  5
1CA5
  8
0
 10
211.0387262598116
 20
184.51716665206121
 30
0.0
 11
213.13396363411729
 21
184.51716665206121
 31
0.0
  0
LINE
  5
1CA9
  8
0
 10
198.4672964260418
 20
204.66869983849699
 30
0.0
 11
198.4672964260418
 21
201.7670973020571
 31
0.0
  0
LINE
  5
1CAA
  8
0
 10
198.4672964260418
 20
201.7670973020571
 30
0.0
 11
196.37205905173599
 21
201.7670973020571
 31
0.0
  0
LINE
  5
1CAB
  8
0
 10
196.37205905173599
 20
204.66869983849699
 30
0.0
 11
196.37205905173599
 21
201.7670973020571
 31
0.0
  0
LINE
  5
1CAC
  8
0
 10
196.37205905173599
 20
204.66869983849699
 30
0.0
 11
198.4672964260418
 21
204.66869983849699
 31
0.0
  0
LINE
  5
1CAD
  8
0
 10
205.80063096140211
 20
204.66869983849699
 30
0.0
 11
205.80063096140211
 21
201.7670973020571
 31
0.0
  0
LINE
  5
1CAE
  8
0
 10
203.70539358709641
 20
204.66869983849699
 30
0.0
 11
205.80063096140211
 21
204.66869983849699
 31
0.0
  0
LINE
  5
1CAF
  8
0
 10
213.13396363411729
 20
184.51716665206121
 30
0.0
 11
213.13396363411729
 21
181.61556411562131
 31
0.0
  0
LINE
  5
1CB0
  8
0
 10
213.13396363411729
 20
181.61556411562131
 30
0.0
 11
211.0387262598116
 21
181.61556411562131
 31
0.0
  0
LINE
  5
1CB1
  8
0
 10
211.0387262598116
 20
184.51716665206121
 30
0.0
 11
211.0387262598116
 21
181.61556411562131
 31
0.0
  0
LINE
  5
1CB2
  8
0
 10
185.37205911134069
 20
204.66869983849699
 30
0.0
 11
185.37205911134069
 21
201.7670973020571
 31
0.0
  0
LINE
  5
1CB6
  8
0
 10
194.80063102100669
 20
184.51716665206121
 30
0.0
 11
194.80063102100669
 21
181.61556411562131
 31
0.0
  0
LINE
  5
1CB7
  8
0
 10
194.80063102100669
 20
181.61556411562131
 30
0.0
 11
192.705393646701
 21
181.61556411562131
 31
0.0
  0
LINE
  5
1CB8
  8
0
 10
192.705393646701
 20
184.51716665206121
 30
0.0
 11
192.705393646701
 21
181.61556411562131
 31
0.0
  0
LINE
  5
1CB9
  8
0
 10
192.705393646701
 20
184.51716665206121
 30
0.0
 11
194.80063102100669
 21
184.51716665206121
 31
0.0
  0
LINE
  5
1CBC
  8
0
 10
209.4672963664371
 20
201.7670973020571
 30
0.0
 11
207.3720589921314
 21
201.7670973020571
 31
0.0
  0
LINE
  5
1CC0
  8
0
 10
202.13396555636709
 20
201.7670973020571
 30
0.0
 11
200.03872445677109
 21
201.7670973020571
 31
0.0
  0
LINE
  5
1CC2
  8
0
 10
191.1339656159717
 20
204.66869983849699
 30
0.0
 11
191.1339656159717
 21
201.7670973020571
 31
0.0
  0
LINE
  5
1CC3
  8
0
 10
191.1339656159717
 20
201.7670973020571
 30
0.0
 11
189.03872451637571
 21
201.7670973020571
 31
0.0
  0
LINE
  5
1CC4
  8
0
 10
189.03872451637571
 20
204.66869983849699
 30
0.0
 11
189.03872451637571
 21
201.7670973020571
 31
0.0
  0
LINE
  5
1CC5
  8
0
 10
189.03872451637571
 20
204.66869983849699
 30
0.0
 11
191.1339656159717
 21
204.66869983849699
 31
0.0
  0
LINE
  5
1CC6
  8
0
 10
207.3720589921314
 20
184.51716665206121
 30
0.0
 11
207.3720589921314
 21
181.61556411562131
 31
0.0
  0
LINE
  5
1CCA
  8
0
 10
211.0387262598116
 20
204.66869983849699
 30
0.0
 11
211.0387262598116
 21
201.7670973020571
 31
0.0
  0
LINE
  5
1CD4
  8
0
 10
196.37205905173599
 20
184.51716665206121
 30
0.0
 11
198.4672964260418
 21
184.51716665206121
 31
0.0
  0
LINE
  5
1CD8
  8
0
 10
198.4672964260418
 20
184.51716665206121
 30
0.0
 11
198.4672964260418
 21
181.61556411562131
 31
0.0
  0
LINE
  5
1CD9
  8
0
 10
198.4672964260418
 20
181.61556411562131
 30
0.0
 11
196.37205905173599
 21
181.61556411562131
 31
0.0
  0
LINE
  5
1CDA
  8
0
 10
196.37205905173599
 20
184.51716665206121
 30
0.0
 11
196.37205905173599
 21
181.61556411562131
 31
0.0
  0
LINE
  5
1CDB
  8
0
 10
187.46729648564639
 20
184.51716665206121
 30
0.0
 11
187.46729648564639
 21
181.61556411562131
 31
0.0
  0
LINE
  5
1CDC
  8
0
 10
187.46729648564639
 20
181.61556411562131
 30
0.0
 11
185.37205911134069
 21
181.61556411562131
 31
0.0
  0
LINE
  5
1CDD
  8
0
 10
185.37205911134069
 20
184.51716665206121
 30
0.0
 11
185.37205911134069
 21
181.61556411562131
 31
0.0
  0
LINE
  5
1CDE
  8
0
 10
185.37205911134069
 20
184.51716665206121
 30
0.0
 11
187.46729648564639
 21
184.51716665206121
 31
0.0
  0
LINE
  5
1CDF
  8
0
 10
203.70539358709641
 20
184.51716665206121
 30
0.0
 11
205.80063096140211
 21
184.51716665206121
 31
0.0
  0
LINE
  5
1CE5
  8
0
 10
213.13396363411729
 20
204.66869983849699
 30
0.0
 11
213.13396363411729
 21
201.7670973020571
 31
0.0
  0
LINE
  5
1CE7
  8
0
 10
207.3720589921314
 20
184.51716665206121
 30
0.0
 11
209.4672963664371
 21
184.51716665206121
 31
0.0
  0
LINE
  5
1CEC
  8
0
 10
187.46729648564639
 20
204.66869983849699
 30
0.0
 11
187.46729648564639
 21
201.7670973020571
 31
0.0
  0
LINE
  5
1CEE
  8
0
 10
209.4672963664371
 20
204.66869983849699
 30
0.0
 11
209.4672963664371
 21
201.7670973020571
 31
0.0
  0
LINE
  5
1CEF
  8
0
 10
207.3720589921314
 20
204.66869983849699
 30
0.0
 11
207.3720589921314
 21
201.7670973020571
 31
0.0
  0
LINE
  5
1CF0
  8
0
 10
207.3720589921314
 20
204.66869983849699
 30
0.0
 11
209.4672963664371
 21
204.66869983849699
 31
0.0
  0
LINE
  5
1CF1
  8
0
 10
194.80063102100669
 20
201.7670973020571
 30
0.0
 11
192.705393646701
 21
201.7670973020571
 31
0.0
  0
LINE
  5
1CF2
  8
0
 10
192.705393646701
 20
204.66869983849699
 30
0.0
 11
192.705393646701
 21
201.7670973020571
 31
0.0
  0
LINE
  5
1CF3
  8
0
 10
192.705393646701
 20
204.66869983849699
 30
0.0
 11
194.80063102100669
 21
204.66869983849699
 31
0.0
  0
LINE
  5
1CF9
  8
0
 10
200.03872445677109
 20
204.66869983849699
 30
0.0
 11
200.03872445677109
 21
201.7670973020571
 31
0.0
  0
LINE
  5
1CFC
  8
0
 10
189.03872451637571
 20
184.51716665206121
 30
0.0
 11
189.03872451637571
 21
181.61556411562131
 31
0.0
  0
LINE
  5
1D00
  8
0
 10
202.13396555636709
 20
204.66869983849699
 30
0.0
 11
202.13396555636709
 21
201.7670973020571
 31
0.0
  0
LINE
  5
1D01
  8
0
 10
200.03872445677109
 20
204.66869983849699
 30
0.0
 11
202.13396555636709
 21
204.66869983849699
 31
0.0
  0
LINE
  5
1D04
  8
0
 10
203.70539358709641
 20
184.51716665206121
 30
0.0
 11
203.70539358709641
 21
181.61556411562131
 31
0.0
  0
LINE
  5
1D0A
  8
0
 10
205.80063096140211
 20
184.51716665206121
 30
0.0
 11
205.80063096140211
 21
181.61556411562131
 31
0.0
  0
LINE
  5
1D0B
  8
0
 10
205.80063096140211
 20
181.61556411562131
 30
0.0
 11
203.70539358709641
 21
181.61556411562131
 31
0.0
  0
LINE
  5
1D10
  8
0
 10
209.4672963664371
 20
184.51716665206121
 30
0.0
 11
209.4672963664371
 21
181.61556411562131
 31
0.0
  0
LINE
  5
1D18
  8
0
 10
191.1339656159717
 20
184.51716665206121
 30
0.0
 11
191.1339656159717
 21
181.61556411562131
 31
0.0
  0
LINE
  5
1D1A
  8
0
 10
200.03872445677109
 20
184.51716665206121
 30
0.0
 11
202.13396555636709
 21
184.51716665206121
 31
0.0
  0
LINE
  5
1D1E
  8
0
 10
200.03872445677109
 20
184.51716665206121
 30
0.0
 11
200.03872445677109
 21
181.61556411562131
 31
0.0
  0
LINE
  5
1D23
  8
0
 10
187.46729648564639
 20
201.7670973020571
 30
0.0
 11
185.37205911134069
 21
201.7670973020571
 31
0.0
  0
LINE
  5
1D25
  8
0
 10
202.13396555636709
 20
184.51716665206121
 30
0.0
 11
202.13396555636709
 21
181.61556411562131
 31
0.0
  0
LINE
  5
1D28
  8
0
 10
213.13396363411729
 20
201.7670973020571
 30
0.0
 11
211.0387262598116
 21
201.7670973020571
 31
0.0
  0
LINE
  5
1D2C
  8
0
 10
189.03872451637571
 20
184.51716665206121
 30
0.0
 11
191.1339656159717
 21
184.51716665206121
 31
0.0
  0
LINE
  5
1D33
  8
0
 10
202.13396555636709
 20
181.61556411562131
 30
0.0
 11
200.03872445677109
 21
181.61556411562131
 31
0.0
  0
LINE
  5
1D34
  8
0
 10
209.4672963664371
 20
181.61556411562131
 30
0.0
 11
207.3720589921314
 21
181.61556411562131
 31
0.0
  0
LINE
  5
1D37
  8
0
 10
185.37205911134069
 20
204.66869983849699
 30
0.0
 11
187.46729648564639
 21
204.66869983849699
 31
0.0
  0
LINE
  5
1D38
  8
0
 10
211.0387262598116
 20
204.66869983849699
 30
0.0
 11
213.13396363411729
 21
204.66869983849699
 31
0.0
  0
LINE
  5
1D3B
  8
0
 10
191.1339656159717
 20
181.61556411562131
 30
0.0
 11
189.03872451637571
 21
181.61556411562131
 31
0.0
  0
LINE
  5
1D3D
  8
0
 10
217.03967905495949
 20
221.06879863915611
 30
0.0
 11
217.03967905495949
 21
165.21546531496219
 31
0.0
  0
LINE
  5
1DA4
  8
0
 10
213.919677649482
 20
221.06879863915611
 30
0.0
 11
213.91967764948191
 21
165.2154653149621
 31
0.0
  0
LINE
  5
1E1F
  8
0
 10
218.3363445744354
 20
219.772131257035
 30
0.0
 11
218.33634457443529
 21
166.51213269708319
 31
0.0
  0
LINE
  5
1E21
  8
0
 10
183.66967967603989
 20
220.87213125107459
 30
0.0
 11
183.66967967603989
 21
165.4121327030436
 31
0.0
  0
LINE
  5
1E23
  8
0
 10
181.8363451108772
 20
219.03879854855711
 30
0.0
 11
181.8363451108772
 21
167.2454654055613
 31
0.0
  0
LINE
  5
1E24
  8
0
 10
187.46729648564639
 20
179.7494125368969
 30
0.0
 11
187.46729648564639
 21
177.07528088269399
 31
0.0
  0
LINE
  5
1E25
  8
0
 10
187.46729648564639
 20
177.07528088269399
 30
0.0
 11
185.37205911134069
 21
177.07528088269399
 31
0.0
  0
LINE
  5
1E26
  8
0
 10
185.37205911134069
 20
179.7494125368969
 30
0.0
 11
185.37205911134069
 21
177.07528088269399
 31
0.0
  0
LINE
  5
1E27
  8
0
 10
185.37205911134069
 20
179.7494125368969
 30
0.0
 11
187.46729648564639
 21
179.7494125368969
 31
0.0
  0
LINE
  5
1E2A
  8
0
 10
194.80063102100669
 20
209.20898307142431
 30
0.0
 11
194.80063102100669
 21
206.53485141722129
 31
0.0
  0
LINE
  5
1E2E
  8
0
 10
198.4672964260418
 20
179.7494125368969
 30
0.0
 11
198.4672964260418
 21
177.07528088269399
 31
0.0
  0
LINE
  5
1E32
  8
0
 10
209.4672963664371
 20
209.20898307142431
 30
0.0
 11
209.4672963664371
 21
206.53485141722129
 31
0.0
  0
LINE
  5
1E34
  8
0
 10
191.1339656159717
 20
209.20898307142431
 30
0.0
 11
191.1339656159717
 21
206.53485141722129
 31
0.0
  0
LINE
  5
1E35
  8
0
 10
191.1339656159717
 20
206.53485141722129
 30
0.0
 11
189.03872451637571
 21
206.53485141722129
 31
0.0
  0
LINE
  5
1E36
  8
0
 10
189.03872451637571
 20
209.20898307142431
 30
0.0
 11
189.03872451637571
 21
206.53485141722129
 31
0.0
  0
LINE
  5
1E37
  8
0
 10
189.03872451637571
 20
209.20898307142431
 30
0.0
 11
191.1339656159717
 21
209.20898307142431
 31
0.0
  0
LINE
  5
1E38
  8
0
 10
213.13396363411729
 20
179.7494125368969
 30
0.0
 11
213.13396363411729
 21
177.07528088269399
 31
0.0
  0
LINE
  5
1E39
  8
0
 10
213.13396363411729
 20
177.07528088269399
 30
0.0
 11
211.0387262598116
 21
177.07528088269399
 31
0.0
  0
LINE
  5
1E3A
  8
0
 10
211.0387262598116
 20
179.7494125368969
 30
0.0
 11
211.0387262598116
 21
177.07528088269399
 31
0.0
  0
LINE
  5
1E3B
  8
0
 10
211.0387262598116
 20
179.7494125368969
 30
0.0
 11
213.13396363411729
 21
179.7494125368969
 31
0.0
  0
LINE
  5
1E41
  8
0
 10
196.37205905173599
 20
179.7494125368969
 30
0.0
 11
198.4672964260418
 21
179.7494125368969
 31
0.0
  0
LINE
  5
1E43
  8
0
 10
200.03872445677109
 20
209.20898307142431
 30
0.0
 11
200.03872445677109
 21
206.53485141722129
 31
0.0
  0
LINE
  5
1E48
  8
0
 10
213.13396363411729
 20
206.53485141722129
 30
0.0
 11
211.0387262598116
 21
206.53485141722129
 31
0.0
  0
LINE
  5
1E4A
  8
0
 10
203.70539358709641
 20
179.7494125368969
 30
0.0
 11
205.80063096140211
 21
179.7494125368969
 31
0.0
  0
LINE
  5
1E4D
  8
0
 10
194.80063102100669
 20
179.7494125368969
 30
0.0
 11
194.80063102100669
 21
177.07528088269399
 31
0.0
  0
LINE
  5
1E4E
  8
0
 10
194.80063102100669
 20
177.07528088269399
 30
0.0
 11
192.705393646701
 21
177.07528088269399
 31
0.0
  0
LINE
  5
1E4F
  8
0
 10
192.705393646701
 20
179.7494125368969
 30
0.0
 11
192.705393646701
 21
177.07528088269399
 31
0.0
  0
LINE
  5
1E50
  8
0
 10
192.705393646701
 20
179.7494125368969
 30
0.0
 11
194.80063102100669
 21
179.7494125368969
 31
0.0
  0
LINE
  5
1E53
  8
0
 10
191.1339656159717
 20
179.7494125368969
 30
0.0
 11
191.1339656159717
 21
177.07528088269399
 31
0.0
  0
LINE
  5
1E55
  8
0
 10
189.03872451637571
 20
179.7494125368969
 30
0.0
 11
189.03872451637571
 21
177.07528088269399
 31
0.0
  0
LINE
  5
1E59
  8
0
 10
205.80063096140211
 20
179.7494125368969
 30
0.0
 11
205.80063096140211
 21
177.07528088269399
 31
0.0
  0
LINE
  5
1E5A
  8
0
 10
205.80063096140211
 20
177.07528088269399
 30
0.0
 11
203.70539358709641
 21
177.07528088269399
 31
0.0
  0
LINE
  5
1E5B
  8
0
 10
203.70539358709641
 20
179.7494125368969
 30
0.0
 11
203.70539358709641
 21
177.07528088269399
 31
0.0
  0
LINE
  5
1E5C
  8
0
 10
211.0387262598116
 20
209.20898307142431
 30
0.0
 11
211.0387262598116
 21
206.53485141722129
 31
0.0
  0
LINE
  5
1E5E
  8
0
 10
207.3720589921314
 20
179.7494125368969
 30
0.0
 11
207.3720589921314
 21
177.07528088269399
 31
0.0
  0
LINE
  5
1E64
  8
0
 10
202.13396555636709
 20
179.7494125368969
 30
0.0
 11
202.13396555636709
 21
177.07528088269399
 31
0.0
  0
LINE
  5
1E67
  8
0
 10
187.46729648564639
 20
206.53485141722129
 30
0.0
 11
185.37205911134069
 21
206.53485141722129
 31
0.0
  0
LINE
  5
1E69
  8
0
 10
192.705393646701
 20
209.20898307142431
 30
0.0
 11
192.705393646701
 21
206.53485141722129
 31
0.0
  0
LINE
  5
1E6D
  8
0
 10
200.03872445677109
 20
179.7494125368969
 30
0.0
 11
202.13396555636709
 21
179.7494125368969
 31
0.0
  0
LINE
  5
1E6F
  8
0
 10
202.13396555636709
 20
209.20898307142431
 30
0.0
 11
202.13396555636709
 21
206.53485141722129
 31
0.0
  0
LINE
  5
1E70
  8
0
 10
202.13396555636709
 20
206.53485141722129
 30
0.0
 11
200.03872445677109
 21
206.53485141722129
 31
0.0
  0
LINE
  5
1E71
  8
0
 10
200.03872445677109
 20
209.20898307142431
 30
0.0
 11
202.13396555636709
 21
209.20898307142431
 31
0.0
  0
LINE
  5
1E72
  8
0
 10
198.4672964260418
 20
209.20898307142431
 30
0.0
 11
198.4672964260418
 21
206.53485141722129
 31
0.0
  0
LINE
  5
1E73
  8
0
 10
198.4672964260418
 20
206.53485141722129
 30
0.0
 11
196.37205905173599
 21
206.53485141722129
 31
0.0
  0
LINE
  5
1E74
  8
0
 10
196.37205905173599
 20
209.20898307142431
 30
0.0
 11
196.37205905173599
 21
206.53485141722129
 31
0.0
  0
LINE
  5
1E75
  8
0
 10
196.37205905173599
 20
209.20898307142431
 30
0.0
 11
198.4672964260418
 21
209.20898307142431
 31
0.0
  0
LINE
  5
1E78
  8
0
 10
209.4672963664371
 20
206.53485141722129
 30
0.0
 11
207.3720589921314
 21
206.53485141722129
 31
0.0
  0
LINE
  5
1E79
  8
0
 10
207.3720589921314
 20
209.20898307142431
 30
0.0
 11
207.3720589921314
 21
206.53485141722129
 31
0.0
  0
LINE
  5
1E7A
  8
0
 10
207.3720589921314
 20
209.20898307142431
 30
0.0
 11
209.4672963664371
 21
209.20898307142431
 31
0.0
  0
LINE
  5
1E7C
  8
0
 10
213.13396363411729
 20
209.20898307142431
 30
0.0
 11
213.13396363411729
 21
206.53485141722129
 31
0.0
  0
LINE
  5
1E7D
  8
0
 10
211.0387262598116
 20
209.20898307142431
 30
0.0
 11
213.13396363411729
 21
209.20898307142431
 31
0.0
  0
LINE
  5
1E81
  8
0
 10
187.46729648564639
 20
209.20898307142431
 30
0.0
 11
187.46729648564639
 21
206.53485141722129
 31
0.0
  0
LINE
  5
1E83
  8
0
 10
202.13396555636709
 20
177.07528088269399
 30
0.0
 11
200.03872445677109
 21
177.07528088269399
 31
0.0
  0
LINE
  5
1E84
  8
0
 10
200.03872445677109
 20
179.7494125368969
 30
0.0
 11
200.03872445677109
 21
177.07528088269399
 31
0.0
  0
LINE
  5
1E85
  8
0
 10
196.37205905173599
 20
179.7494125368969
 30
0.0
 11
196.37205905173599
 21
177.07528088269399
 31
0.0
  0
LINE
  5
1E88
  8
0
 10
194.80063102100669
 20
206.53485141722129
 30
0.0
 11
192.705393646701
 21
206.53485141722129
 31
0.0
  0
LINE
  5
1E89
  8
0
 10
192.705393646701
 20
209.20898307142431
 30
0.0
 11
194.80063102100669
 21
209.20898307142431
 31
0.0
  0
LINE
  5
1E8D
  8
0
 10
209.4672963664371
 20
179.7494125368969
 30
0.0
 11
209.4672963664371
 21
177.07528088269399
 31
0.0
  0
LINE
  5
1E91
  8
0
 10
205.80063096140211
 20
209.20898307142431
 30
0.0
 11
205.80063096140211
 21
206.53485141722129
 31
0.0
  0
LINE
  5
1E92
  8
0
 10
205.80063096140211
 20
206.53485141722129
 30
0.0
 11
203.70539358709641
 21
206.53485141722129
 31
0.0
  0
LINE
  5
1E93
  8
0
 10
203.70539358709641
 20
209.20898307142431
 30
0.0
 11
203.70539358709641
 21
206.53485141722129
 31
0.0
  0
LINE
  5
1E94
  8
0
 10
203.70539358709641
 20
209.20898307142431
 30
0.0
 11
205.80063096140211
 21
209.20898307142431
 31
0.0
  0
LINE
  5
1E9D
  8
0
 10
189.03872451637571
 20
179.7494125368969
 30
0.0
 11
191.1339656159717
 21
179.7494125368969
 31
0.0
  0
LINE
  5
1E9E
  8
0
 10
185.37205911134069
 20
209.20898307142431
 30
0.0
 11
185.37205911134069
 21
206.53485141722129
 31
0.0
  0
LINE
  5
1EA1
  8
0
 10
185.37205911134069
 20
209.20898307142431
 30
0.0
 11
187.46729648564639
 21
209.20898307142431
 31
0.0
  0
LINE
  5
1EA3
  8
0
 10
209.4672963664371
 20
177.07528088269399
 30
0.0
 11
207.3720589921314
 21
177.07528088269399
 31
0.0
  0
LINE
  5
1EA4
  8
0
 10
207.3720589921314
 20
179.7494125368969
 30
0.0
 11
209.4672963664371
 21
179.7494125368969
 31
0.0
  0
LINE
  5
1EAF
  8
0
 10
198.4672964260418
 20
177.07528088269399
 30
0.0
 11
196.37205905173599
 21
177.07528088269399
 31
0.0
  0
LINE
  5
1EB1
  8
0
 10
191.1339656159717
 20
177.07528088269399
 30
0.0
 11
189.03872451637571
 21
177.07528088269399
 31
0.0
  0
LINE
  5
1EB4
  8
0
 10
224.8483447999198
 20
215.5118613320368
 30
0.0
 11
224.8483447999198
 21
170.26979949352909
 31
0.0
  0
ARC
  5
1EB5
  8
0
 10
222.59768303092599
 20
215.73712541136669
 30
0.0
 40
2.2619067849597281
 50
354.28441872552338
 51
82.787150870053324
  0
LINE
  5
1EB6
  8
0
 10
207.3720589921314
 20
175.38858864484001
 30
0.0
 11
207.3720589921314
 21
173.02318017957381
 31
0.0
  0
LINE
  5
1EBA
  8
0
 10
198.4672964260418
 20
213.26108377454449
 30
0.0
 11
198.4672964260418
 21
210.89567530927829
 31
0.0
  0
LINE
  5
1EBB
  8
0
 10
198.4672964260418
 20
210.89567530927829
 30
0.0
 11
196.37205905173599
 21
210.89567530927829
 31
0.0
  0
LINE
  5
1EBC
  8
0
 10
196.37205905173599
 20
213.26108377454449
 30
0.0
 11
196.37205905173599
 21
210.89567530927829
 31
0.0
  0
LINE
  5
1EBD
  8
0
 10
196.37205905173599
 20
213.26108377454449
 30
0.0
 11
198.4672964260418
 21
213.26108377454449
 31
0.0
  0
LINE
  5
1EC2
  8
0
 10
194.80063102100669
 20
213.26108377454449
 30
0.0
 11
194.80063102100669
 21
210.89567530927829
 31
0.0
  0
LINE
  5
1EC4
  8
0
 10
205.80063096140211
 20
213.26108377454449
 30
0.0
 11
205.80063096140211
 21
210.89567530927829
 31
0.0
  0
LINE
  5
1EC5
  8
0
 10
205.80063096140211
 20
210.89567530927829
 30
0.0
 11
203.70539358709641
 21
210.89567530927829
 31
0.0
  0
LINE
  5
1EC6
  8
0
 10
203.70539358709641
 20
213.26108377454449
 30
0.0
 11
203.70539358709641
 21
210.89567530927829
 31
0.0
  0
LINE
  5
1EC7
  8
0
 10
203.70539358709641
 20
213.26108377454449
 30
0.0
 11
205.80063096140211
 21
213.26108377454449
 31
0.0
  0
LINE
  5
1EC8
  8
0
 10
213.13396363411729
 20
175.38858864484001
 30
0.0
 11
213.13396363411729
 21
173.02318017957381
 31
0.0
  0
LINE
  5
1EC9
  8
0
 10
213.13396363411729
 20
173.02318017957381
 30
0.0
 11
211.0387262598116
 21
173.02318017957381
 31
0.0
  0
LINE
  5
1ECA
  8
0
 10
211.0387262598116
 20
175.38858864484001
 30
0.0
 11
211.0387262598116
 21
173.02318017957381
 31
0.0
  0
LINE
  5
1ECB
  8
0
 10
211.0387262598116
 20
175.38858864484001
 30
0.0
 11
213.13396363411729
 21
175.38858864484001
 31
0.0
  0
LINE
  5
1ECE
  8
0
 10
202.13396555636709
 20
213.26108377454449
 30
0.0
 11
202.13396555636709
 21
210.89567530927829
 31
0.0
  0
LINE
  5
1ED0
  8
0
 10
200.03872445677109
 20
213.26108377454449
 30
0.0
 11
200.03872445677109
 21
210.89567530927829
 31
0.0
  0
LINE
  5
1ED4
  8
0
 10
202.13396555636709
 20
210.89567530927829
 30
0.0
 11
200.03872445677109
 21
210.89567530927829
 31
0.0
  0
LINE
  5
1ED5
  8
0
 10
194.80063102100669
 20
175.38858864484001
 30
0.0
 11
194.80063102100669
 21
173.02318017957381
 31
0.0
  0
LINE
  5
1ED6
  8
0
 10
194.80063102100669
 20
173.02318017957381
 30
0.0
 11
192.705393646701
 21
173.02318017957381
 31
0.0
  0
LINE
  5
1ED7
  8
0
 10
192.705393646701
 20
175.38858864484001
 30
0.0
 11
192.705393646701
 21
173.02318017957381
 31
0.0
  0
LINE
  5
1ED8
  8
0
 10
192.705393646701
 20
175.38858864484001
 30
0.0
 11
194.80063102100669
 21
175.38858864484001
 31
0.0
  0
LINE
  5
1EDE
  8
0
 10
196.37205905173599
 20
175.38858864484001
 30
0.0
 11
198.4672964260418
 21
175.38858864484001
 31
0.0
  0
LINE
  5
1EE2
  8
0
 10
187.46729648564639
 20
210.89567530927829
 30
0.0
 11
185.37205911134069
 21
210.89567530927829
 31
0.0
  0
LINE
  5
1EE4
  8
0
 10
202.13396555636709
 20
175.38858864484001
 30
0.0
 11
202.13396555636709
 21
173.02318017957381
 31
0.0
  0
LINE
  5
1EE5
  8
0
 10
202.13396555636709
 20
173.02318017957381
 30
0.0
 11
200.03872445677109
 21
173.02318017957381
 31
0.0
  0
LINE
  5
1EE6
  8
0
 10
200.03872445677109
 20
175.38858864484001
 30
0.0
 11
200.03872445677109
 21
173.02318017957381
 31
0.0
  0
LINE
  5
1EE7
  8
0
 10
200.03872445677109
 20
175.38858864484001
 30
0.0
 11
202.13396555636709
 21
175.38858864484001
 31
0.0
  0
LINE
  5
1EE8
  8
0
 10
205.80063096140211
 20
175.38858864484001
 30
0.0
 11
205.80063096140211
 21
173.02318017957381
 31
0.0
  0
LINE
  5
1EE9
  8
0
 10
205.80063096140211
 20
173.02318017957381
 30
0.0
 11
203.70539358709641
 21
173.02318017957381
 31
0.0
  0
LINE
  5
1EEA
  8
0
 10
203.70539358709641
 20
175.38858864484001
 30
0.0
 11
203.70539358709641
 21
173.02318017957381
 31
0.0
  0
LINE
  5
1EEB
  8
0
 10
203.70539358709641
 20
175.38858864484001
 30
0.0
 11
205.80063096140211
 21
175.38858864484001
 31
0.0
  0
LINE
  5
1EEF
  8
0
 10
191.1339656159717
 20
213.26108377454449
 30
0.0
 11
191.1339656159717
 21
210.89567530927829
 31
0.0
  0
LINE
  5
1EF0
  8
0
 10
191.1339656159717
 20
210.89567530927829
 30
0.0
 11
189.03872451637571
 21
210.89567530927829
 31
0.0
  0
LINE
  5
1EF1
  8
0
 10
189.03872451637571
 20
213.26108377454449
 30
0.0
 11
189.03872451637571
 21
210.89567530927829
 31
0.0
  0
LINE
  5
1EF2
  8
0
 10
189.03872451637571
 20
213.26108377454449
 30
0.0
 11
191.1339656159717
 21
213.26108377454449
 31
0.0
  0
LINE
  5
1EF3
  8
0
 10
194.80063102100669
 20
210.89567530927829
 30
0.0
 11
192.705393646701
 21
210.89567530927829
 31
0.0
  0
LINE
  5
1EF4
  8
0
 10
192.705393646701
 20
213.26108377454449
 30
0.0
 11
192.705393646701
 21
210.89567530927829
 31
0.0
  0
LINE
  5
1EF5
  8
0
 10
192.705393646701
 20
213.26108377454449
 30
0.0
 11
194.80063102100669
 21
213.26108377454449
 31
0.0
  0
LINE
  5
1EF6
  8
0
 10
189.03872451637571
 20
175.38858864484001
 30
0.0
 11
191.1339656159717
 21
175.38858864484001
 31
0.0
  0
LINE
  5
1EFA
  8
0
 10
187.46729648564639
 20
175.38858864484001
 30
0.0
 11
187.46729648564639
 21
173.02318017957381
 31
0.0
  0
LINE
  5
1EFB
  8
0
 10
187.46729648564639
 20
173.02318017957381
 30
0.0
 11
185.37205911134069
 21
173.02318017957381
 31
0.0
  0
LINE
  5
1EFC
  8
0
 10
185.37205911134069
 20
175.38858864484001
 30
0.0
 11
185.37205911134069
 21
173.02318017957381
 31
0.0
  0
LINE
  5
1EFD
  8
0
 10
185.37205911134069
 20
175.38858864484001
 30
0.0
 11
187.46729648564639
 21
175.38858864484001
 31
0.0
  0
LINE
  5
1EFF
  8
0
 10
209.4672963664371
 20
210.89567530927829
 30
0.0
 11
207.3720589921314
 21
210.89567530927829
 31
0.0
  0
LINE
  5
1F01
  8
0
 10
213.13396363411729
 20
213.26108377454449
 30
0.0
 11
213.13396363411729
 21
210.89567530927829
 31
0.0
  0
LINE
  5
1F02
  8
0
 10
213.13396363411729
 20
210.89567530927829
 30
0.0
 11
211.0387262598116
 21
210.89567530927829
 31
0.0
  0
LINE
  5
1F03
  8
0
 10
211.0387262598116
 20
213.26108377454449
 30
0.0
 11
211.0387262598116
 21
210.89567530927829
 31
0.0
  0
LINE
  5
1F04
  8
0
 10
211.0387262598116
 20
213.26108377454449
 30
0.0
 11
213.13396363411729
 21
213.26108377454449
 31
0.0
  0
LINE
  5
1F0A
  8
0
 10
196.37205905173599
 20
175.38858864484001
 30
0.0
 11
196.37205905173599
 21
173.02318017957381
 31
0.0
  0
LINE
  5
1F10
  8
0
 10
191.1339656159717
 20
175.38858864484001
 30
0.0
 11
191.1339656159717
 21
173.02318017957381
 31
0.0
  0
LINE
  5
1F11
  8
0
 10
191.1339656159717
 20
173.02318017957381
 30
0.0
 11
189.03872451637571
 21
173.02318017957381
 31
0.0
  0
LINE
  5
1F12
  8
0
 10
189.03872451637571
 20
175.38858864484001
 30
0.0
 11
189.03872451637571
 21
173.02318017957381
 31
0.0
  0
LINE
  5
1F1C
  8
0
 10
187.46729648564639
 20
213.26108377454449
 30
0.0
 11
187.46729648564639
 21
210.89567530927829
 31
0.0
  0
LINE
  5
1F1D
  8
0
 10
185.37205911134069
 20
213.26108377454449
 30
0.0
 11
185.37205911134069
 21
210.89567530927829
 31
0.0
  0
LINE
  5
1F1E
  8
0
 10
185.37205911134069
 20
213.26108377454449
 30
0.0
 11
187.46729648564639
 21
213.26108377454449
 31
0.0
  0
LINE
  5
1F24
  8
0
 10
198.4672964260418
 20
175.38858864484001
 30
0.0
 11
198.4672964260418
 21
173.02318017957381
 31
0.0
  0
LINE
  5
1F25
  8
0
 10
198.4672964260418
 20
173.02318017957381
 30
0.0
 11
196.37205905173599
 21
173.02318017957381
 31
0.0
  0
LINE
  5
1F26
  8
0
 10
207.3720589921314
 20
213.26108377454449
 30
0.0
 11
207.3720589921314
 21
210.89567530927829
 31
0.0
  0
LINE
  5
1F2E
  8
0
 10
209.4672963664371
 20
175.38858864484001
 30
0.0
 11
209.4672963664371
 21
173.02318017957381
 31
0.0
  0
LINE
  5
1F34
  8
0
 10
209.4672963664371
 20
213.26108377454449
 30
0.0
 11
209.4672963664371
 21
210.89567530927829
 31
0.0
  0
LINE
  5
1F38
  8
0
 10
207.3720589921314
 20
175.38858864484001
 30
0.0
 11
209.4672963664371
 21
175.38858864484001
 31
0.0
  0
LINE
  5
1F39
  8
0
 10
207.3720589921314
 20
213.26108377454449
 30
0.0
 11
209.4672963664371
 21
213.26108377454449
 31
0.0
  0
LINE
  5
1F3F
  8
0
 10
200.03872445677109
 20
213.26108377454449
 30
0.0
 11
202.13396555636709
 21
213.26108377454449
 31
0.0
  0
LINE
  5
1F44
  8
0
 10
209.4672963664371
 20
173.02318017957381
 30
0.0
 11
207.3720589921314
 21
173.02318017957381
 31
0.0
  0
LINE
  5
1F46
  8
0
 10
205.80063096140211
 20
216.70187924084831
 30
0.0
 11
205.80063096140211
 21
214.7170669215696
 31
0.0
  0
LINE
  5
1F47
  8
0
 10
205.80063096140211
 20
214.7170669215696
 30
0.0
 11
203.70539358709641
 21
214.7170669215696
 31
0.0
  0
LINE
  5
1F48
  8
0
 10
203.70539358709641
 20
216.70187924084831
 30
0.0
 11
203.70539358709641
 21
214.7170669215696
 31
0.0
  0
LINE
  5
1F49
  8
0
 10
203.70539358709641
 20
216.70187924084831
 30
0.0
 11
205.80063096140211
 21
216.70187924084831
 31
0.0
  0
LINE
  5
1F4C
  8
0
 10
209.4672963664371
 20
216.70187924084831
 30
0.0
 11
209.4672963664371
 21
214.7170669215696
 31
0.0
  0
LINE
  5
1F4F
  8
0
 10
198.4672964260418
 20
214.7170669215696
 30
0.0
 11
196.37205905173599
 21
214.7170669215696
 31
0.0
  0
LINE
  5
1F51
  8
0
 10
207.3720589921314
 20
216.70187924084831
 30
0.0
 11
207.3720589921314
 21
214.7170669215696
 31
0.0
  0
LINE
  5
1F56
  8
0
 10
194.80063102100669
 20
214.7170669215696
 30
0.0
 11
192.705393646701
 21
214.7170669215696
 31
0.0
  0
LINE
  5
1F5A
  8
0
 10
202.13396555636709
 20
216.70187924084831
 30
0.0
 11
202.13396555636709
 21
214.7170669215696
 31
0.0
  0
LINE
  5
1F5C
  8
0
 10
198.4672964260418
 20
216.70187924084831
 30
0.0
 11
198.4672964260418
 21
214.7170669215696
 31
0.0
  0
LINE
  5
1F5D
  8
0
 10
196.37205905173599
 20
216.70187924084831
 30
0.0
 11
196.37205905173599
 21
214.7170669215696
 31
0.0
  0
LINE
  5
1F5E
  8
0
 10
196.37205905173599
 20
216.70187924084831
 30
0.0
 11
198.4672964260418
 21
216.70187924084831
 31
0.0
  0
LINE
  5
1F61
  8
0
 10
196.37205905173599
 20
171.56719703254871
 30
0.0
 11
198.4672964260418
 21
171.56719703254871
 31
0.0
  0
LINE
  5
1F64
  8
0
 10
213.13396363411729
 20
171.56719703254871
 30
0.0
 11
213.13396363411729
 21
169.5823847132699
 31
0.0
  0
LINE
  5
1F65
  8
0
 10
213.13396363411729
 20
169.5823847132699
 30
0.0
 11
211.0387262598116
 21
169.5823847132699
 31
0.0
  0
LINE
  5
1F66
  8
0
 10
211.0387262598116
 20
171.56719703254871
 30
0.0
 11
211.0387262598116
 21
169.5823847132699
 31
0.0
  0
LINE
  5
1F67
  8
0
 10
211.0387262598116
 20
171.56719703254871
 30
0.0
 11
213.13396363411729
 21
171.56719703254871
 31
0.0
  0
LINE
  5
1F68
  8
0
 10
185.37205911134069
 20
171.56719703254871
 30
0.0
 11
187.46729648564639
 21
171.56719703254871
 31
0.0
  0
LINE
  5
1F6B
  8
0
 10
205.80063096140211
 20
171.56719703254871
 30
0.0
 11
205.80063096140211
 21
169.5823847132699
 31
0.0
  0
LINE
  5
1F6C
  8
0
 10
205.80063096140211
 20
169.5823847132699
 30
0.0
 11
203.70539358709641
 21
169.5823847132699
 31
0.0
  0
LINE
  5
1F6D
  8
0
 10
203.70539358709641
 20
171.56719703254871
 30
0.0
 11
203.70539358709641
 21
169.5823847132699
 31
0.0
  0
LINE
  5
1F6E
  8
0
 10
203.70539358709641
 20
171.56719703254871
 30
0.0
 11
205.80063096140211
 21
171.56719703254871
 31
0.0
  0
LINE
  5
1F70
  8
0
 10
194.80063102100669
 20
216.70187924084831
 30
0.0
 11
194.80063102100669
 21
214.7170669215696
 31
0.0
  0
LINE
  5
1F74
  8
0
 10
202.13396555636709
 20
214.7170669215696
 30
0.0
 11
200.03872445677109
 21
214.7170669215696
 31
0.0
  0
LINE
  5
1F75
  8
0
 10
207.3720589921314
 20
171.56719703254871
 30
0.0
 11
207.3720589921314
 21
169.5823847132699
 31
0.0
  0
LINE
  5
1F79
  8
0
 10
200.03872445677109
 20
171.56719703254871
 30
0.0
 11
200.03872445677109
 21
169.5823847132699
 31
0.0
  0
LINE
  5
1F7F
  8
0
 10
202.13396555636709
 20
171.56719703254871
 30
0.0
 11
202.13396555636709
 21
169.5823847132699
 31
0.0
  0
LINE
  5
1F81
  8
0
 10
200.03872445677109
 20
216.70187924084831
 30
0.0
 11
200.03872445677109
 21
214.7170669215696
 31
0.0
  0
LINE
  5
1F84
  8
0
 10
192.705393646701
 20
171.56719703254871
 30
0.0
 11
194.80063102100669
 21
171.56719703254871
 31
0.0
  0
LINE
  5
1F88
  8
0
 10
191.1339656159717
 20
214.7170669215696
 30
0.0
 11
189.03872451637571
 21
214.7170669215696
 31
0.0
  0
LINE
  5
1F8D
  8
0
 10
213.13396363411729
 20
216.70187924084831
 30
0.0
 11
213.13396363411729
 21
214.7170669215696
 31
0.0
  0
LINE
  5
1F91
  8
0
 10
192.705393646701
 20
216.70187924084831
 30
0.0
 11
192.705393646701
 21
214.7170669215696
 31
0.0
  0
LINE
  5
1F94
  8
0
 10
198.4672964260418
 20
171.56719703254871
 30
0.0
 11
198.4672964260418
 21
169.5823847132699
 31
0.0
  0
LINE
  5
1F95
  8
0
 10
198.4672964260418
 20
169.5823847132699
 30
0.0
 11
196.37205905173599
 21
169.5823847132699
 31
0.0
  0
LINE
  5
1F96
  8
0
 10
196.37205905173599
 20
171.56719703254871
 30
0.0
 11
196.37205905173599
 21
169.5823847132699
 31
0.0
  0
LINE
  5
1F97
  8
0
 10
191.1339656159717
 20
216.70187924084831
 30
0.0
 11
191.1339656159717
 21
214.7170669215696
 31
0.0
  0
LINE
  5
1F98
  8
0
 10
189.03872451637571
 20
216.70187924084831
 30
0.0
 11
189.03872451637571
 21
214.7170669215696
 31
0.0
  0
LINE
  5
1F99
  8
0
 10
189.03872451637571
 20
216.70187924084831
 30
0.0
 11
191.1339656159717
 21
216.70187924084831
 31
0.0
  0
LINE
  5
1F9C
  8
0
 10
192.705393646701
 20
216.70187924084831
 30
0.0
 11
194.80063102100669
 21
216.70187924084831
 31
0.0
  0
LINE
  5
1F9E
  8
0
 10
213.13396363411729
 20
214.7170669215696
 30
0.0
 11
211.0387262598116
 21
214.7170669215696
 31
0.0
  0
LINE
  5
1FA1
  8
0
 10
200.03872445677109
 20
171.56719703254871
 30
0.0
 11
202.13396555636709
 21
171.56719703254871
 31
0.0
  0
LINE
  5
1FA4
  8
0
 10
209.4672963664371
 20
171.56719703254871
 30
0.0
 11
209.4672963664371
 21
169.5823847132699
 31
0.0
  0
LINE
  5
1FA7
  8
0
 10
187.46729648564639
 20
214.7170669215696
 30
0.0
 11
185.37205911134069
 21
214.7170669215696
 31
0.0
  0
LINE
  5
1FA9
  8
0
 10
194.80063102100669
 20
171.56719703254871
 30
0.0
 11
194.80063102100669
 21
169.5823847132699
 31
0.0
  0
LINE
  5
1FAA
  8
0
 10
194.80063102100669
 20
169.5823847132699
 30
0.0
 11
192.705393646701
 21
169.5823847132699
 31
0.0
  0
LINE
  5
1FAB
  8
0
 10
192.705393646701
 20
171.56719703254871
 30
0.0
 11
192.705393646701
 21
169.5823847132699
 31
0.0
  0
LINE
  5
1FAD
  8
0
 10
187.46729648564639
 20
216.70187924084831
 30
0.0
 11
187.46729648564639
 21
214.7170669215696
 31
0.0
  0
LINE
  5
1FAF
  8
0
 10
209.4672963664371
 20
214.7170669215696
 30
0.0
 11
207.3720589921314
 21
214.7170669215696
 31
0.0
  0
LINE
  5
1FB0
  8
0
 10
207.3720589921314
 20
171.56719703254871
 30
0.0
 11
209.4672963664371
 21
171.56719703254871
 31
0.0
  0
LINE
  5
1FB3
  8
0
 10
211.0387262598116
 20
216.70187924084831
 30
0.0
 11
211.0387262598116
 21
214.7170669215696
 31
0.0
  0
LINE
  5
1FB7
  8
0
 10
185.37205911134069
 20
171.56719703254871
 30
0.0
 11
185.37205911134069
 21
169.5823847132699
 31
0.0
  0
LINE
  5
1FBB
  8
0
 10
209.4672963664371
 20
169.5823847132699
 30
0.0
 11
207.3720589921314
 21
169.5823847132699
 31
0.0
  0
LINE
  5
1FBD
  8
0
 10
185.37205911134069
 20
216.70187924084831
 30
0.0
 11
185.37205911134069
 21
214.7170669215696
 31
0.0
  0
LINE
  5
1FC2
  8
0
 10
191.1339656159717
 20
171.56719703254871
 30
0.0
 11
191.1339656159717
 21
169.5823847132699
 31
0.0
  0
LINE
  5
1FC4
  8
0
 10
191.1339656159717
 20
169.5823847132699
 30
0.0
 11
189.03872451637571
 21
169.5823847132699
 31
0.0
  0
LINE
  5
1FC5
  8
0
 10
189.03872451637571
 20
171.56719703254871
 30
0.0
 11
189.03872451637571
 21
169.5823847132699
 31
0.0
  0
LINE
  5
1FC6
  8
0
 10
189.03872451637571
 20
171.56719703254871
 30
0.0
 11
191.1339656159717
 21
171.56719703254871
 31
0.0
  0
LINE
  5
1FC7
  8
0
 10
187.46729648564639
 20
171.56719703254871
 30
0.0
 11
187.46729648564639
 21
169.5823847132699
 31
0.0
  0
LINE
  5
1FC8
  8
0
 10
187.46729648564639
 20
169.5823847132699
 30
0.0
 11
185.37205911134069
 21
169.5823847132699
 31
0.0
  0
LINE
  5
1FCB
  8
0
 10
202.13396555636709
 20
169.5823847132699
 30
0.0
 11
200.03872445677109
 21
169.5823847132699
 31
0.0
  0
LINE
  5
1FCD
  8
0
 10
185.37205911134069
 20
216.70187924084831
 30
0.0
 11
187.46729648564639
 21
216.70187924084831
 31
0.0
  0
LINE
  5
1FCE
  8
0
 10
200.03872445677109
 20
216.70187924084831
 30
0.0
 11
202.13396555636709
 21
216.70187924084831
 31
0.0
  0
LINE
  5
1FCF
  8
0
 10
211.0387262598116
 20
216.70187924084831
 30
0.0
 11
213.13396363411729
 21
216.70187924084831
 31
0.0
  0
LINE
  5
1FD4
  8
0
 10
207.3720589921314
 20
216.70187924084831
 30
0.0
 11
209.4672963664371
 21
216.70187924084831
 31
0.0
  0
LINE
  5
1FD6
  8
0
 10
192.705393646701
 20
168.4013503420131
 30
0.0
 11
194.80063102100669
 21
168.4013503420131
 31
0.0
  0
LINE
  5
1FDA
  8
0
 10
213.13396363411729
 20
217.8829136121052
 30
0.0
 11
211.0387262598116
 21
217.8829136121052
 31
0.0
  0
LINE
  5
1FDC
  8
0
 10
213.13396363411729
 20
168.4013503420131
 30
0.0
 11
213.13396363411729
 21
166.8574391680734
 31
0.0
  0
LINE
  5
1FDD
  8
0
 10
213.13396363411729
 20
166.8574391680734
 30
0.0
 11
211.0387262598116
 21
166.8574391680734
 31
0.0
  0
LINE
  5
1FDE
  8
0
 10
211.0387262598116
 20
168.4013503420131
 30
0.0
 11
211.0387262598116
 21
166.8574391680734
 31
0.0
  0
LINE
  5
1FDF
  8
0
 10
211.0387262598116
 20
168.4013503420131
 30
0.0
 11
213.13396363411729
 21
168.4013503420131
 31
0.0
  0
LINE
  5
1FE2
  8
0
 10
202.13396555636709
 20
219.4268247860449
 30
0.0
 11
202.13396555636709
 21
217.8829136121052
 31
0.0
  0
LINE
  5
1FE4
  8
0
 10
187.46729648564639
 20
219.4268247860449
 30
0.0
 11
187.46729648564639
 21
217.8829136121052
 31
0.0
  0
LINE
  5
1FE5
  8
0
 10
187.46729648564639
 20
217.8829136121052
 30
0.0
 11
185.37205911134069
 21
217.8829136121052
 31
0.0
  0
LINE
  5
1FE6
  8
0
 10
185.37205911134069
 20
219.4268247860449
 30
0.0
 11
185.37205911134069
 21
217.8829136121052
 31
0.0
  0
LINE
  5
1FE7
  8
0
 10
185.37205911134069
 20
219.4268247860449
 30
0.0
 11
187.46729648564639
 21
219.4268247860449
 31
0.0
  0
LINE
  5
1FEA
  8
0
 10
198.4672964260418
 20
168.4013503420131
 30
0.0
 11
198.4672964260418
 21
166.8574391680734
 31
0.0
  0
LINE
  5
1FEC
  8
0
 10
200.03872445677109
 20
168.4013503420131
 30
0.0
 11
200.03872445677109
 21
166.8574391680734
 31
0.0
  0
LINE
  5
1FF1
  8
0
 10
205.80063096140211
 20
168.4013503420131
 30
0.0
 11
205.80063096140211
 21
166.8574391680734
 31
0.0
  0
LINE
  5
1FF2
  8
0
 10
205.80063096140211
 20
166.8574391680734
 30
0.0
 11
203.70539358709641
 21
166.8574391680734
 31
0.0
  0
LINE
  5
1FF3
  8
0
 10
203.70539358709641
 20
168.4013503420131
 30
0.0
 11
203.70539358709641
 21
166.8574391680734
 31
0.0
  0
LINE
  5
1FF4
  8
0
 10
203.70539358709641
 20
168.4013503420131
 30
0.0
 11
205.80063096140211
 21
168.4013503420131
 31
0.0
  0
LINE
  5
1FF5
  8
0
 10
196.37205905173599
 20
168.4013503420131
 30
0.0
 11
198.4672964260418
 21
168.4013503420131
 31
0.0
  0
LINE
  5
1FF9
  8
0
 10
209.4672963664371
 20
219.4268247860449
 30
0.0
 11
209.4672963664371
 21
217.8829136121052
 31
0.0
  0
LINE
  5
1FFB
  8
0
 10
213.13396363411729
 20
219.4268247860449
 30
0.0
 11
213.13396363411729
 21
217.8829136121052
 31
0.0
  0
LINE
  5
1FFC
  8
0
 10
211.0387262598116
 20
219.4268247860449
 30
0.0
 11
211.0387262598116
 21
217.8829136121052
 31
0.0
  0
LINE
  5
1FFD
  8
0
 10
211.0387262598116
 20
219.4268247860449
 30
0.0
 11
213.13396363411729
 21
219.4268247860449
 31
0.0
  0
LINE
  5
1FFE
  8
0
 10
200.03872445677109
 20
168.4013503420131
 30
0.0
 11
202.13396555636709
 21
168.4013503420131
 31
0.0
  0
LINE
  5
2000
  8
0
 10
207.3720589921314
 20
168.4013503420131
 30
0.0
 11
207.3720589921314
 21
166.8574391680734
 31
0.0
  0
LINE
  5
2008
  8
0
 10
191.1339656159717
 20
168.4013503420131
 30
0.0
 11
191.1339656159717
 21
166.8574391680734
 31
0.0
  0
LINE
  5
200E
  8
0
 10
194.80063102100669
 20
219.4268247860449
 30
0.0
 11
194.80063102100669
 21
217.8829136121052
 31
0.0
  0
LINE
  5
2010
  8
0
 10
198.4672964260418
 20
166.8574391680734
 30
0.0
 11
196.37205905173599
 21
166.8574391680734
 31
0.0
  0
LINE
  5
2011
  8
0
 10
196.37205905173599
 20
168.4013503420131
 30
0.0
 11
196.37205905173599
 21
166.8574391680734
 31
0.0
  0
LINE
  5
2012
  8
0
 10
194.80063102100669
 20
168.4013503420131
 30
0.0
 11
194.80063102100669
 21
166.8574391680734
 31
0.0
  0
LINE
  5
2013
  8
0
 10
194.80063102100669
 20
166.8574391680734
 30
0.0
 11
192.705393646701
 21
166.8574391680734
 31
0.0
  0
LINE
  5
2014
  8
0
 10
192.705393646701
 20
168.4013503420131
 30
0.0
 11
192.705393646701
 21
166.8574391680734
 31
0.0
  0
LINE
  5
2015
  8
0
 10
205.80063096140211
 20
219.4268247860449
 30
0.0
 11
205.80063096140211
 21
217.8829136121052
 31
0.0
  0
LINE
  5
2016
  8
0
 10
205.80063096140211
 20
217.8829136121052
 30
0.0
 11
203.70539358709641
 21
217.8829136121052
 31
0.0
  0
LINE
  5
2017
  8
0
 10
203.70539358709641
 20
219.4268247860449
 30
0.0
 11
203.70539358709641
 21
217.8829136121052
 31
0.0
  0
LINE
  5
2018
  8
0
 10
203.70539358709641
 20
219.4268247860449
 30
0.0
 11
205.80063096140211
 21
219.4268247860449
 31
0.0
  0
LINE
  5
201B
  8
0
 10
202.13396555636709
 20
168.4013503420131
 30
0.0
 11
202.13396555636709
 21
166.8574391680734
 31
0.0
  0
LINE
  5
201C
  8
0
 10
207.3720589921314
 20
219.4268247860449
 30
0.0
 11
207.3720589921314
 21
217.8829136121052
 31
0.0
  0
LINE
  5
2020
  8
0
 10
207.3720589921314
 20
168.4013503420131
 30
0.0
 11
209.4672963664371
 21
168.4013503420131
 31
0.0
  0
LINE
  5
2022
  8
0
 10
200.03872445677109
 20
219.4268247860449
 30
0.0
 11
200.03872445677109
 21
217.8829136121052
 31
0.0
  0
LINE
  5
2026
  8
0
 10
185.37205911134069
 20
168.4013503420131
 30
0.0
 11
187.46729648564639
 21
168.4013503420131
 31
0.0
  0
LINE
  5
2029
  8
0
 10
187.46729648564639
 20
168.4013503420131
 30
0.0
 11
187.46729648564639
 21
166.8574391680734
 31
0.0
  0
LINE
  5
202A
  8
0
 10
187.46729648564639
 20
166.8574391680734
 30
0.0
 11
185.37205911134069
 21
166.8574391680734
 31
0.0
  0
LINE
  5
202B
  8
0
 10
185.37205911134069
 20
168.4013503420131
 30
0.0
 11
185.37205911134069
 21
166.8574391680734
 31
0.0
  0
LINE
  5
202E
  8
0
 10
189.03872451637571
 20
168.4013503420131
 30
0.0
 11
189.03872451637571
 21
166.8574391680734
 31
0.0
  0
LINE
  5
2034
  8
0
 10
191.1339656159717
 20
219.4268247860449
 30
0.0
 11
191.1339656159717
 21
217.8829136121052
 31
0.0
  0
LINE
  5
2038
  8
0
 10
209.4672963664371
 20
217.8829136121052
 30
0.0
 11
207.3720589921314
 21
217.8829136121052
 31
0.0
  0
LINE
  5
203D
  8
0
 10
189.03872451637571
 20
168.4013503420131
 30
0.0
 11
191.1339656159717
 21
168.4013503420131
 31
0.0
  0
LINE
  5
2042
  8
0
 10
198.4672964260418
 20
217.8829136121052
 30
0.0
 11
196.37205905173599
 21
217.8829136121052
 31
0.0
  0
LINE
  5
2045
  8
0
 10
192.705393646701
 20
219.4268247860449
 30
0.0
 11
192.705393646701
 21
217.8829136121052
 31
0.0
  0
LINE
  5
2048
  8
0
 10
191.1339656159717
 20
217.8829136121052
 30
0.0
 11
189.03872451637571
 21
217.8829136121052
 31
0.0
  0
LINE
  5
2049
  8
0
 10
189.03872451637571
 20
219.4268247860449
 30
0.0
 11
189.03872451637571
 21
217.8829136121052
 31
0.0
  0
LINE
  5
204A
  8
0
 10
189.03872451637571
 20
219.4268247860449
 30
0.0
 11
191.1339656159717
 21
219.4268247860449
 31
0.0
  0
LINE
  5
204B
  8
0
 10
191.1339656159717
 20
166.8574391680734
 30
0.0
 11
189.03872451637571
 21
166.8574391680734
 31
0.0
  0
LINE
  5
204C
  8
0
 10
198.4672964260418
 20
219.4268247860449
 30
0.0
 11
198.4672964260418
 21
217.8829136121052
 31
0.0
  0
LINE
  5
204D
  8
0
 10
196.37205905173599
 20
219.4268247860449
 30
0.0
 11
196.37205905173599
 21
217.8829136121052
 31
0.0
  0
LINE
  5
204E
  8
0
 10
196.37205905173599
 20
219.4268247860449
 30
0.0
 11
198.4672964260418
 21
219.4268247860449
 31
0.0
  0
LINE
  5
204F
  8
0
 10
202.13396555636709
 20
166.8574391680734
 30
0.0
 11
200.03872445677109
 21
166.8574391680734
 31
0.0
  0
LINE
  5
2055
  8
0
 10
209.4672963664371
 20
168.4013503420131
 30
0.0
 11
209.4672963664371
 21
166.8574391680734
 31
0.0
  0
LINE
  5
2056
  8
0
 10
209.4672963664371
 20
166.8574391680734
 30
0.0
 11
207.3720589921314
 21
166.8574391680734
 31
0.0
  0
LINE
  5
2057
  8
0
 10
194.80063102100669
 20
217.8829136121052
 30
0.0
 11
192.705393646701
 21
217.8829136121052
 31
0.0
  0
LINE
  5
205A
  8
0
 10
192.705393646701
 20
219.4268247860449
 30
0.0
 11
194.80063102100669
 21
219.4268247860449
 31
0.0
  0
LINE
  5
2060
  8
0
 10
202.13396555636709
 20
217.8829136121052
 30
0.0
 11
200.03872445677109
 21
217.8829136121052
 31
0.0
  0
LINE
  5
2061
  8
0
 10
207.3720589921314
 20
219.4268247860449
 30
0.0
 11
209.4672963664371
 21
219.4268247860449
 31
0.0
  0
LINE
  5
2063
  8
0
 10
200.03872445677109
 20
219.4268247860449
 30
0.0
 11
202.13396555636709
 21
219.4268247860449
 31
0.0
  0
LINE
  5
2066
  8
0
 10
185.37205911134069
 20
165.98723929402991
 30
0.0
 11
187.46729648564639
 21
165.98723929402991
 31
0.0
  0
LINE
  5
206B
  8
0
 10
191.1339656159717
 20
221.3531221079605
 30
0.0
 11
191.1339656159717
 21
220.29702466008831
 31
0.0
  0
LINE
  5
206D
  8
0
 10
187.46729648564639
 20
221.3531221079605
 30
0.0
 11
187.46729648564639
 21
220.29702466008831
 31
0.0
  0
LINE
  5
206E
  8
0
 10
187.46729648564639
 20
220.29702466008831
 30
0.0
 11
185.37205911134069
 21
220.29702466008831
 31
0.0
  0
LINE
  5
206F
  8
0
 10
185.37205911134069
 20
221.3531221079605
 30
0.0
 11
185.37205911134069
 21
220.29702466008831
 31
0.0
  0
LINE
  5
2070
  8
0
 10
185.37205911134069
 20
221.3531221079605
 30
0.0
 11
187.46729648564639
 21
221.3531221079605
 31
0.0
  0
LINE
  5
2071
  8
0
 10
189.03872451637571
 20
165.98723929402991
 30
0.0
 11
191.1339656159717
 21
165.98723929402991
 31
0.0
  0
LINE
  5
2074
  8
0
 10
207.3720589921314
 20
165.98723929402991
 30
0.0
 11
207.3720589921314
 21
164.9311418461578
 31
0.0
  0
LINE
  5
2079
  8
0
 10
205.80063096140211
 20
220.29702466008831
 30
0.0
 11
203.70539358709641
 21
220.29702466008831
 31
0.0
  0
LINE
  5
207B
  8
0
 10
213.13396363411729
 20
221.3531221079605
 30
0.0
 11
213.13396363411729
 21
220.29702466008831
 31
0.0
  0
LINE
  5
207C
  8
0
 10
213.13396363411729
 20
220.29702466008831
 30
0.0
 11
211.0387262598116
 21
220.29702466008831
 31
0.0
  0
LINE
  5
207D
  8
0
 10
211.0387262598116
 20
221.3531221079605
 30
0.0
 11
211.0387262598116
 21
220.29702466008831
 31
0.0
  0
LINE
  5
207E
  8
0
 10
211.0387262598116
 20
221.3531221079605
 30
0.0
 11
213.13396363411729
 21
221.3531221079605
 31
0.0
  0
LINE
  5
2080
  8
0
 10
209.4672963664371
 20
220.29702466008831
 30
0.0
 11
207.3720589921314
 21
220.29702466008831
 31
0.0
  0
LINE
  5
2083
  8
0
 10
194.80063102100669
 20
220.29702466008831
 30
0.0
 11
192.705393646701
 21
220.29702466008831
 31
0.0
  0
LINE
  5
2085
  8
0
 10
205.80063096140211
 20
221.3531221079605
 30
0.0
 11
205.80063096140211
 21
220.29702466008831
 31
0.0
  0
LINE
  5
2086
  8
0
 10
203.70539358709641
 20
221.3531221079605
 30
0.0
 11
203.70539358709641
 21
220.29702466008831
 31
0.0
  0
LINE
  5
2087
  8
0
 10
203.70539358709641
 20
221.3531221079605
 30
0.0
 11
205.80063096140211
 21
221.3531221079605
 31
0.0
  0
LINE
  5
2088
  8
0
 10
200.03872445677109
 20
165.98723929402991
 30
0.0
 11
200.03872445677109
 21
164.9311418461578
 31
0.0
  0
LINE
  5
208D
  8
0
 10
209.4672963664371
 20
221.3531221079605
 30
0.0
 11
209.4672963664371
 21
220.29702466008831
 31
0.0
  0
LINE
  5
208F
  8
0
 10
205.80063096140211
 20
165.98723929402991
 30
0.0
 11
205.80063096140211
 21
164.9311418461578
 31
0.0
  0
LINE
  5
2090
  8
0
 10
205.80063096140211
 20
164.9311418461578
 30
0.0
 11
203.70539358709641
 21
164.9311418461578
 31
0.0
  0
LINE
  5
2091
  8
0
 10
203.70539358709641
 20
165.98723929402991
 30
0.0
 11
203.70539358709641
 21
164.9311418461578
 31
0.0
  0
LINE
  5
2092
  8
0
 10
203.70539358709641
 20
165.98723929402991
 30
0.0
 11
205.80063096140211
 21
165.98723929402991
 31
0.0
  0
LINE
  5
2093
  8
0
 10
213.13396363411729
 20
165.98723929402991
 30
0.0
 11
213.13396363411729
 21
164.9311418461578
 31
0.0
  0
LINE
  5
2094
  8
0
 10
213.13396363411729
 20
164.9311418461578
 30
0.0
 11
211.0387262598116
 21
164.9311418461578
 31
0.0
  0
LINE
  5
2095
  8
0
 10
211.0387262598116
 20
165.98723929402991
 30
0.0
 11
211.0387262598116
 21
164.9311418461578
 31
0.0
  0
LINE
  5
2096
  8
0
 10
211.0387262598116
 20
165.98723929402991
 30
0.0
 11
213.13396363411729
 21
165.98723929402991
 31
0.0
  0
LINE
  5
2097
  8
0
 10
187.46729648564639
 20
165.98723929402991
 30
0.0
 11
187.46729648564639
 21
164.9311418461578
 31
0.0
  0
LINE
  5
2098
  8
0
 10
187.46729648564639
 20
164.9311418461578
 30
0.0
 11
185.37205911134069
 21
164.9311418461578
 31
0.0
  0
LINE
  5
2099
  8
0
 10
185.37205911134069
 20
165.98723929402991
 30
0.0
 11
185.37205911134069
 21
164.9311418461578
 31
0.0
  0
LINE
  5
209A
  8
0
 10
192.705393646701
 20
165.98723929402991
 30
0.0
 11
194.80063102100669
 21
165.98723929402991
 31
0.0
  0
LINE
  5
20A1
  8
0
 10
202.13396555636709
 20
220.29702466008831
 30
0.0
 11
200.03872445677109
 21
220.29702466008831
 31
0.0
  0
LINE
  5
20A4
  8
0
 10
191.1339656159717
 20
220.29702466008831
 30
0.0
 11
189.03872451637571
 21
220.29702466008831
 31
0.0
  0
LINE
  5
20A7
  8
0
 10
191.1339656159717
 20
165.98723929402991
 30
0.0
 11
191.1339656159717
 21
164.9311418461578
 31
0.0
  0
LINE
  5
20AA
  8
0
 10
198.4672964260418
 20
221.3531221079605
 30
0.0
 11
198.4672964260418
 21
220.29702466008831
 31
0.0
  0
LINE
  5
20AC
  8
0
 10
196.37205905173599
 20
165.98723929402991
 30
0.0
 11
196.37205905173599
 21
164.9311418461578
 31
0.0
  0
LINE
  5
20B2
  8
0
 10
202.13396555636709
 20
165.98723929402991
 30
0.0
 11
202.13396555636709
 21
164.9311418461578
 31
0.0
  0
LINE
  5
20B6
  8
0
 10
202.13396555636709
 20
164.9311418461578
 30
0.0
 11
200.03872445677109
 21
164.9311418461578
 31
0.0
  0
LINE
  5
20B7
  8
0
 10
200.03872445677109
 20
165.98723929402991
 30
0.0
 11
202.13396555636709
 21
165.98723929402991
 31
0.0
  0
LINE
  5
20BA
  8
0
 10
209.4672963664371
 20
165.98723929402991
 30
0.0
 11
209.4672963664371
 21
164.9311418461578
 31
0.0
  0
LINE
  5
20BC
  8
0
 10
209.4672963664371
 20
164.9311418461578
 30
0.0
 11
207.3720589921314
 21
164.9311418461578
 31
0.0
  0
LINE
  5
20BD
  8
0
 10
207.3720589921314
 20
165.98723929402991
 30
0.0
 11
209.4672963664371
 21
165.98723929402991
 31
0.0
  0
LINE
  5
20C0
  8
0
 10
189.03872451637571
 20
221.3531221079605
 30
0.0
 11
189.03872451637571
 21
220.29702466008831
 31
0.0
  0
LINE
  5
20C3
  8
0
 10
194.80063102100669
 20
221.3531221079605
 30
0.0
 11
194.80063102100669
 21
220.29702466008831
 31
0.0
  0
LINE
  5
20C4
  8
0
 10
192.705393646701
 20
221.3531221079605
 30
0.0
 11
192.705393646701
 21
220.29702466008831
 31
0.0
  0
LINE
  5
20C5
  8
0
 10
192.705393646701
 20
221.3531221079605
 30
0.0
 11
194.80063102100669
 21
221.3531221079605
 31
0.0
  0
LINE
  5
20C9
  8
0
 10
194.80063102100669
 20
165.98723929402991
 30
0.0
 11
194.80063102100669
 21
164.9311418461578
 31
0.0
  0
LINE
  5
20CB
  8
0
 10
202.13396555636709
 20
221.3531221079605
 30
0.0
 11
202.13396555636709
 21
220.29702466008831
 31
0.0
  0
LINE
  5
20CD
  8
0
 10
200.03872445677109
 20
221.3531221079605
 30
0.0
 11
200.03872445677109
 21
220.29702466008831
 31
0.0
  0
LINE
  5
20CF
  8
0
 10
207.3720589921314
 20
221.3531221079605
 30
0.0
 11
207.3720589921314
 21
220.29702466008831
 31
0.0
  0
LINE
  5
20D3
  8
0
 10
198.4672964260418
 20
220.29702466008831
 30
0.0
 11
196.37205905173599
 21
220.29702466008831
 31
0.0
  0
LINE
  5
20D5
  8
0
 10
198.4672964260418
 20
165.98723929402991
 30
0.0
 11
198.4672964260418
 21
164.9311418461578
 31
0.0
  0
LINE
  5
20D7
  8
0
 10
207.3720589921314
 20
221.3531221079605
 30
0.0
 11
209.4672963664371
 21
221.3531221079605
 31
0.0
  0
LINE
  5
20DE
  8
0
 10
196.37205905173599
 20
165.98723929402991
 30
0.0
 11
198.4672964260418
 21
165.98723929402991
 31
0.0
  0
LINE
  5
20DF
  8
0
 10
194.80063102100669
 20
164.9311418461578
 30
0.0
 11
192.705393646701
 21
164.9311418461578
 31
0.0
  0
LINE
  5
20E0
  8
0
 10
192.705393646701
 20
165.98723929402991
 30
0.0
 11
192.705393646701
 21
164.9311418461578
 31
0.0
  0
LINE
  5
20E1
  8
0
 10
200.03872445677109
 20
221.3531221079605
 30
0.0
 11
202.13396555636709
 21
221.3531221079605
 31
0.0
  0
LINE
  5
20E4
  8
0
 10
189.03872451637571
 20
165.98723929402991
 30
0.0
 11
189.03872451637571
 21
164.9311418461578
 31
0.0
  0
LINE
  5
20E6
  8
0
 10
196.37205905173599
 20
221.3531221079605
 30
0.0
 11
196.37205905173599
 21
220.29702466008831
 31
0.0
  0
LINE
  5
20EE
  8
0
 10
198.4672964260418
 20
164.9311418461578
 30
0.0
 11
196.37205905173599
 21
164.9311418461578
 31
0.0
  0
LINE
  5
20EF
  8
0
 10
196.37205905173599
 20
221.3531221079605
 30
0.0
 11
198.4672964260418
 21
221.3531221079605
 31
0.0
  0
LINE
  5
20F4
  8
0
 10
189.03872451637571
 20
221.3531221079605
 30
0.0
 11
191.1339656159717
 21
221.3531221079605
 31
0.0
  0
LINE
  5
20F5
  8
0
 10
191.1339656159717
 20
164.9311418461578
 30
0.0
 11
189.03872451637571
 21
164.9311418461578
 31
0.0
  0
LINE
  5
20F7
  8
0
 10
226.1433451146323
 20
203.942132257201
 30
0.0
 11
226.14334511463221
 21
182.34213169691731
 31
0.0
  0
LINE
  5
20F9
  8
0
 10
236.83634481285401
 20
201.04213159558941
 30
0.0
 11
236.83634481285409
 21
185.24213235852889
 31
0.0
  0
LINE
  5
20FB
  8
0
 10
235.7363448188145
 20
202.142131589629
 30
0.0
 11
235.7363448188145
 21
184.1421323644893
 31
0.0
  0
ARC
  5
20FD
  8
0
 10
231.78453040993529
 20
175.13442081009171
 30
0.0
 40
9.3620462283100423
 50
74.186120122642691
 51
89.682893238050184
  0
LINE
  5
20FE
  8
0
 10
211.0387262598116
 20
164.39821485457591
 30
0.0
 11
213.13396363411729
 21
164.39821485457591
 31
0.0
  0
LINE
  5
2103
  8
0
 10
209.4672963664371
 20
164.39821485457591
 30
0.0
 11
209.4672963664371
 21
163.86202078340219
 31
0.0
  0
LINE
  5
2107
  8
0
 10
194.80063102100669
 20
164.39821485457591
 30
0.0
 11
194.80063102100669
 21
163.86202078340219
 31
0.0
  0
LINE
  5
2109
  8
0
 10
203.70539358709641
 20
164.39821485457591
 30
0.0
 11
203.70539358709641
 21
163.86202078340219
 31
0.0
  0
LINE
  5
210D
  8
0
 10
200.03872445677109
 20
164.39821485457591
 30
0.0
 11
200.03872445677109
 21
163.86202078340219
 31
0.0
  0
LINE
  5
2112
  8
0
 10
202.13396555636709
 20
164.39821485457591
 30
0.0
 11
202.13396555636709
 21
163.86202078340219
 31
0.0
  0
LINE
  5
2114
  8
0
 10
207.3720589921314
 20
164.39821485457591
 30
0.0
 11
207.3720589921314
 21
163.86202078340219
 31
0.0
  0
LINE
  5
2118
  8
0
 10
185.37205911134069
 20
164.39821485457591
 30
0.0
 11
187.46729648564639
 21
164.39821485457591
 31
0.0
  0
LINE
  5
211B
  8
0
 10
203.70539358709641
 20
164.39821485457591
 30
0.0
 11
205.80063096140211
 21
164.39821485457591
 31
0.0
  0
LINE
  5
211E
  8
0
 10
205.80063096140211
 20
164.39821485457591
 30
0.0
 11
205.80063096140211
 21
163.86202078340219
 31
0.0
  0
LINE
  5
211F
  8
0
 10
200.03872445677109
 20
164.39821485457591
 30
0.0
 11
202.13396555636709
 21
164.39821485457591
 31
0.0
  0
LINE
  5
2121
  8
0
 10
213.13396363411729
 20
164.39821485457591
 30
0.0
 11
213.13396363411729
 21
163.86202078340219
 31
0.0
  0
LINE
  5
2122
  8
0
 10
211.0387262598116
 20
164.39821485457591
 30
0.0
 11
211.0387262598116
 21
163.86202078340219
 31
0.0
  0
LINE
  5
2124
  8
0
 10
207.3720589921314
 20
164.39821485457591
 30
0.0
 11
209.4672963664371
 21
164.39821485457591
 31
0.0
  0
LINE
  5
2125
  8
0
 10
192.705393646701
 20
164.39821485457591
 30
0.0
 11
192.705393646701
 21
163.86202078340219
 31
0.0
  0
LINE
  5
2129
  8
0
 10
185.37205911134069
 20
164.39821485457591
 30
0.0
 11
185.37205911134069
 21
163.86202078340219
 31
0.0
  0
LINE
  5
212D
  8
0
 10
198.4672964260418
 20
164.39821485457591
 30
0.0
 11
198.4672964260418
 21
163.86202078340219
 31
0.0
  0
LINE
  5
212F
  8
0
 10
189.03872451637571
 20
164.39821485457591
 30
0.0
 11
191.1339656159717
 21
164.39821485457591
 31
0.0
  0
LINE
  5
2132
  8
0
 10
189.03872451637571
 20
164.39821485457591
 30
0.0
 11
189.03872451637571
 21
163.86202078340219
 31
0.0
  0
LINE
  5
2135
  8
0
 10
196.37205905173599
 20
164.39821485457591
 30
0.0
 11
196.37205905173599
 21
163.86202078340219
 31
0.0
  0
LINE
  5
2138
  8
0
 10
192.705393646701
 20
164.39821485457591
 30
0.0
 11
194.80063102100669
 21
164.39821485457591
 31
0.0
  0
LINE
  5
213A
  8
0
 10
191.1339656159717
 20
164.39821485457591
 30
0.0
 11
191.1339656159717
 21
163.86202078340219
 31
0.0
  0
LINE
  5
213B
  8
0
 10
196.37205905173599
 20
164.39821485457591
 30
0.0
 11
198.4672964260418
 21
164.39821485457591
 31
0.0
  0
LINE
  5
213D
  8
0
 10
187.46729648564639
 20
164.39821485457591
 30
0.0
 11
187.46729648564639
 21
163.86202078340219
 31
0.0
  0
LINE
  5
213F
  8
0
 10
187.46729648564639
 20
221.88604909954239
 30
0.0
 11
185.37205911134069
 21
221.88604909954239
 31
0.0
  0
LINE
  5
2141
  8
0
 10
185.37205911134069
 20
222.42224317071609
 30
0.0
 11
185.37205911134069
 21
221.88604909954239
 31
0.0
  0
LINE
  5
2146
  8
0
 10
209.4672963664371
 20
222.42224317071609
 30
0.0
 11
209.4672963664371
 21
221.88604909954239
 31
0.0
  0
LINE
  5
2149
  8
0
 10
187.46729648564639
 20
222.42224317071609
 30
0.0
 11
187.46729648564639
 21
221.88604909954239
 31
0.0
  0
LINE
  5
214C
  8
0
 10
198.4672964260418
 20
221.88604909954239
 30
0.0
 11
196.37205905173599
 21
221.88604909954239
 31
0.0
  0
LINE
  5
214F
  8
0
 10
194.80063102100669
 20
221.88604909954239
 30
0.0
 11
192.705393646701
 21
221.88604909954239
 31
0.0
  0
LINE
  5
2153
  8
0
 10
191.1339656159717
 20
222.42224317071609
 30
0.0
 11
191.1339656159717
 21
221.88604909954239
 31
0.0
  0
LINE
  5
2156
  8
0
 10
205.80063096140211
 20
221.88604909954239
 30
0.0
 11
203.70539358709641
 21
221.88604909954239
 31
0.0
  0
LINE
  5
2158
  8
0
 10
207.3720589921314
 20
222.42224317071609
 30
0.0
 11
207.3720589921314
 21
221.88604909954239
 31
0.0
  0
LINE
  5
215D
  8
0
 10
202.13396555636709
 20
221.88604909954239
 30
0.0
 11
200.03872445677109
 21
221.88604909954239
 31
0.0
  0
LINE
  5
215F
  8
0
 10
211.0387262598116
 20
222.42224317071609
 30
0.0
 11
211.0387262598116
 21
221.88604909954239
 31
0.0
  0
LINE
  5
2163
  8
0
 10
198.4672964260418
 20
222.42224317071609
 30
0.0
 11
198.4672964260418
 21
221.88604909954239
 31
0.0
  0
LINE
  5
2165
  8
0
 10
192.705393646701
 20
222.42224317071609
 30
0.0
 11
192.705393646701
 21
221.88604909954239
 31
0.0
  0
LINE
  5
2167
  8
0
 10
200.03872445677109
 20
222.42224317071609
 30
0.0
 11
200.03872445677109
 21
221.88604909954239
 31
0.0
  0
LINE
  5
216A
  8
0
 10
213.13396363411729
 20
222.42224317071609
 30
0.0
 11
213.13396363411729
 21
221.88604909954239
 31
0.0
  0
LINE
  5
216D
  8
0
 10
194.80063102100669
 20
222.42224317071609
 30
0.0
 11
194.80063102100669
 21
221.88604909954239
 31
0.0
  0
LINE
  5
216F
  8
0
 10
203.70539358709641
 20
222.42224317071609
 30
0.0
 11
203.70539358709641
 21
221.88604909954239
 31
0.0
  0
LINE
  5
2172
  8
0
 10
189.03872451637571
 20
222.42224317071609
 30
0.0
 11
189.03872451637571
 21
221.88604909954239
 31
0.0
  0
LINE
  5
2175
  8
0
 10
191.1339656159717
 20
221.88604909954239
 30
0.0
 11
189.03872451637571
 21
221.88604909954239
 31
0.0
  0
LINE
  5
2176
  8
0
 10
209.4672963664371
 20
221.88604909954239
 30
0.0
 11
207.3720589921314
 21
221.88604909954239
 31
0.0
  0
LINE
  5
2177
  8
0
 10
205.80063096140211
 20
222.42224317071609
 30
0.0
 11
205.80063096140211
 21
221.88604909954239
 31
0.0
  0
LINE
  5
2179
  8
0
 10
202.13396555636709
 20
222.42224317071609
 30
0.0
 11
202.13396555636709
 21
221.88604909954239
 31
0.0
  0
LINE
  5
217B
  8
0
 10
196.37205905173599
 20
222.42224317071609
 30
0.0
 11
196.37205905173599
 21
221.88604909954239
 31
0.0
  0
LINE
  5
217D
  8
0
 10
213.13396363411729
 20
221.88604909954239
 30
0.0
 11
211.0387262598116
 21
221.88604909954239
 31
0.0
  0
LINE
  5
217E
  8
0
 10
191.1339656159717
 20
163.86202078340219
 30
0.0
 11
189.03872451637571
 21
163.86202078340219
 31
0.0
  0
LINE
  5
217F
  8
0
 10
213.13396363411729
 20
163.86202078340219
 30
0.0
 11
211.0387262598116
 21
163.86202078340219
 31
0.0
  0
LINE
  5
2180
  8
0
 10
211.0387262598116
 20
222.42224317071609
 30
0.0
 11
213.13396363411729
 21
222.42224317071609
 31
0.0
  0
LINE
  5
2181
  8
0
 10
196.37205905173599
 20
222.42224317071609
 30
0.0
 11
198.4672964260418
 21
222.42224317071609
 31
0.0
  0
LINE
  5
2182
  8
0
 10
189.03872451637571
 20
222.42224317071609
 30
0.0
 11
191.1339656159717
 21
222.42224317071609
 31
0.0
  0
LINE
  5
2183
  8
0
 10
207.3720589921314
 20
222.42224317071609
 30
0.0
 11
209.4672963664371
 21
222.42224317071609
 31
0.0
  0
LINE
  5
2184
  8
0
 10
202.13396555636709
 20
163.86202078340219
 30
0.0
 11
200.03872445677109
 21
163.86202078340219
 31
0.0
  0
LINE
  5
2185
  8
0
 10
198.4672964260418
 20
163.86202078340219
 30
0.0
 11
196.37205905173599
 21
163.86202078340219
 31
0.0
  0
LINE
  5
2186
  8
0
 10
205.80063096140211
 20
163.86202078340219
 30
0.0
 11
203.70539358709641
 21
163.86202078340219
 31
0.0
  0
LINE
  5
2187
  8
0
 10
187.46729648564639
 20
163.86202078340219
 30
0.0
 11
185.37205911134069
 21
163.86202078340219
 31
0.0
  0
LINE
  5
2188
  8
0
 10
209.4672963664371
 20
163.86202078340219
 30
0.0
 11
207.3720589921314
 21
163.86202078340219
 31
0.0
  0
LINE
  5
2189
  8
0
 10
194.80063102100669
 20
163.86202078340219
 30
0.0
 11
192.705393646701
 21
163.86202078340219
 31
0.0
  0
LINE
  5
218A
  8
0
 10
185.37205911134069
 20
222.42224317071609
 30
0.0
 11
187.46729648564639
 21
222.42224317071609
 31
0.0
  0
LINE
  5
218B
  8
0
 10
203.70539358709641
 20
222.42224317071609
 30
0.0
 11
205.80063096140211
 21
222.42224317071609
 31
0.0
  0
LINE
  5
218C
  8
0
 10
200.03872445677109
 20
222.42224317071609
 30
0.0
 11
202.13396555636709
 21
222.42224317071609
 31
0.0
  0
LINE
  5
218D
  8
0
 10
192.705393646701
 20
222.42224317071609
 30
0.0
 11
194.80063102100669
 21
222.42224317071609
 31
0.0
  0
LINE
  5
218F
  8
0
 10
226.33634495441501
 20
217.9811327534693
 30
0.0
 11
226.33634495441501
 21
206.30313184139899
 31
0.0
  0
POLYLINE
  5
2190
  8
0
 66
     1
 10
0.0
 20
0.0
 30
0.0
 70
   128
  0
VERTEX
  5
4BF7
  8
0
 10
229.19126308415721
 20
215.64213287112881
 30
0.0
  0
VERTEX
  5
4BF8
  8
0
 10
229.29771232311319
 20
214.77106686709101
 30
0.0
  0
VERTEX
  5
4BF9
  8
0
 10
229.3363449804921
 20
213.89213118729759
 30
0.0
  0
SEQEND
  5
4BFA
  8
0
  0
POLYLINE
  5
2191
  8
0
 66
     1
 10
0.0
 20
0.0
 30
0.0
 70
   128
  0
VERTEX
  5
4BFB
  8
0
 10
229.3363449804921
 20
213.89213118729759
 30
0.0
  0
VERTEX
  5
4BFC
  8
0
 10
229.298050858869
 20
213.01713127670459
 30
0.0
  0
VERTEX
  5
4BFD
  8
0
 10
229.19126308415721
 20
212.1421313661115
 30
0.0
  0
SEQEND
  5
4BFE
  8
0
  0
LINE
  5
2192
  8
0
 10
226.48142638508861
 20
212.1421313661115
 30
0.0
 11
229.19126308415721
 21
212.1421313661115
 31
0.0
  0
POLYLINE
  5
2193
  8
0
 66
     1
 10
0.0
 20
0.0
 30
0.0
 70
   128
  0
VERTEX
  5
4BFF
  8
0
 10
226.48142638508861
 20
212.1421313661115
 30
0.0
  0
VERTEX
  5
4C00
  8
0
 10
226.37497714613269
 20
213.01319737014941
 30
0.0
  0
VERTEX
  5
4C01
  8
0
 10
226.33634495441501
 20
213.89213118729759
 30
0.0
  0
SEQEND
  5
4C02
  8
0
  0
POLYLINE
  5
2194
  8
0
 66
     1
 10
0.0
 20
0.0
 30
0.0
 70
   128
  0
VERTEX
  5
4C03
  8
0
 10
226.33634495441501
 20
213.89213118729759
 30
0.0
  0
VERTEX
  5
4C04
  8
0
 10
226.37463907603811
 20
214.7671310978906
 30
0.0
  0
VERTEX
  5
4C05
  8
0
 10
226.48142638508861
 20
215.64213287112881
 30
0.0
  0
SEQEND
  5
4C06
  8
0
  0
POLYLINE
  5
2196
  8
0
 66
     1
 10
0.0
 20
0.0
 30
0.0
 70
   128
  0
VERTEX
  5
4C07
  8
0
 10
229.19126308415721
 20
212.1421313661115
 30
0.0
  0
VERTEX
  5
4C08
  8
0
 10
229.29771232311319
 20
211.2710653620737
 30
0.0
  0
VERTEX
  5
4C09
  8
0
 10
229.3363449804921
 20
210.39213154492549
 30
0.0
  0
SEQEND
  5
4C0A
  8
0
  0
POLYLINE
  5
2197
  8
0
 66
     1
 10
0.0
 20
0.0
 30
0.0
 70
   128
  0
VERTEX
  5
4C0B
  8
0
 10
229.3363449804921
 20
210.39213154492549
 30
0.0
  0
VERTEX
  5
4C0C
  8
0
 10
229.298050858869
 20
209.5171316343324
 30
0.0
  0
VERTEX
  5
4C0D
  8
0
 10
229.19126308415721
 20
208.6421317237394
 30
0.0
  0
SEQEND
  5
4C0E
  8
0
  0
POLYLINE
  5
2199
  8
0
 66
     1
 10
0.0
 20
0.0
 30
0.0
 70
   128
  0
VERTEX
  5
4C0F
  8
0
 10
226.48142638508861
 20
208.6421317237394
 30
0.0
  0
VERTEX
  5
4C10
  8
0
 10
226.37497714613269
 20
209.51319772777731
 30
0.0
  0
VERTEX
  5
4C11
  8
0
 10
226.33634495441501
 20
210.39213154492549
 30
0.0
  0
SEQEND
  5
4C12
  8
0
  0
POLYLINE
  5
219A
  8
0
 66
     1
 10
0.0
 20
0.0
 30
0.0
 70
   128
  0
VERTEX
  5
4C13
  8
0
 10
226.33634495441501
 20
210.39213154492549
 30
0.0
  0
VERTEX
  5
4C14
  8
0
 10
226.37463907603811
 20
211.26713145551849
 30
0.0
  0
VERTEX
  5
4C15
  8
0
 10
226.48142638508861
 20
212.1421313661115
 30
0.0
  0
SEQEND
  5
4C16
  8
0
  0
LINE
  5
219E
  8
0
 10
229.33634498049199
 20
215.64213287112881
 30
0.0
 11
226.33634495441501
 21
215.64213287112881
 31
0.0
  0
LINE
  5
219F
  8
0
 10
226.33634495441501
 20
208.6421317237394
 30
0.0
 11
229.33634498049199
 21
208.6421317237394
 31
0.0
  0
LINE
  5
21A1
  8
0
 10
229.3363449804921
 20
215.64213287112881
 30
0.0
 11
229.3363449804921
 21
208.6421317237394
 31
0.0
  0
LINE
  5
21A3
  8
0
 10
250.73634448353829
 20
215.1421318578499
 30
0.0
 11
250.73634448353849
 21
209.1421327370185
 31
0.0
  0
LINE
  5
21A5
  8
0
 10
251.3363443956215
 20
214.5421328770893
 30
0.0
 11
251.33634439562141
 21
209.7421317177789
 31
0.0
  0
LINE
  5
21A6
  8
0
 10
233.84584474269951
 20
184.1421323644893
 30
0.0
 11
229.82684464086481
 21
184.1421323644893
 31
0.0
  0
LINE
  5
21A8
  8
0
 10
185.37205911134069
 20
222.6421321558731
 30
0.0
 11
185.37205911134069
 21
222.60170344290901
 31
0.0
  0
LINE
  5
21AA
  8
0
 10
184.58634323333089
 20
221.06879863915611
 30
0.0
 11
184.58634323333089
 21
165.21546531496199
 31
0.0
  0
LINE
  5
21AB
  8
0
 10
187.46729648564639
 20
222.60170344290901
 30
0.0
 11
185.37205911134069
 21
222.60170344290901
 31
0.0
  0
LINE
  5
21AE
  8
0
 10
194.80063102100669
 20
222.60170344290901
 30
0.0
 11
192.705393646701
 21
222.60170344290901
 31
0.0
  0
LINE
  5
21B0
  8
0
 10
185.37205911134069
 20
163.6825605112092
 30
0.0
 11
187.46729648564639
 21
163.6825605112092
 31
0.0
  0
LINE
  5
21B4
  8
0
 10
198.4672964260418
 20
222.60170344290901
 30
0.0
 11
196.37205905173599
 21
222.60170344290901
 31
0.0
  0
LINE
  5
21B6
  8
0
 10
192.705393646701
 20
163.6825605112092
 30
0.0
 11
194.80063102100669
 21
163.6825605112092
 31
0.0
  0
LINE
  5
21B9
  8
0
 10
189.03872451637571
 20
222.6421321558731
 30
0.0
 11
189.03872451637571
 21
222.60170344290901
 31
0.0
  0
LINE
  5
21BB
  8
0
 10
188.25301236365621
 20
221.06879863915611
 30
0.0
 11
188.25301236365621
 21
165.2154653149623
 31
0.0
  0
LINE
  5
21BD
  8
0
 10
205.80063096140211
 20
163.6825605112092
 30
0.0
 11
205.80063096140211
 21
163.6421317982452
 31
0.0
  0
LINE
  5
21BF
  8
0
 10
192.705393646701
 20
222.6421321558731
 30
0.0
 11
192.705393646701
 21
222.60170344290901
 31
0.0
  0
LINE
  5
21C0
  8
0
 10
191.9196777686912
 20
221.06879863915611
 30
0.0
 11
191.9196777686912
 21
165.21546531496199
 31
0.0
  0
LINE
  5
21C2
  8
0
 10
209.4672963664371
 20
163.6825605112092
 30
0.0
 11
209.4672963664371
 21
163.6421317982452
 31
0.0
  0
LINE
  5
21C5
  8
0
 10
191.1339656159717
 20
222.6421321558731
 30
0.0
 11
191.1339656159717
 21
222.60170344290901
 31
0.0
  0
LINE
  5
21C6
  8
0
 10
196.37205905173599
 20
222.6421321558731
 30
0.0
 11
196.37205905173599
 21
222.60170344290901
 31
0.0
  0
LINE
  5
21C7
  8
0
 10
195.58634317372619
 20
221.06879863915611
 30
0.0
 11
195.58634317372619
 21
165.21546531496199
 31
0.0
  0
LINE
  5
21C8
  8
0
 10
202.91967770908661
 20
221.06879863915611
 30
0.0
 11
202.91967770908661
 21
165.21546531496199
 31
0.0
  0
LINE
  5
21CA
  8
0
 10
202.13396555636709
 20
222.6421321558731
 30
0.0
 11
202.13396555636709
 21
222.60170344290901
 31
0.0
  0
LINE
  5
21CB
  8
0
 10
203.70539358709641
 20
163.6825605112092
 30
0.0
 11
203.70539358709641
 21
163.6421317982452
 31
0.0
  0
LINE
  5
21CF
  8
0
 10
213.13396363411729
 20
222.60170344290901
 30
0.0
 11
211.0387262598116
 21
222.60170344290901
 31
0.0
  0
LINE
  5
21D1
  8
0
 10
207.3720589921314
 20
163.6825605112092
 30
0.0
 11
209.4672963664371
 21
163.6825605112092
 31
0.0
  0
LINE
  5
21D3
  8
0
 10
202.13396555636709
 20
163.6825605112092
 30
0.0
 11
202.13396555636709
 21
163.6421317982452
 31
0.0
  0
LINE
  5
21D5
  8
0
 10
207.3720589921314
 20
163.6825605112092
 30
0.0
 11
207.3720589921314
 21
163.6421317982452
 31
0.0
  0
LINE
  5
21D6
  8
0
 10
187.46729648564639
 20
222.6421321558731
 30
0.0
 11
187.46729648564639
 21
222.60170344290901
 31
0.0
  0
LINE
  5
21D7
  8
0
 10
213.13396363411729
 20
222.6421321558731
 30
0.0
 11
213.13396363411729
 21
222.60170344290901
 31
0.0
  0
LINE
  5
21D9
  8
0
 10
205.80063096140211
 20
222.60170344290901
 30
0.0
 11
203.70539358709641
 21
222.60170344290901
 31
0.0
  0
LINE
  5
21DC
  8
0
 10
202.13396555636709
 20
222.60170344290901
 30
0.0
 11
200.03872445677109
 21
222.60170344290901
 31
0.0
  0
LINE
  5
21DD
  8
0
 10
194.80063102100669
 20
222.6421321558731
 30
0.0
 11
194.80063102100669
 21
222.60170344290901
 31
0.0
  0
LINE
  5
21DE
  8
0
 10
191.1339656159717
 20
222.60170344290901
 30
0.0
 11
189.03872451637571
 21
222.60170344290901
 31
0.0
  0
LINE
  5
21E0
  8
0
 10
187.46729648564639
 20
163.6825605112092
 30
0.0
 11
187.46729648564639
 21
163.6421317982452
 31
0.0
  0
LINE
  5
21E1
  8
0
 10
200.03872445677109
 20
163.6825605112092
 30
0.0
 11
200.03872445677109
 21
163.6421317982452
 31
0.0
  0
LINE
  5
21E5
  8
0
 10
194.80063102100669
 20
163.6825605112092
 30
0.0
 11
194.80063102100669
 21
163.6421317982452
 31
0.0
  0
LINE
  5
21E6
  8
0
 10
210.25301224444689
 20
221.06879863915611
 30
0.0
 11
210.25301224444689
 21
165.2154653149623
 31
0.0
  0
LINE
  5
21E8
  8
0
 10
209.4672963664371
 20
222.6421321558731
 30
0.0
 11
209.4672963664371
 21
222.60170344290901
 31
0.0
  0
LINE
  5
21E9
  8
0
 10
203.70539358709641
 20
163.6825605112092
 30
0.0
 11
205.80063096140211
 21
163.6825605112092
 31
0.0
  0
LINE
  5
21EA
  8
0
 10
211.0387262598116
 20
163.6825605112092
 30
0.0
 11
213.13396363411729
 21
163.6825605112092
 31
0.0
  0
LINE
  5
21ED
  8
0
 10
189.03872451637571
 20
163.6825605112092
 30
0.0
 11
189.03872451637571
 21
163.6421317982452
 31
0.0
  0
LINE
  5
21F0
  8
0
 10
209.4672963664371
 20
222.60170344290901
 30
0.0
 11
207.3720589921314
 21
222.60170344290901
 31
0.0
  0
LINE
  5
21F1
  8
0
 10
198.4672964260418
 20
163.6825605112092
 30
0.0
 11
198.4672964260418
 21
163.6421317982452
 31
0.0
  0
LINE
  5
21F3
  8
0
 10
192.705393646701
 20
163.6825605112092
 30
0.0
 11
192.705393646701
 21
163.6421317982452
 31
0.0
  0
LINE
  5
21F5
  8
0
 10
189.03872451637571
 20
163.6825605112092
 30
0.0
 11
191.1339656159717
 21
163.6825605112092
 31
0.0
  0
LINE
  5
21F7
  8
0
 10
213.13396363411729
 20
163.6825605112092
 30
0.0
 11
213.13396363411729
 21
163.6421317982452
 31
0.0
  0
LINE
  5
21F8
  8
0
 10
196.37205905173599
 20
163.6825605112092
 30
0.0
 11
198.4672964260418
 21
163.6825605112092
 31
0.0
  0
LINE
  5
21FA
  8
0
 10
200.03872445677109
 20
163.6825605112092
 30
0.0
 11
202.13396555636709
 21
163.6825605112092
 31
0.0
  0
LINE
  5
21FB
  8
0
 10
200.03872445677109
 20
222.6421321558731
 30
0.0
 11
200.03872445677109
 21
222.60170344290901
 31
0.0
  0
LINE
  5
21FC
  8
0
 10
199.25301230405159
 20
221.06879863915611
 30
0.0
 11
199.25301230405159
 21
165.2154653149623
 31
0.0
  0
LINE
  5
21FD
  8
0
 10
196.37205905173599
 20
163.6825605112092
 30
0.0
 11
196.37205905173599
 21
163.6421317982452
 31
0.0
  0
LINE
  5
21FE
  8
0
 10
191.1339656159717
 20
163.6825605112092
 30
0.0
 11
191.1339656159717
 21
163.6421317982452
 31
0.0
  0
LINE
  5
21FF
  8
0
 10
206.58634497676681
 20
221.06879863915611
 30
0.0
 11
206.58634497676681
 21
165.21546531496219
 31
0.0
  0
LINE
  5
2200
  8
0
 10
205.80063096140211
 20
222.6421321558731
 30
0.0
 11
205.80063096140211
 21
222.60170344290901
 31
0.0
  0
LINE
  5
2201
  8
0
 10
211.0387262598116
 20
222.6421321558731
 30
0.0
 11
211.0387262598116
 21
222.60170344290901
 31
0.0
  0
LINE
  5
2202
  8
0
 10
207.3720589921314
 20
222.6421321558731
 30
0.0
 11
207.3720589921314
 21
222.60170344290901
 31
0.0
  0
LINE
  5
2203
  8
0
 10
185.37205911134069
 20
163.6825605112092
 30
0.0
 11
185.37205911134069
 21
163.6421317982452
 31
0.0
  0
LINE
  5
2205
  8
0
 10
211.0387262598116
 20
163.6825605112092
 30
0.0
 11
211.0387262598116
 21
163.6421317982452
 31
0.0
  0
LINE
  5
2206
  8
0
 10
203.70539358709641
 20
222.6421321558731
 30
0.0
 11
203.70539358709641
 21
222.60170344290901
 31
0.0
  0
LINE
  5
2207
  8
0
 10
198.4672964260418
 20
222.6421321558731
 30
0.0
 11
198.4672964260418
 21
222.60170344290901
 31
0.0
  0
LINE
  5
2208
  8
0
 10
222.88167836968489
 20
217.9811327534693
 30
0.0
 11
222.88167836968489
 21
168.30313120064901
 31
0.0
  0
LINE
  5
22D3
  8
2
 10
236.42634480502161
 20
197.14213216704891
 30
0.0
 11
236.42634480502161
 21
189.1421317870695
 31
0.0
  0
LINE
  5
22D5
  8
2
 10
216.7463441089231
 20
197.14213216704891
 30
0.0
 11
216.7463441089233
 21
189.1421317870693
 31
0.0
  0
LINE
  5
22D7
  8
2
 10
216.33634424660991
 20
202.142131589629
 30
0.0
 11
216.33634424660991
 21
184.1421323644893
 31
0.0
  0
LINE
  5
22DB
  8
2
 10
234.33634486873339
 20
188.6516321266966
 30
0.0
 11
229.3363449804921
 21
188.6516321266966
 31
0.0
  0
LINE
  5
22DD
  8
2
 10
234.33634486873339
 20
184.632632024862
 30
0.0
 11
229.3363449804921
 21
184.632632024862
 31
0.0
  0
LINE
  5
22F2
  8
2
 10
231.83634492461269
 20
186.1421317609923
 30
0.0
 11
231.83634492461269
 21
184.1421323644893
 31
0.0
  0
LINE
  5
22F4
  8
2
 10
233.08634489667301
 20
186.1421317609923
 30
0.0
 11
230.58634471972169
 21
186.1421317609923
 31
0.0
  0
LINE
  5
22F5
  8
2
 10
230.58634471972169
 20
186.1421317609923
 30
0.0
 11
230.58634471972169
 21
184.1421323644893
 31
0.0
  0
LINE
  5
22F6
  8
2
 10
233.08634489667301
 20
186.1421317609923
 30
0.0
 11
233.08634489667301
 21
184.1421323644893
 31
0.0
  0
LINE
  5
23DA
  8
2
 10
236.83634481285401
 20
197.55213202936221
 30
0.0
 11
236.42634480502161
 21
197.14213216704891
 31
0.0
  0
LINE
  5
23DB
  8
2
 10
236.42634480502161
 20
189.1421317870693
 30
0.0
 11
236.83634481285401
 21
188.732131924756
 31
0.0
  0
LINE
  5
23DC
  8
2
 10
216.33634424660991
 20
188.732131924756
 30
0.0
 11
216.7463441089231
 21
189.1421317870693
 31
0.0
  0
LINE
  5
23DD
  8
2
 10
216.7463441089231
 20
197.14213216704891
 30
0.0
 11
216.33634424660991
 21
197.55213202936221
 31
0.0
  0
LINE
  5
23DE
  8
2
 10
236.42634480502161
 20
197.14213216704891
 30
0.0
 11
216.7463441089231
 21
197.14213216704891
 31
0.0
  0
LINE
  5
23E0
  8
2
 10
216.7463441089231
 20
189.1421317870693
 30
0.0
 11
236.4263448050217
 21
189.1421317870693
 31
0.0
  0
LINE
  5
23E1
  8
2
 10
234.33634486873231
 20
184.632632024862
 30
0.0
 11
234.33634486873351
 21
189.1421317870693
 31
0.0
  0
LINE
  5
23E2
  8
2
 10
229.3363449804921
 20
189.1421317870693
 30
0.0
 11
229.3363449804921
 21
184.632632024862
 31
0.0
  0
LINE
  5
23E3
  8
2
 10
229.3363449804921
 20
184.632632024862
 30
0.0
 11
229.72652676407881
 21
184.24244977561401
 31
0.0
  0
LINE
  5
23E4
  8
2
 10
233.94565784264989
 20
184.24194499877859
 30
0.0
 11
234.33634486873339
 21
184.632632024862
 31
0.0
  0
LINE
  5
23E7
  8
2
 10
234.33634486873339
 20
188.6516321266966
 30
0.0
 11
233.84584474269931
 21
189.1421317870693
 31
0.0
  0
LINE
  5
23E8
  8
2
 10
229.82684464086481
 20
189.1421317870693
 30
0.0
 11
229.3363449804921
 21
188.6516321266966
 31
0.0
  0
LINE
  5
23EC
  8
0
 10
130.2630117729741
 20
78.438798032976877
 30
0.0
 11
128.96634439085301
 21
77.14213251350094
 31
0.0
  0
LINE
  5
23ED
  8
0
 10
75.706345830901384
 20
77.14213251350094
 30
0.0
 11
74.409678448780312
 21
78.438798032976877
 31
0.0
  0
LINE
  5
23EE
  8
0
 10
74.409678448780312
 20
78.438798032976877
 30
0.0
 11
74.409678448780312
 21
81.558799438454386
 31
0.0
  0
LINE
  5
23EF
  8
0
 10
130.2630117729741
 20
81.558799438454386
 30
0.0
 11
130.2630117729741
 21
78.438798032976877
 31
0.0
  0
LINE
  5
23F4
  8
0
 10
77.497344334467186
 20
72.596798718251478
 30
0.0
 11
77.497344334467186
 21
77.14213251350094
 31
0.0
  0
LINE
  5
23F5
  8
0
 10
127.17534588728719
 20
77.14213251350094
 30
0.0
 11
127.17534588728719
 21
72.596798718251478
 31
0.0
  0
ARC
  5
23F6
  8
0
 10
79.464011777543476
 20
72.596798941748645
 30
0.0
 40
1.966666666666256
 50
179.99999999997391
 51
270.00000000001302
  0
ARC
  5
23F7
  8
0
 10
125.208678444211
 20
72.596798941748645
 30
0.0
 40
1.966666666666256
 50
269.99999999998698
 51
0.0000000000260551
  0
LINE
  5
23F8
  8
0
 10
91.536344830735445
 20
69.335131973304044
 30
0.0
 11
91.536344830735445
 21
70.630132288016569
 31
0.0
  0
LINE
  5
23F9
  8
0
 10
113.13634539101911
 20
70.630132288016569
 30
0.0
 11
113.13634539101911
 21
69.335131973304044
 31
0.0
  0
LINE
  5
23FA
  8
0
 10
93.33634549830748
 20
59.742132269121903
 30
0.0
 11
93.33634549830748
 21
69.335131973304044
 31
0.0
  0
LINE
  5
23FB
  8
0
 10
111.3363447234471
 20
69.335131973304044
 30
0.0
 11
111.3363447234471
 21
59.742132269121903
 31
0.0
  0
LINE
  5
23FC
  8
0
 10
111.3363447234471
 20
59.742132269121903
 30
0.0
 11
110.23634472940751
 21
58.642132275082361
 31
0.0
  0
LINE
  5
23FD
  8
0
 10
94.436345492347016
 20
58.642132275082361
 30
0.0
 11
93.33634549830748
 21
59.742132269121903
 31
0.0
  0
LINE
  5
242E
  8
0
 10
99.336345084800243
 20
44.742132604398023
 30
0.0
 11
99.336345084800243
 21
58.642132275082361
 31
0.0
  0
LINE
  5
242F
  8
0
 10
105.33634513695429
 20
58.642132275082361
 30
0.0
 11
105.33634513695429
 21
44.742132604398023
 31
0.0
  0
LINE
  5
2430
  8
0
 10
105.33634513695429
 20
44.742132604398023
 30
0.0
 11
104.7363452248711
 21
44.142132692314867
 31
0.0
  0
LINE
  5
2431
  8
0
 10
99.936344996883406
 20
44.142132692314867
 30
0.0
 11
99.336345084800243
 21
44.742132604398023
 31
0.0
  0
LINE
  5
25DF
  8
0
 10
75.706345830901384
 20
77.14213251350094
 30
0.0
 11
128.96634439085301
 21
77.14213251350094
 31
0.0
  0
LINE
  5
25E0
  8
0
 10
74.409678448780312
 20
78.438798032976877
 30
0.0
 11
130.2630117729741
 21
78.438798032976877
 31
0.0
  0
LINE
  5
2753
  8
0
 10
79.464012627347245
 20
70.630132288016569
 30
0.0
 11
125.20867759440721
 21
70.630132288016569
 31
0.0
  0
LINE
  5
2994
  8
0
 10
91.536344830735445
 20
69.335131973304044
 30
0.0
 11
113.13634539101911
 21
69.335131973304044
 31
0.0
  0
LINE
  5
2995
  8
0
 10
93.33634549830748
 20
59.742132269121903
 30
0.0
 11
111.3363447234471
 21
59.742132269121903
 31
0.0
  0
LINE
  5
2997
  8
0
 10
94.436345492347016
 20
58.642132275082361
 30
0.0
 11
110.23634472940751
 21
58.642132275082361
 31
0.0
  0
LINE
  5
2A95
  8
0
 10
99.336345084800243
 20
44.742132604398023
 30
0.0
 11
105.33634513695429
 21
44.742132604398023
 31
0.0
  0
LINE
  5
2A96
  8
0
 10
99.936344996883406
 20
44.142132692314867
 30
0.0
 11
104.7363452248711
 21
44.142132692314867
 31
0.0
  0
LINE
  5
2A97
  8
0
 10
77.497344334467186
 20
72.596798718251478
 30
0.0
 11
127.17534588728719
 21
72.596798718251478
 31
0.0
  0
LINE
  5
2B5F
  8
2
 10
98.336344920887598
 20
78.732132979013215
 30
0.0
 11
106.33634530086719
 21
78.732132979013215
 31
0.0
  0
LINE
  5
2B60
  8
2
 10
93.33634549830748
 20
79.142132841326458
 30
0.0
 11
111.3363447234472
 21
79.142132841326543
 31
0.0
  0
LINE
  5
2B61
  8
2
 10
98.336344920887598
 20
59.052132282914783
 30
0.0
 11
106.33634530086719
 21
59.052132282914783
 31
0.0
  0
LINE
  5
2C92
  8
2
 10
106.74634516318049
 20
79.142132841326486
 30
0.0
 11
106.33634530086719
 21
78.732132979013215
 31
0.0
  0
LINE
  5
2C93
  8
2
 10
98.336344920887598
 20
78.732132979013215
 30
0.0
 11
97.926345058574327
 21
79.142132841326486
 31
0.0
  0
LINE
  5
2C94
  8
2
 10
97.926345058574327
 20
58.642132275082361
 30
0.0
 11
98.336344920887598
 21
59.052132282914783
 31
0.0
  0
LINE
  5
2C95
  8
2
 10
106.33634530086719
 20
59.052132282914783
 30
0.0
 11
106.74634516318049
 21
58.642132275082361
 31
0.0
  0
LINE
  5
2C96
  8
2
 10
98.336344920887598
 20
59.052132282914783
 30
0.0
 11
98.336344920887598
 21
78.732132979013215
 31
0.0
  0
LINE
  5
2C97
  8
2
 10
106.33634530086719
 20
78.732132979013215
 30
0.0
 11
106.33634530086719
 21
59.052132282914783
 31
0.0
  0
CIRCLE
  5
2CA3
  8
0
 10
102.3363451108772
 20
193.14213197705919
 30
0.0
 40
27.730000000000022
  0
ARC
  5
2CA6
  8
0
 10
102.3363451108772
 20
193.14213197705919
 30
0.0
 40
29.500000000000028
 50
347.00000000000142
 51
353.00000000000023
  0
LINE
  5
2CA7
  8
0
 10
131.08026223336049
 20
186.50607585934571
 30
0.0
 11
129.4334697172481
 21
186.38606004444529
 31
0.0
  0
LINE
  5
2CA9
  8
0
 10
130.1100271389324
 20
190.2230003199505
 30
0.0
 11
131.6164563045341
 21
189.5469863249885
 31
0.0
  0
ARC
  5
2CAA
  8
0
 10
102.3363451108772
 20
193.14213197705919
 30
0.0
 40
29.499999999999989
 50
357.00000000000091
 51
2.9999999999990772
  0
LINE
  5
2CAC
  8
0
 10
131.79591657672711
 20
191.5982212687808
 30
0.0
 11
130.194984246834
 21
191.19406615411509
 31
0.0
  0
LINE
  5
2CAD
  8
0
 10
130.194984246834
 20
195.09019780000321
 30
0.0
 11
131.79591657672711
 21
194.68604268533761
 31
0.0
  0
ARC
  5
2CAE
  8
0
 10
102.3363451108772
 20
193.14213197705919
 30
0.0
 40
29.500000000000028
 50
6.9999999999998321
 51
13.00000000000148
  0
LINE
  5
2CB0
  8
0
 10
129.4334697172481
 20
199.89820390967299
 30
0.0
 11
131.08026223336049
 21
199.77818809477259
 31
0.0
  0
LINE
  5
2CB1
  8
0
 10
131.6164563045341
 20
196.73727762912981
 30
0.0
 11
130.1100271389324
 21
196.0612636341678
 31
0.0
  0
ARC
  5
2CB2
  8
0
 10
102.3363451108772
 20
193.14213197705919
 30
0.0
 40
29.500000000000028
 50
337.00000000000063
 51
343.00000000000188
  0
LINE
  5
2CB3
  8
0
 10
129.49123779390641
 20
181.6155641156214
 30
0.0
 11
127.8486250535089
 21
181.7833334955352
 31
0.0
  0
LINE
  5
2CB5
  8
0
 10
129.18118001972019
 20
185.44449944076709
 30
0.0
 11
130.54733524177851
 21
184.51716665206129
 31
0.0
  0
ARC
  5
2CB6
  8
0
 10
102.3363451108772
 20
193.14213197705919
 30
0.0
 40
29.500000000000039
 50
16.999999999999329
 51
23.000000000000739
  0
LINE
  5
2CB8
  8
0
 10
127.8486250535089
 20
204.50093045858321
 30
0.0
 11
129.49123779390641
 21
204.66869983849699
 31
0.0
  0
LINE
  5
2CB9
  8
0
 10
130.54733524177851
 20
201.7670973020571
 30
0.0
 11
129.18118001972019
 21
200.8397645133513
 31
0.0
  0
ARC
  5
2CFD
  8
0
 10
102.3363451108772
 20
193.14213197705919
 30
0.0
 40
29.499999999999972
 50
327.00000000000023
 51
333.0000000000004
  0
LINE
  5
2CFE
  8
0
 10
127.0771267459232
 20
177.0752808826941
 30
0.0
 11
125.4886014953691
 21
177.52573832897119
 31
0.0
  0
LINE
  5
2CFF
  8
0
 10
127.4366675511438
 20
180.89988742051301
 30
0.0
 11
128.62103791986291
 21
179.74941253689701
 31
0.0
  0
ARC
  5
2D00
  8
0
 10
102.3363451108772
 20
193.14213197705919
 30
0.0
 40
29.499999999999972
 50
27.000000000000469
 51
32.999999999999751
  0
LINE
  5
2D01
  8
0
 10
125.4886014953691
 20
208.7585256251472
 30
0.0
 11
127.0771267459232
 21
209.20898307142431
 31
0.0
  0
LINE
  5
2D02
  8
0
 10
128.62103791986291
 20
206.5348514172214
 30
0.0
 11
127.4366675511438
 21
205.3843765336054
 31
0.0
  0
ARC
  5
2D03
  8
0
 10
102.3363451108772
 20
193.14213197705919
 30
0.0
 40
29.5
 50
317.00000000000102
 51
323.0000000000004
  0
LINE
  5
2D04
  8
0
 10
123.91128005538771
 20
173.02318017957381
 30
0.0
 11
122.42510715578381
 21
173.74263990698029
 31
0.0
  0
LINE
  5
2D05
  8
0
 10
124.9294931635696
 20
176.7272493618506
 30
0.0
 11
125.8960923746664
 21
175.3885886448401
 31
0.0
  0
ARC
  5
2D06
  8
0
 10
102.3363451108772
 20
193.14213197705919
 30
0.0
 40
29.500000000000011
 50
37.000000000000362
 51
43.000000000002991
  0
LINE
  5
2D07
  8
0
 10
122.42510715578381
 20
212.5416240471381
 30
0.0
 11
123.91128005538771
 21
213.2610837745446
 31
0.0
  0
LINE
  5
2D08
  8
0
 10
125.8960923746664
 20
210.89567530927829
 30
0.0
 11
124.9294931635696
 21
209.55701459226779
 31
0.0
  0
ARC
  5
2D09
  8
0
 10
102.3363451108772
 20
193.14213197705919
 30
0.0
 40
29.500000000000011
 50
306.99999999999858
 51
313.0
  0
LINE
  5
2D0A
  8
0
 10
120.0898884430963
 20
169.58238471326999
 30
0.0
 11
118.7512277260858
 21
170.54898392436681
 31
0.0
  0
LINE
  5
2D0B
  8
0
 10
121.7358371809561
 20
173.05336993215261
 30
0.0
 11
122.4552969083626
 21
171.56719703254871
 31
0.0
  0
ARC
  5
2D0C
  8
0
 10
102.3363451108772
 20
193.14213197705919
 30
0.0
 40
29.500000000000028
 50
46.999999999999943
 51
53.000000000001073
  0
LINE
  5
2D0D
  8
0
 10
122.4552969083626
 20
214.71706692156971
 30
0.0
 11
121.7358371809561
 21
213.23089402196581
 31
0.0
  0
LINE
  5
2D0E
  8
0
 10
118.7512277260858
 20
215.73528002975161
 30
0.0
 11
120.0898884430963
 21
216.7018792408484
 31
0.0
  0
ARC
  5
2D0F
  8
0
 10
102.3363451108772
 20
193.14213197705919
 30
0.0
 40
29.5
 50
57.000000000002053
 51
63.00000000000189
  0
LINE
  5
2D10
  8
0
 10
114.5785896674234
 20
218.2424544173258
 30
0.0
 11
115.7290645510394
 21
219.4268247860449
 31
0.0
  0
LINE
  5
2D11
  8
0
 10
118.4031962052423
 20
217.8829136121052
 30
0.0
 11
117.9527387589652
 21
216.29438836155111
 31
0.0
  0
ARC
  5
2D12
  8
0
 10
102.3363451108772
 20
193.14213197705919
 30
0.0
 40
29.5
 50
297.00000000000182
 51
302.99999999999778
  0
LINE
  5
2D13
  8
0
 10
115.7290645510394
 20
166.85743916807351
 30
0.0
 11
114.5785896674234
 21
168.04180953679261
 31
0.0
  0
LINE
  5
2D14
  8
0
 10
117.9527387589652
 20
169.9898755925673
 30
0.0
 11
118.4031962052423
 21
168.40135034201319
 31
0.0
  0
ARC
  5
2D15
  8
0
 10
102.3363451108772
 20
193.14213197705919
 30
0.0
 40
29.500000000000039
 50
66.999999999999716
 51
72.999999999998096
  0
LINE
  5
2D16
  8
0
 10
113.862912972315
 20
220.2970246600884
 30
0.0
 11
113.69514359240119
 21
218.65441191969089
 31
0.0
  0
LINE
  5
2D17
  8
0
 10
110.03397764716929
 20
219.98696688590221
 30
0.0
 11
110.96131043587511
 21
221.3531221079605
 31
0.0
  0
ARC
  5
2D18
  8
0
 10
102.3363451108772
 20
193.14213197705919
 30
0.0
 40
29.500000000000028
 50
287.00000000000188
 51
293.00000000000028
  0
LINE
  5
2D19
  8
0
 10
110.96131043587511
 20
164.9311418461578
 30
0.0
 11
110.03397764716929
 21
166.2972970682161
 31
0.0
  0
LINE
  5
2D1A
  8
0
 10
113.69514359240119
 20
167.6298520344275
 30
0.0
 11
113.862912972315
 21
165.98723929402999
 31
0.0
  0
ARC
  5
2D1B
  8
0
 10
102.3363451108772
 20
193.14213197705919
 30
0.0
 40
29.500000000000028
 50
76.999999999999375
 51
83.000000000000597
  0
LINE
  5
2D1C
  8
0
 10
105.2554767679859
 20
220.91581400511441
 30
0.0
 11
105.9314907629478
 21
222.42224317071609
 31
0.0
  0
LINE
  5
2D1D
  8
0
 10
108.9724012285907
 20
221.8860490995425
 30
0.0
 11
109.0924170434911
 21
220.23925658343009
 31
0.0
  0
ARC
  5
2D1E
  8
0
 10
102.3363451108772
 20
193.14213197705919
 30
0.0
 40
29.500000000000021
 50
277.00000000000267
 51
283.00000000000063
  0
LINE
  5
2D1F
  8
0
 10
105.9314907629478
 20
163.8620207834023
 30
0.0
 11
105.2554767679859
 21
165.368449949004
 31
0.0
  0
LINE
  5
2D20
  8
0
 10
109.0924170434911
 20
166.0450073706883
 30
0.0
 11
108.9724012285907
 21
164.39821485457591
 31
0.0
  0
ARC
  5
2D21
  8
0
 10
102.3363451108772
 20
193.14213197705919
 30
0.0
 40
29.500000000000011
 50
87.000000000000924
 51
92.999999999999076
  0
LINE
  5
2D22
  8
0
 10
103.88025581915559
 20
222.6017034429091
 30
0.0
 11
104.28441093382131
 21
221.00077111301599
 31
0.0
  0
LINE
  5
2D23
  8
0
 10
100.3882792879332
 20
221.00077111301599
 30
0.0
 11
100.7924344025988
 21
222.6017034429091
 31
0.0
  0
ARC
  5
2D24
  8
0
 10
102.3363451108772
 20
193.14213197705919
 30
0.0
 40
29.5
 50
267.00000000000091
 51
273.00000000000227
  0
LINE
  5
2D25
  8
0
 10
100.7924344025988
 20
163.68256051120929
 30
0.0
 11
100.3882792879332
 21
165.2834928411024
 31
0.0
  0
LINE
  5
2D26
  8
0
 10
104.28441093382131
 20
165.2834928411024
 30
0.0
 11
103.88025581915559
 21
163.68256051120929
 31
0.0
  0
ARC
  5
2D27
  8
0
 10
102.3363451108772
 20
193.14213197705919
 30
0.0
 40
29.500000000000028
 50
96.999999999999403
 51
103.0000000000006
  0
LINE
  5
2D28
  8
0
 10
98.741199458806591
 20
222.42224317071609
 30
0.0
 11
99.417213453768568
 21
220.91581400511441
 31
0.0
  0
LINE
  5
2D29
  8
0
 10
95.580273178263383
 20
220.23925658343009
 30
0.0
 11
95.700288993163781
 21
221.8860490995425
 31
0.0
  0
ARC
  5
2D2A
  8
0
 10
102.3363451108772
 20
193.14213197705919
 30
0.0
 40
29.500000000000021
 50
256.99999999999937
 51
263.00000000000063
  0
LINE
  5
2D2B
  8
0
 10
95.700288993163781
 20
164.39821485457591
 30
0.0
 11
95.580273178263383
 21
166.0450073706883
 31
0.0
  0
LINE
  5
2D2C
  8
0
 10
99.417213453768568
 20
165.368449949004
 30
0.0
 11
98.741199458806591
 21
163.8620207834023
 31
0.0
  0
ARC
  5
2D2D
  8
0
 10
102.3363451108772
 20
193.14213197705919
 30
0.0
 40
29.500000000000039
 50
107.0000000000019
 51
113.0000000000003
  0
LINE
  5
2D2E
  8
0
 10
93.71137978587933
 20
221.3531221079605
 30
0.0
 11
94.638712574585156
 21
219.98696688590221
 31
0.0
  0
LINE
  5
2D2F
  8
0
 10
90.977546629353242
 20
218.65441191969089
 30
0.0
 11
90.809777249439435
 21
220.2970246600884
 31
0.0
  0
ARC
  5
2D30
  8
0
 10
102.3363451108772
 20
193.14213197705919
 30
0.0
 40
29.500000000000028
 50
247.0000000000033
 51
253.00000000000151
  0
LINE
  5
2D31
  8
0
 10
90.809777249439435
 20
165.98723929402999
 30
0.0
 11
90.977546629353242
 21
167.6298520344275
 31
0.0
  0
LINE
  5
2D32
  8
0
 10
94.638712574585156
 20
166.2972970682161
 30
0.0
 11
93.71137978587933
 21
164.9311418461578
 31
0.0
  0
ARC
  5
2D33
  8
0
 10
102.3363451108772
 20
193.14213197705919
 30
0.0
 40
29.5
 50
116.9999999999981
 51
122.9999999999979
  0
LINE
  5
2D34
  8
0
 10
88.943625670715051
 20
219.4268247860449
 30
0.0
 11
90.094100554331021
 21
218.2424544173258
 31
0.0
  0
LINE
  5
2D35
  8
0
 10
86.719951462789254
 20
216.29438836155111
 30
0.0
 11
86.269494016512112
 21
217.8829136121052
 31
0.0
  0
ARC
  5
2D36
  8
0
 10
102.3363451108772
 20
193.14213197705919
 30
0.0
 40
29.5
 50
237.00000000000199
 51
243.00000000000179
  0
LINE
  5
2D37
  8
0
 10
86.269494016512112
 20
168.40135034201319
 30
0.0
 11
86.719951462789254
 21
169.9898755925673
 31
0.0
  0
LINE
  5
2D38
  8
0
 10
90.094100554331021
 20
168.04180953679261
 30
0.0
 11
88.943625670715051
 21
166.85743916807351
 31
0.0
  0
ARC
  5
2D39
  8
0
 10
102.3363451108772
 20
193.14213197705919
 30
0.0
 40
29.500000000000028
 50
226.99999999999989
 51
233.00000000000111
  0
LINE
  5
2D3A
  8
0
 10
82.217393313391881
 20
171.56719703254871
 30
0.0
 11
82.936853040798383
 21
173.05336993215261
 31
0.0
  0
LINE
  5
2D3B
  8
0
 10
85.921462495668607
 20
170.54898392436681
 30
0.0
 11
84.582801778658109
 21
169.58238471326999
 31
0.0
  0
ARC
  5
2D3C
  8
0
 10
102.3363451108772
 20
193.14213197705919
 30
0.0
 40
29.50000000000005
 50
126.99999999999859
 51
133.0
  0
LINE
  5
2D3D
  8
0
 10
82.936853040798383
 20
213.23089402196581
 30
0.0
 11
82.217393313391881
 21
214.71706692156971
 31
0.0
  0
LINE
  5
2D3E
  8
0
 10
84.582801778658109
 20
216.7018792408484
 30
0.0
 11
85.921462495668607
 21
215.73528002975161
 31
0.0
  0
ARC
  5
2D3F
  8
0
 10
102.3363451108772
 20
193.14213197705919
 30
0.0
 40
29.500000000000039
 50
217.00000000000031
 51
223.00000000000301
  0
LINE
  5
2D40
  8
0
 10
78.776597847088055
 20
175.3885886448401
 30
0.0
 11
79.743197058184819
 21
176.7272493618506
 31
0.0
  0
LINE
  5
2D41
  8
0
 10
82.247583065970616
 20
173.74263990698029
 30
0.0
 11
80.761410166366773
 21
173.02318017957381
 31
0.0
  0
ARC
  5
2D42
  8
0
 10
102.3363451108772
 20
193.14213197705919
 30
0.0
 40
29.50000000000005
 50
136.99999999999699
 51
142.9999999999996
  0
LINE
  5
2D43
  8
0
 10
79.743197058184819
 20
209.55701459226779
 30
0.0
 11
78.776597847088055
 21
210.89567530927829
 31
0.0
  0
LINE
  5
2D44
  8
0
 10
80.761410166366773
 20
213.2610837745446
 30
0.0
 11
82.247583065970616
 21
212.5416240471381
 31
0.0
  0
ARC
  5
2D45
  8
0
 10
102.3363451108772
 20
193.14213197705919
 30
0.0
 40
29.5
 50
207.00000000000051
 51
212.9999999999998
  0
LINE
  5
2D46
  8
0
 10
76.051652301891522
 20
179.74941253689701
 30
0.0
 11
77.236022670610623
 21
180.89988742051301
 31
0.0
  0
LINE
  5
2D47
  8
0
 10
79.184088726385312
 20
177.52573832897119
 30
0.0
 11
77.595563475831227
 21
177.0752808826941
 31
0.0
  0
ARC
  5
2D48
  8
0
 10
102.3363451108772
 20
193.14213197705919
 30
0.0
 40
29.500000000000011
 50
147.0000000000002
 51
152.99999999999949
  0
LINE
  5
2D49
  8
0
 10
77.236022670610623
 20
205.3843765336054
 30
0.0
 11
76.051652301891522
 21
206.5348514172214
 31
0.0
  0
LINE
  5
2D4A
  8
0
 10
77.595563475831227
 20
209.20898307142431
 30
0.0
 11
79.184088726385312
 21
208.7585256251472
 31
0.0
  0
ARC
  5
2D4B
  8
0
 10
102.3363451108772
 20
193.14213197705919
 30
0.0
 40
29.500000000000028
 50
196.99999999999929
 51
203.00000000000071
  0
LINE
  5
2D4C
  8
0
 10
74.125354979975896
 20
184.51716665206129
 30
0.0
 11
75.491510202034192
 21
185.44449944076709
 31
0.0
  0
LINE
  5
2D4D
  8
0
 10
76.824065168245511
 20
181.7833334955352
 30
0.0
 11
75.181452427848058
 21
181.6155641156214
 31
0.0
  0
ARC
  5
2D4E
  8
0
 10
102.3363451108772
 20
193.14213197705919
 30
0.0
 40
29.500000000000039
 50
156.99999999999929
 51
163.0000000000006
  0
LINE
  5
2D4F
  8
0
 10
75.491510202034192
 20
200.8397645133513
 30
0.0
 11
74.125354979975896
 21
201.7670973020571
 31
0.0
  0
LINE
  5
2D50
  8
0
 10
75.181452427848058
 20
204.66869983849699
 30
0.0
 11
76.824065168245511
 21
204.50093045858321
 31
0.0
  0
ARC
  5
2D51
  8
0
 10
102.3363451108772
 20
193.14213197705919
 30
0.0
 40
29.500000000000028
 50
166.99999999999849
 51
173.0000000000002
  0
LINE
  5
2D52
  8
0
 10
73.592427988393979
 20
199.77818809477259
 30
0.0
 11
75.239220504506306
 21
199.89820390967299
 31
0.0
  0
LINE
  5
2D53
  8
0
 10
74.562663082822041
 20
196.0612636341678
 30
0.0
 11
73.056233917220311
 21
196.73727762912981
 31
0.0
  0
ARC
  5
2D54
  8
0
 10
102.3363451108772
 20
193.14213197705919
 30
0.0
 40
29.500000000000028
 50
187.00000000000099
 51
193.00000000000139
  0
LINE
  5
2D55
  8
0
 10
73.056233917220311
 20
189.5469863249885
 30
0.0
 11
74.562663082822041
 21
190.2230003199505
 31
0.0
  0
LINE
  5
2D56
  8
0
 10
75.239220504506306
 20
186.38606004444529
 30
0.0
 11
73.592427988393979
 21
186.50607585934571
 31
0.0
  0
ARC
  5
2D57
  8
0
 10
102.3363451108772
 20
193.14213197705919
 30
0.0
 40
29.500000000000011
 50
177.00000000000091
 51
183.00000000000071
  0
LINE
  5
2D58
  8
0
 10
74.477705974920468
 20
191.19406615411509
 30
0.0
 11
72.876773645027356
 21
191.5982212687808
 31
0.0
  0
LINE
  5
2D59
  8
0
 10
72.876773645027356
 20
194.68604268533761
 30
0.0
 11
74.477705974920468
 21
195.09019780000321
 31
0.0
  0
LINE
  5
36F2
  8
3
 10
107.04885427509529
 20
207.64574385056031
 30
0.0
 11
108.82570199275121
 21
213.11431881925739
 31
0.0
  0
LINE
  5
36F3
  8
0
 10
93.372620013417404
 20
205.4796411412768
 30
0.0
 11
89.992854812735445
 21
210.1314888589331
 31
0.0
  0
LINE
  5
36F4
  8
3
 10
97.623835946659369
 20
207.64574385056031
 30
0.0
 11
95.846988229003387
 21
213.11431881925751
 31
0.0
  0
LINE
  5
36F5
  8
0
 10
87.83273323737626
 20
197.85464114127711
 30
0.0
 11
82.364158268679148
 21
199.6314888589331
 31
0.0
  0
LINE
  5
36F6
  8
3
 10
89.998835946659412
 20
202.10585707451941
 30
0.0
 11
85.346988229003614
 21
205.485622275201
 31
0.0
  0
LINE
  5
36F7
  8
0
 10
87.83273323737626
 20
188.4296228128413
 30
0.0
 11
82.364158268679148
 21
186.65277509518529
 31
0.0
  0
LINE
  5
36F8
  8
0
 10
93.372620013417077
 20
180.80462281284119
 30
0.0
 11
89.992854812735445
 21
176.15277509518529
 31
0.0
  0
LINE
  5
36F9
  8
3
 10
97.623835946659483
 20
178.63852010355799
 30
0.0
 11
95.8469882290035
 21
173.169945134861
 31
0.0
  0
LINE
  5
36FA
  8
0
 10
111.3000702083375
 20
180.8046228128413
 30
0.0
 11
114.6798354090192
 21
176.15277509518529
 31
0.0
  0
LINE
  5
36FB
  8
3
 10
107.04885427509529
 20
178.63852010355811
 30
0.0
 11
108.82570199275131
 21
173.16994513486091
 31
0.0
  0
LINE
  5
36FC
  8
0
 10
116.8399569843784
 20
188.42962281284119
 30
0.0
 11
122.3085319530758
 21
186.65277509518521
 31
0.0
  0
LINE
  5
36FD
  8
0
 10
116.8399569843783
 20
197.85464114127711
 30
0.0
 11
122.3085319530756
 21
199.63148885893301
 31
0.0
  0
LINE
  5
36FE
  8
0
 10
111.3000702083376
 20
205.4796411412772
 30
0.0
 11
114.6798354090192
 21
210.13148885893301
 31
0.0
  0
LINE
  5
36FF
  8
3
 10
114.6738542750952
 20
202.10585707451929
 30
0.0
 11
119.32570199275121
 21
205.48562227520111
 31
0.0
  0
LINE
  5
370A
  8
0
 10
103.8363451108773
 20
200.14213197705911
 30
0.0
 11
100.8363451108773
 21
200.14213197705911
 31
0.0
  0
LINE
  5
370D
  8
3
 10
89.998835946659355
 20
184.1784068795989
 30
0.0
 11
85.346988229003387
 21
180.79864167891711
 31
0.0
  0
LINE
  5
370E
  8
3
 10
114.67385427509529
 20
184.17840687959901
 30
0.0
 11
119.32570199275131
 21
180.79864167891719
 31
0.0
  0
LINE
  5
370F
  8
3
 10
81.336345110877346
 20
193.14213197705919
 30
0.0
 11
83.836345110922437
 21
193.14213197705919
 31
0.0
  0
LINE
  5
3710
  8
3
 10
117.5863451108773
 20
193.14213197705919
 30
0.0
 11
123.3363451108773
 21
193.14213197705919
 31
0.0
  0
LINE
  5
3711
  8
0
 10
102.3363451108773
 20
214.14213197705919
 30
0.0
 11
102.3363451108773
 21
208.39213197705919
 31
0.0
  0
LINE
  5
3712
  8
0
 10
102.3363451108773
 20
177.89213197705919
 30
0.0
 11
102.3363451108773
 21
172.14213197705919
 31
0.0
  0
LINE
  5
371A
  8
0
 10
114.8041105097218
 20
178.9774275692935
 30
0.0
 11
116.5010495186429
 21
180.67436657821469
 31
0.0
  0
LINE
  5
371B
  8
0
 10
116.031530615935
 20
181.14388548092239
 30
0.0
 11
114.3345916070141
 21
179.44694647200151
 31
0.0
  0
LINE
  5
371C
  8
0
 10
88.171640703111734
 20
180.67436657821469
 30
0.0
 11
89.868579712032897
 21
178.9774275692935
 31
0.0
  0
LINE
  5
371D
  8
0
 10
90.338098614740588
 20
179.44694647200151
 30
0.0
 11
88.641159605819666
 21
181.14388548092239
 31
0.0
  0
CIRCLE
  5
3724
  8
0
 10
102.3363451108773
 20
193.14213197705919
 30
0.0
 40
24.900000000000009
  0
CIRCLE
  5
3725
  8
0
 10
102.3363451108773
 20
193.14213197705919
 30
0.0
 40
21.000000000000028
  0
CIRCLE
  5
3726
  8
0
 10
115.4178205628285
 20
180.06065652510799
 30
0.0
 40
1.2449999999994921
  0
CIRCLE
  5
3727
  8
0
 10
89.254869658926296
 20
180.06065652510799
 30
0.0
 40
1.2449999999994921
  0
LINE
  5
3728
  8
1
 10
102.3363451108773
 20
227.64213197705911
 30
0.0
 11
102.3363451108773
 21
158.64213197705931
 31
0.0
  0
LINE
  5
3729
  8
1
 10
136.8363451108772
 20
193.14213197705919
 30
0.0
 11
67.83634511087746
 21
193.14213197705919
 31
0.0
  0
CIRCLE
  5
372D
  8
0
 10
102.3363451108773
 20
193.14213197705919
 30
0.0
 40
27.926666666666989
  0
LINE
  5
44ED
  8
0
 10
74.606345836861976
 20
111.80879741189651
 30
0.0
 11
76.439678539379486
 21
113.64213197705919
 31
0.0
  0
LINE
  5
44EE
  8
0
 10
128.23301168237529
 20
113.64213197705919
 30
0.0
 11
130.0663443848928
 21
111.80879741189651
 31
0.0
  0
LINE
  5
44EF
  8
0
 10
74.606345836861976
 20
110.8921338546055
 30
0.0
 11
74.606345836861976
 21
111.80879741189651
 31
0.0
  0
LINE
  5
44F0
  8
0
 10
130.0663443848928
 20
111.80879741189651
 30
0.0
 11
130.0663443848928
 21
110.8921338546055
 31
0.0
  0
LINE
  5
4502
  8
0
 10
72.836344932063469
 20
110.10641797659569
 30
0.0
 11
74.409678448780426
 21
110.8921338546055
 31
0.0
  0
LINE
  5
4503
  8
0
 10
72.836344932063469
 20
106.4397525715607
 30
0.0
 11
74.409678448780426
 21
107.2254647242802
 31
0.0
  0
LINE
  5
4504
  8
0
 10
131.8363452896912
 20
89.677846126534263
 30
0.0
 11
130.26301177297429
 21
88.892132111169644
 31
0.0
  0
LINE
  5
4505
  8
0
 10
72.836344932063469
 20
102.7730834412353
 30
0.0
 11
74.409678448780426
 21
103.5587993192451
 31
0.0
  0
LINE
  5
4506
  8
0
 10
131.8363452896912
 20
86.011180721499244
 30
0.0
 11
130.26301177297429
 21
85.225464843489476
 31
0.0
  0
LINE
  5
4507
  8
0
 10
74.409678448780426
 20
103.5587993192451
 30
0.0
 11
72.836344932063469
 21
104.34451147196459
 31
0.0
  0
LINE
  5
4508
  8
0
 10
72.836344932063469
 20
99.106418036200367
 30
0.0
 11
74.409678448780426
 21
99.892133914210149
 31
0.0
  0
LINE
  5
4509
  8
0
 10
74.409678448780426
 20
92.558799378849827
 30
0.0
 11
72.836344932063469
 21
93.344511531569324
 31
0.0
  0
LINE
  5
450A
  8
0
 10
130.26301177297441
 20
92.558799378849827
 30
0.0
 11
131.83634528969131
 21
91.773083500839988
 31
0.0
  0
LINE
  5
450B
  8
0
 10
131.83634528969131
 20
93.344511531569282
 30
0.0
 11
130.26301177297441
 21
92.558799378849827
 31
0.0
  0
LINE
  5
450C
  8
0
 10
130.26301177297429
 20
88.892132111169644
 30
0.0
 11
131.8363452896912
 21
88.106418095804969
 31
0.0
  0
LINE
  5
450D
  8
0
 10
74.409678448780426
 20
107.2254647242802
 30
0.0
 11
72.836344932063469
 21
108.01118060229
 31
0.0
  0
LINE
  5
450E
  8
0
 10
74.409678448780312
 20
81.558799438454457
 30
0.0
 11
72.836344932063355
 21
82.344513453819104
 31
0.0
  0
LINE
  5
450F
  8
0
 10
74.409678448780426
 20
99.892133914210149
 30
0.0
 11
72.836344932063469
 21
100.6778460669296
 31
0.0
  0
LINE
  5
4510
  8
0
 10
131.83634528969131
 20
108.0111806022899
 30
0.0
 11
130.26301177297441
 21
107.2254647242802
 31
0.0
  0
LINE
  5
4511
  8
0
 10
130.26301177297441
 20
96.225464783884846
 30
0.0
 11
131.83634528969131
 21
95.439752631165305
 31
0.0
  0
LINE
  5
4512
  8
0
 10
131.83634528969131
 20
100.6778460669296
 30
0.0
 11
130.26301177297441
 21
99.892133914210149
 31
0.0
  0
LINE
  5
4513
  8
0
 10
74.409678448780312
 20
85.225464843489476
 30
0.0
 11
72.836344932063355
 21
86.011180721499287
 31
0.0
  0
LINE
  5
4514
  8
0
 10
130.26301177297441
 20
107.2254647242802
 30
0.0
 11
131.83634528969131
 21
106.4397525715606
 31
0.0
  0
LINE
  5
4515
  8
0
 10
131.83634528969131
 20
97.011180661894599
 30
0.0
 11
130.26301177297441
 21
96.225464783884846
 31
0.0
  0
LINE
  5
4516
  8
0
 10
130.26301177297441
 20
103.5587993192451
 30
0.0
 11
131.83634528969131
 21
102.7730834412353
 31
0.0
  0
LINE
  5
4517
  8
0
 10
131.8363452896912
 20
82.344513453819076
 30
0.0
 11
130.26301177297429
 21
81.558799438454457
 31
0.0
  0
LINE
  5
4518
  8
0
 10
72.836344932063469
 20
95.439752631165334
 30
0.0
 11
74.409678448780426
 21
96.225464783884846
 31
0.0
  0
LINE
  5
4519
  8
0
 10
130.26301177297441
 20
99.892133914210149
 30
0.0
 11
131.83634528969131
 21
99.106418036200324
 31
0.0
  0
LINE
  5
451A
  8
0
 10
131.83634528969131
 20
104.34451147196459
 30
0.0
 11
130.26301177297441
 21
103.5587993192451
 31
0.0
  0
LINE
  5
451B
  8
0
 10
74.409678448780312
 20
88.892132111169644
 30
0.0
 11
72.836344932063355
 21
89.677846126534305
 31
0.0
  0
LINE
  5
451C
  8
0
 10
72.836344932063355
 20
84.439750828124829
 30
0.0
 11
74.409678448780312
 21
85.225464843489476
 31
0.0
  0
LINE
  5
451D
  8
0
 10
72.836344932063355
 20
88.106418095804997
 30
0.0
 11
74.409678448780312
 21
88.892132111169644
 31
0.0
  0
LINE
  5
451E
  8
0
 10
130.26301177297441
 20
110.8921338546055
 30
0.0
 11
131.83634528969131
 21
110.10641797659569
 31
0.0
  0
LINE
  5
451F
  8
0
 10
130.26301177297429
 20
85.225464843489476
 30
0.0
 11
131.8363452896912
 21
84.439750828124801
 31
0.0
  0
LINE
  5
4520
  8
0
 10
72.836344932063469
 20
91.773083500840016
 30
0.0
 11
74.409678448780426
 21
92.558799378849827
 31
0.0
  0
LINE
  5
4521
  8
0
 10
74.409678448780426
 20
96.225464783884846
 30
0.0
 11
72.836344932063469
 21
97.011180661894628
 31
0.0
  0
LINE
  5
4522
  8
0
 10
131.83634528969131
 20
91.773083500839988
 30
0.0
 11
131.8363452896912
 21
89.677846126534263
 31
0.0
  0
LINE
  5
4523
  8
0
 10
72.836344932063469
 20
100.6778460669296
 30
0.0
 11
72.836344932063469
 21
102.7730834412353
 31
0.0
  0
LINE
  5
4524
  8
0
 10
131.8363452896912
 20
88.106418095804969
 30
0.0
 11
131.8363452896912
 21
86.011180721499244
 31
0.0
  0
LINE
  5
4525
  8
0
 10
72.836344932063469
 20
93.344511531569324
 30
0.0
 11
72.836344932063469
 21
95.439752631165334
 31
0.0
  0
LINE
  5
4526
  8
0
 10
131.83634528969131
 20
99.106418036200324
 30
0.0
 11
131.83634528969131
 21
97.011180661894599
 31
0.0
  0
LINE
  5
4527
  8
0
 10
131.83634528969131
 20
102.7730834412353
 30
0.0
 11
131.83634528969131
 21
100.6778460669296
 31
0.0
  0
LINE
  5
4528
  8
0
 10
72.836344932063469
 20
104.34451147196459
 30
0.0
 11
72.836344932063469
 21
106.4397525715607
 31
0.0
  0
LINE
  5
4529
  8
0
 10
131.8363452896912
 20
84.439750828124801
 30
0.0
 11
131.8363452896912
 21
82.344513453819076
 31
0.0
  0
LINE
  5
452A
  8
0
 10
72.836344932063469
 20
108.01118060229
 30
0.0
 11
72.836344932063469
 21
110.10641797659569
 31
0.0
  0
LINE
  5
452B
  8
0
 10
72.836344932063355
 20
82.344513453819104
 30
0.0
 11
72.836344932063355
 21
84.439750828124829
 31
0.0
  0
LINE
  5
452C
  8
0
 10
72.836344932063469
 20
97.011180661894628
 30
0.0
 11
72.836344932063469
 21
99.106418036200367
 31
0.0
  0
LINE
  5
452D
  8
0
 10
131.83634528969131
 20
95.439752631165305
 30
0.0
 11
131.83634528969131
 21
93.344511531569282
 31
0.0
  0
LINE
  5
452E
  8
0
 10
72.836344932063355
 20
89.677846126534305
 30
0.0
 11
72.836344932063469
 21
91.773083500840016
 31
0.0
  0
LINE
  5
452F
  8
0
 10
72.836344932063355
 20
86.011180721499287
 30
0.0
 11
72.836344932063355
 21
88.106418095804997
 31
0.0
  0
LINE
  5
4530
  8
0
 10
131.83634528969131
 20
106.4397525715606
 30
0.0
 11
131.83634528969131
 21
104.34451147196459
 31
0.0
  0
LINE
  5
4531
  8
0
 10
131.83634528969131
 20
110.10641797659569
 30
0.0
 11
131.83634528969131
 21
108.0111806022899
 31
0.0
  0
LINE
  5
4532
  8
0
 10
100.7924344025988
 20
84.439750828124829
 30
0.0
 11
103.88025581915571
 21
84.439750828124829
 31
0.0
  0
LINE
  5
4533
  8
0
 10
100.7924344025988
 20
84.439750828124829
 30
0.0
 11
100.7924344025988
 21
82.344513453819104
 31
0.0
  0
LINE
  5
4534
  8
0
 10
100.7924344025988
 20
82.344513453819104
 30
0.0
 11
103.88025581915571
 21
82.344513453819104
 31
0.0
  0
LINE
  5
4535
  8
0
 10
103.88025581915571
 20
82.344513453819104
 30
0.0
 11
103.88025581915571
 21
84.439750828124829
 31
0.0
  0
LINE
  5
4536
  8
0
 10
100.792434402599
 20
110.10641797659569
 30
0.0
 11
103.88025581915581
 21
110.10641797659569
 31
0.0
  0
LINE
  5
4537
  8
0
 10
100.792434402599
 20
110.10641797659569
 30
0.0
 11
100.792434402599
 21
108.01118060229
 31
0.0
  0
LINE
  5
4538
  8
0
 10
100.792434402599
 20
108.01118060229
 30
0.0
 11
103.88025581915581
 21
108.01118060229
 31
0.0
  0
LINE
  5
4539
  8
0
 10
103.88025581915581
 20
108.01118060229
 30
0.0
 11
103.88025581915581
 21
110.10641797659569
 31
0.0
  0
LINE
  5
453A
  8
0
 10
100.792434402599
 20
106.4397525715607
 30
0.0
 11
103.88025581915581
 21
106.4397525715607
 31
0.0
  0
LINE
  5
453B
  8
0
 10
100.792434402599
 20
102.7730834412353
 30
0.0
 11
103.88025581915581
 21
102.7730834412353
 31
0.0
  0
LINE
  5
453C
  8
0
 10
100.792434402599
 20
102.7730834412353
 30
0.0
 11
100.792434402599
 21
100.6778460669296
 31
0.0
  0
LINE
  5
453D
  8
0
 10
100.792434402599
 20
100.6778460669296
 30
0.0
 11
103.88025581915581
 21
100.6778460669296
 31
0.0
  0
LINE
  5
453E
  8
0
 10
103.88025581915581
 20
100.6778460669296
 30
0.0
 11
103.88025581915581
 21
102.7730834412353
 31
0.0
  0
LINE
  5
453F
  8
0
 10
100.792434402599
 20
97.011180661894628
 30
0.0
 11
103.88025581915581
 21
97.011180661894628
 31
0.0
  0
LINE
  5
4540
  8
0
 10
100.792434402599
 20
95.439752631165334
 30
0.0
 11
103.88025581915581
 21
95.439752631165334
 31
0.0
  0
LINE
  5
4541
  8
0
 10
100.792434402599
 20
91.773083500840016
 30
0.0
 11
103.88025581915581
 21
91.773083500840016
 31
0.0
  0
LINE
  5
4542
  8
0
 10
100.7924344025988
 20
89.677846126534305
 30
0.0
 11
103.88025581915571
 21
89.677846126534305
 31
0.0
  0
LINE
  5
4543
  8
0
 10
100.7924344025988
 20
88.106418095804997
 30
0.0
 11
103.88025581915571
 21
88.106418095804997
 31
0.0
  0
LINE
  5
4544
  8
0
 10
100.7924344025988
 20
88.106418095804997
 30
0.0
 11
100.7924344025988
 21
86.011180721499287
 31
0.0
  0
LINE
  5
4545
  8
0
 10
100.7924344025988
 20
86.011180721499287
 30
0.0
 11
103.88025581915571
 21
86.011180721499287
 31
0.0
  0
LINE
  5
4546
  8
0
 10
103.88025581915571
 20
86.011180721499287
 30
0.0
 11
103.88025581915571
 21
88.106418095804997
 31
0.0
  0
LINE
  5
4547
  8
0
 10
100.792434402599
 20
99.106418036200367
 30
0.0
 11
103.88025581915581
 21
99.106418036200367
 31
0.0
  0
LINE
  5
4548
  8
0
 10
100.792434402599
 20
99.106418036200367
 30
0.0
 11
100.792434402599
 21
97.011180661894628
 31
0.0
  0
LINE
  5
4549
  8
0
 10
103.88025581915581
 20
97.011180661894628
 30
0.0
 11
103.88025581915581
 21
99.106418036200367
 31
0.0
  0
LINE
  5
454A
  8
0
 10
100.792434402599
 20
106.4397525715607
 30
0.0
 11
100.792434402599
 21
104.34451147196459
 31
0.0
  0
LINE
  5
454B
  8
0
 10
100.792434402599
 20
104.34451147196459
 30
0.0
 11
103.88025581915581
 21
104.34451147196459
 31
0.0
  0
LINE
  5
454C
  8
0
 10
103.88025581915581
 20
104.34451147196459
 30
0.0
 11
103.88025581915581
 21
106.4397525715607
 31
0.0
  0
LINE
  5
454D
  8
0
 10
100.792434402599
 20
93.344511531569324
 30
0.0
 11
103.88025581915581
 21
93.344511531569324
 31
0.0
  0
LINE
  5
454E
  8
0
 10
100.792434402599
 20
91.773083500840016
 30
0.0
 11
100.7924344025988
 21
89.677846126534305
 31
0.0
  0
LINE
  5
454F
  8
0
 10
103.88025581915571
 20
89.677846126534305
 30
0.0
 11
103.88025581915581
 21
91.773083500840016
 31
0.0
  0
LINE
  5
4550
  8
0
 10
100.792434402599
 20
95.439752631165334
 30
0.0
 11
100.792434402599
 21
93.344511531569324
 31
0.0
  0
LINE
  5
4551
  8
0
 10
103.88025581915581
 20
93.344511531569324
 30
0.0
 11
103.88025581915581
 21
95.439752631165334
 31
0.0
  0
LINE
  5
4552
  8
0
 10
95.700288993163966
 20
91.773083500840016
 30
0.0
 11
98.741199458806776
 21
91.773083500840016
 31
0.0
  0
LINE
  5
4553
  8
0
 10
95.700288993163966
 20
104.34451147196459
 30
0.0
 11
98.741199458806776
 21
104.34451147196459
 31
0.0
  0
LINE
  5
4554
  8
0
 10
98.741199458806776
 20
104.34451147196459
 30
0.0
 11
98.741199458806776
 21
106.4397525715607
 31
0.0
  0
LINE
  5
4555
  8
0
 10
95.700288993163966
 20
106.4397525715607
 30
0.0
 11
98.741199458806776
 21
106.4397525715607
 31
0.0
  0
LINE
  5
4556
  8
0
 10
95.700288993163966
 20
106.4397525715607
 30
0.0
 11
95.700288993163966
 21
104.34451147196459
 31
0.0
  0
LINE
  5
4557
  8
0
 10
105.931490762948
 20
108.01118060229
 30
0.0
 11
108.9724012285908
 21
108.01118060229
 31
0.0
  0
LINE
  5
4558
  8
0
 10
108.9724012285908
 20
108.01118060229
 30
0.0
 11
108.9724012285908
 21
110.10641797659569
 31
0.0
  0
LINE
  5
4559
  8
0
 10
105.931490762948
 20
110.10641797659569
 30
0.0
 11
108.9724012285908
 21
110.10641797659569
 31
0.0
  0
LINE
  5
455A
  8
0
 10
105.931490762948
 20
110.10641797659569
 30
0.0
 11
105.931490762948
 21
108.01118060229
 31
0.0
  0
LINE
  5
455B
  8
0
 10
105.931490762948
 20
91.773083500840016
 30
0.0
 11
108.9724012285908
 21
91.773083500840016
 31
0.0
  0
LINE
  5
455C
  8
0
 10
105.9314907629479
 20
89.677846126534305
 30
0.0
 11
108.9724012285907
 21
89.677846126534305
 31
0.0
  0
LINE
  5
455D
  8
0
 10
105.9314907629479
 20
82.344513453819104
 30
0.0
 11
108.9724012285907
 21
82.344513453819104
 31
0.0
  0
LINE
  5
455E
  8
0
 10
105.9314907629479
 20
86.011180721499287
 30
0.0
 11
108.9724012285907
 21
86.011180721499287
 31
0.0
  0
LINE
  5
455F
  8
0
 10
108.9724012285907
 20
82.344513453819104
 30
0.0
 11
108.9724012285907
 21
84.439750828124829
 31
0.0
  0
LINE
  5
4560
  8
0
 10
105.9314907629479
 20
84.439750828124829
 30
0.0
 11
108.9724012285907
 21
84.439750828124829
 31
0.0
  0
LINE
  5
4561
  8
0
 10
105.9314907629479
 20
84.439750828124829
 30
0.0
 11
105.9314907629479
 21
82.344513453819104
 31
0.0
  0
LINE
  5
4562
  8
0
 10
95.700288993163824
 20
89.677846126534305
 30
0.0
 11
98.741199458806634
 21
89.677846126534305
 31
0.0
  0
LINE
  5
4563
  8
0
 10
98.741199458806634
 20
89.677846126534305
 30
0.0
 11
98.741199458806776
 21
91.773083500840016
 31
0.0
  0
LINE
  5
4564
  8
0
 10
95.700288993163966
 20
91.773083500840016
 30
0.0
 11
95.700288993163824
 21
89.677846126534305
 31
0.0
  0
LINE
  5
4565
  8
0
 10
95.700288993163966
 20
93.344511531569324
 30
0.0
 11
98.741199458806776
 21
93.344511531569324
 31
0.0
  0
LINE
  5
4566
  8
0
 10
98.741199458806776
 20
93.344511531569324
 30
0.0
 11
98.741199458806776
 21
95.439752631165334
 31
0.0
  0
LINE
  5
4567
  8
0
 10
95.700288993163966
 20
95.439752631165334
 30
0.0
 11
98.741199458806776
 21
95.439752631165334
 31
0.0
  0
LINE
  5
4568
  8
0
 10
95.700288993163966
 20
95.439752631165334
 30
0.0
 11
95.700288993163966
 21
93.344511531569324
 31
0.0
  0
LINE
  5
4569
  8
0
 10
105.931490762948
 20
102.7730834412353
 30
0.0
 11
108.9724012285908
 21
102.7730834412353
 31
0.0
  0
LINE
  5
456A
  8
0
 10
105.931490762948
 20
97.011180661894628
 30
0.0
 11
108.9724012285908
 21
97.011180661894628
 31
0.0
  0
LINE
  5
456B
  8
0
 10
95.700288993163966
 20
99.106418036200367
 30
0.0
 11
98.741199458806776
 21
99.106418036200367
 31
0.0
  0
LINE
  5
456C
  8
0
 10
98.741199458806634
 20
86.011180721499287
 30
0.0
 11
98.741199458806634
 21
88.106418095804997
 31
0.0
  0
LINE
  5
456D
  8
0
 10
105.931490762948
 20
93.344511531569324
 30
0.0
 11
108.9724012285908
 21
93.344511531569324
 31
0.0
  0
LINE
  5
456E
  8
0
 10
105.931490762948
 20
91.773083500840016
 30
0.0
 11
105.9314907629479
 21
89.677846126534305
 31
0.0
  0
LINE
  5
456F
  8
0
 10
108.9724012285907
 20
86.011180721499287
 30
0.0
 11
108.9724012285907
 21
88.106418095804997
 31
0.0
  0
LINE
  5
4570
  8
0
 10
105.9314907629479
 20
88.106418095804997
 30
0.0
 11
108.9724012285907
 21
88.106418095804997
 31
0.0
  0
LINE
  5
4571
  8
0
 10
105.9314907629479
 20
88.106418095804997
 30
0.0
 11
105.9314907629479
 21
86.011180721499287
 31
0.0
  0
LINE
  5
4572
  8
0
 10
95.700288993163966
 20
108.01118060229
 30
0.0
 11
98.741199458806776
 21
108.01118060229
 31
0.0
  0
LINE
  5
4573
  8
0
 10
95.700288993163966
 20
97.011180661894628
 30
0.0
 11
98.741199458806776
 21
97.011180661894628
 31
0.0
  0
LINE
  5
4574
  8
0
 10
95.700288993163824
 20
82.344513453819104
 30
0.0
 11
98.741199458806634
 21
82.344513453819104
 31
0.0
  0
LINE
  5
4575
  8
0
 10
98.741199458806634
 20
82.344513453819104
 30
0.0
 11
98.741199458806634
 21
84.439750828124829
 31
0.0
  0
LINE
  5
4576
  8
0
 10
95.700288993163824
 20
84.439750828124829
 30
0.0
 11
98.741199458806634
 21
84.439750828124829
 31
0.0
  0
LINE
  5
4577
  8
0
 10
95.700288993163824
 20
84.439750828124829
 30
0.0
 11
95.700288993163824
 21
82.344513453819104
 31
0.0
  0
LINE
  5
4578
  8
0
 10
108.9724012285908
 20
97.011180661894628
 30
0.0
 11
108.9724012285908
 21
99.106418036200367
 31
0.0
  0
LINE
  5
4579
  8
0
 10
105.931490762948
 20
99.106418036200367
 30
0.0
 11
108.9724012285908
 21
99.106418036200367
 31
0.0
  0
LINE
  5
457A
  8
0
 10
105.931490762948
 20
99.106418036200367
 30
0.0
 11
105.931490762948
 21
97.011180661894628
 31
0.0
  0
LINE
  5
457B
  8
0
 10
95.700288993163824
 20
86.011180721499287
 30
0.0
 11
98.741199458806634
 21
86.011180721499287
 31
0.0
  0
LINE
  5
457C
  8
0
 10
95.700288993163824
 20
88.106418095804997
 30
0.0
 11
98.741199458806634
 21
88.106418095804997
 31
0.0
  0
LINE
  5
457D
  8
0
 10
95.700288993163824
 20
88.106418095804997
 30
0.0
 11
95.700288993163824
 21
86.011180721499287
 31
0.0
  0
LINE
  5
457E
  8
0
 10
105.931490762948
 20
102.7730834412353
 30
0.0
 11
105.931490762948
 21
100.6778460669296
 31
0.0
  0
LINE
  5
457F
  8
0
 10
105.931490762948
 20
100.6778460669296
 30
0.0
 11
108.9724012285908
 21
100.6778460669296
 31
0.0
  0
LINE
  5
4580
  8
0
 10
108.9724012285908
 20
100.6778460669296
 30
0.0
 11
108.9724012285908
 21
102.7730834412353
 31
0.0
  0
LINE
  5
4581
  8
0
 10
105.931490762948
 20
106.4397525715607
 30
0.0
 11
108.9724012285908
 21
106.4397525715607
 31
0.0
  0
LINE
  5
4582
  8
0
 10
98.741199458806776
 20
97.011180661894628
 30
0.0
 11
98.741199458806776
 21
99.106418036200367
 31
0.0
  0
LINE
  5
4583
  8
0
 10
95.700288993163966
 20
99.106418036200367
 30
0.0
 11
95.700288993163966
 21
97.011180661894628
 31
0.0
  0
LINE
  5
4584
  8
0
 10
95.700288993163966
 20
100.6778460669296
 30
0.0
 11
98.741199458806776
 21
100.6778460669296
 31
0.0
  0
LINE
  5
4585
  8
0
 10
108.9724012285908
 20
93.344511531569324
 30
0.0
 11
108.9724012285908
 21
95.439752631165334
 31
0.0
  0
LINE
  5
4586
  8
0
 10
105.931490762948
 20
95.439752631165334
 30
0.0
 11
108.9724012285908
 21
95.439752631165334
 31
0.0
  0
LINE
  5
4587
  8
0
 10
105.931490762948
 20
95.439752631165334
 30
0.0
 11
105.931490762948
 21
93.344511531569324
 31
0.0
  0
LINE
  5
4588
  8
0
 10
95.700288993163966
 20
102.7730834412353
 30
0.0
 11
98.741199458806776
 21
102.7730834412353
 31
0.0
  0
LINE
  5
4589
  8
0
 10
98.741199458806776
 20
100.6778460669296
 30
0.0
 11
98.741199458806776
 21
102.7730834412353
 31
0.0
  0
LINE
  5
458A
  8
0
 10
95.700288993163966
 20
102.7730834412353
 30
0.0
 11
95.700288993163966
 21
100.6778460669296
 31
0.0
  0
LINE
  5
458B
  8
0
 10
98.741199458806776
 20
108.01118060229
 30
0.0
 11
98.741199458806776
 21
110.10641797659569
 31
0.0
  0
LINE
  5
458C
  8
0
 10
95.700288993163966
 20
110.10641797659569
 30
0.0
 11
98.741199458806776
 21
110.10641797659569
 31
0.0
  0
LINE
  5
458D
  8
0
 10
95.700288993163966
 20
110.10641797659569
 30
0.0
 11
95.700288993163966
 21
108.01118060229
 31
0.0
  0
LINE
  5
458E
  8
0
 10
105.931490762948
 20
104.34451147196459
 30
0.0
 11
108.9724012285908
 21
104.34451147196459
 31
0.0
  0
LINE
  5
458F
  8
0
 10
108.9724012285908
 20
104.34451147196459
 30
0.0
 11
108.9724012285908
 21
106.4397525715607
 31
0.0
  0
LINE
  5
4590
  8
0
 10
105.931490762948
 20
106.4397525715607
 30
0.0
 11
105.931490762948
 21
104.34451147196459
 31
0.0
  0
LINE
  5
4591
  8
0
 10
108.9724012285907
 20
89.677846126534305
 30
0.0
 11
108.9724012285908
 21
91.773083500840016
 31
0.0
  0
LINE
  5
4592
  8
0
 10
90.809777249439605
 20
91.773083500840016
 30
0.0
 11
93.711379785879515
 21
91.773083500840016
 31
0.0
  0
LINE
  5
4593
  8
0
 10
93.711379785879373
 20
89.677846126534305
 30
0.0
 11
93.711379785879515
 21
91.773083500840016
 31
0.0
  0
LINE
  5
4594
  8
0
 10
90.809777249439605
 20
100.6778460669296
 30
0.0
 11
93.711379785879515
 21
100.6778460669296
 31
0.0
  0
LINE
  5
4595
  8
0
 10
110.96131043587521
 20
84.439750828124829
 30
0.0
 11
110.96131043587521
 21
82.344513453819104
 31
0.0
  0
LINE
  5
4596
  8
0
 10
90.809777249439605
 20
97.011180661894628
 30
0.0
 11
93.711379785879515
 21
97.011180661894628
 31
0.0
  0
LINE
  5
4597
  8
0
 10
93.711379785879515
 20
97.011180661894628
 30
0.0
 11
93.711379785879515
 21
99.106418036200367
 31
0.0
  0
LINE
  5
4598
  8
0
 10
90.809777249439605
 20
99.106418036200367
 30
0.0
 11
93.711379785879515
 21
99.106418036200367
 31
0.0
  0
LINE
  5
4599
  8
0
 10
90.809777249439605
 20
99.106418036200367
 30
0.0
 11
90.809777249439605
 21
97.011180661894628
 31
0.0
  0
LINE
  5
459A
  8
0
 10
90.809777249439492
 20
89.677846126534305
 30
0.0
 11
93.711379785879373
 21
89.677846126534305
 31
0.0
  0
LINE
  5
459B
  8
0
 10
90.809777249439605
 20
91.773083500840016
 30
0.0
 11
90.809777249439492
 21
89.677846126534305
 31
0.0
  0
LINE
  5
459C
  8
0
 10
110.96131043587521
 20
82.344513453819104
 30
0.0
 11
113.8629129723151
 21
82.344513453819104
 31
0.0
  0
LINE
  5
459D
  8
0
 10
113.8629129723151
 20
82.344513453819104
 30
0.0
 11
113.8629129723151
 21
84.439750828124829
 31
0.0
  0
LINE
  5
459E
  8
0
 10
110.96131043587521
 20
84.439750828124829
 30
0.0
 11
113.8629129723151
 21
84.439750828124829
 31
0.0
  0
LINE
  5
459F
  8
0
 10
90.809777249439605
 20
110.10641797659569
 30
0.0
 11
93.711379785879515
 21
110.10641797659569
 31
0.0
  0
LINE
  5
45A0
  8
0
 10
110.9613104358753
 20
100.6778460669296
 30
0.0
 11
113.8629129723152
 21
100.6778460669296
 31
0.0
  0
LINE
  5
45A1
  8
0
 10
113.8629129723152
 20
100.6778460669296
 30
0.0
 11
113.8629129723152
 21
102.7730834412353
 31
0.0
  0
LINE
  5
45A2
  8
0
 10
110.9613104358753
 20
102.7730834412353
 30
0.0
 11
113.8629129723152
 21
102.7730834412353
 31
0.0
  0
LINE
  5
45A3
  8
0
 10
110.9613104358753
 20
102.7730834412353
 30
0.0
 11
110.9613104358753
 21
100.6778460669296
 31
0.0
  0
LINE
  5
45A4
  8
0
 10
93.711379785879373
 20
86.011180721499287
 30
0.0
 11
93.711379785879373
 21
88.106418095804997
 31
0.0
  0
LINE
  5
45A5
  8
0
 10
93.711379785879515
 20
93.344511531569324
 30
0.0
 11
93.711379785879515
 21
95.439752631165334
 31
0.0
  0
LINE
  5
45A6
  8
0
 10
90.809777249439605
 20
104.34451147196459
 30
0.0
 11
93.711379785879515
 21
104.34451147196459
 31
0.0
  0
LINE
  5
45A7
  8
0
 10
93.711379785879515
 20
104.34451147196459
 30
0.0
 11
93.711379785879515
 21
106.4397525715607
 31
0.0
  0
LINE
  5
45A8
  8
0
 10
90.809777249439605
 20
106.4397525715607
 30
0.0
 11
93.711379785879515
 21
106.4397525715607
 31
0.0
  0
LINE
  5
45A9
  8
0
 10
90.809777249439605
 20
106.4397525715607
 30
0.0
 11
90.809777249439605
 21
104.34451147196459
 31
0.0
  0
LINE
  5
45AA
  8
0
 10
110.96131043587521
 20
88.106418095804997
 30
0.0
 11
113.8629129723151
 21
88.106418095804997
 31
0.0
  0
LINE
  5
45AB
  8
0
 10
90.809777249439492
 20
84.439750828124829
 30
0.0
 11
93.711379785879373
 21
84.439750828124829
 31
0.0
  0
LINE
  5
45AC
  8
0
 10
110.9613104358753
 20
99.106418036200367
 30
0.0
 11
110.9613104358753
 21
97.011180661894628
 31
0.0
  0
LINE
  5
45AD
  8
0
 10
110.9613104358753
 20
97.011180661894628
 30
0.0
 11
113.8629129723152
 21
97.011180661894628
 31
0.0
  0
LINE
  5
45AE
  8
0
 10
113.8629129723152
 20
97.011180661894628
 30
0.0
 11
113.8629129723152
 21
99.106418036200367
 31
0.0
  0
LINE
  5
45AF
  8
0
 10
110.9613104358753
 20
99.106418036200367
 30
0.0
 11
113.8629129723152
 21
99.106418036200367
 31
0.0
  0
LINE
  5
45B0
  8
0
 10
110.9613104358753
 20
108.01118060229
 30
0.0
 11
113.8629129723152
 21
108.01118060229
 31
0.0
  0
LINE
  5
45B1
  8
0
 10
113.8629129723152
 20
108.01118060229
 30
0.0
 11
113.8629129723152
 21
110.10641797659569
 31
0.0
  0
LINE
  5
45B2
  8
0
 10
110.9613104358753
 20
110.10641797659569
 30
0.0
 11
113.8629129723152
 21
110.10641797659569
 31
0.0
  0
LINE
  5
45B3
  8
0
 10
110.9613104358753
 20
110.10641797659569
 30
0.0
 11
110.9613104358753
 21
108.01118060229
 31
0.0
  0
LINE
  5
45B4
  8
0
 10
110.9613104358753
 20
91.773083500840016
 30
0.0
 11
110.96131043587521
 21
89.677846126534305
 31
0.0
  0
LINE
  5
45B5
  8
0
 10
90.809777249439492
 20
82.344513453819104
 30
0.0
 11
93.711379785879373
 21
82.344513453819104
 31
0.0
  0
LINE
  5
45B6
  8
0
 10
110.96131043587521
 20
88.106418095804997
 30
0.0
 11
110.96131043587521
 21
86.011180721499287
 31
0.0
  0
LINE
  5
45B7
  8
0
 10
90.809777249439605
 20
108.01118060229
 30
0.0
 11
93.711379785879515
 21
108.01118060229
 31
0.0
  0
LINE
  5
45B8
  8
0
 10
90.809777249439492
 20
86.011180721499287
 30
0.0
 11
93.711379785879373
 21
86.011180721499287
 31
0.0
  0
LINE
  5
45B9
  8
0
 10
90.809777249439492
 20
88.106418095804997
 30
0.0
 11
93.711379785879373
 21
88.106418095804997
 31
0.0
  0
LINE
  5
45BA
  8
0
 10
90.809777249439492
 20
88.106418095804997
 30
0.0
 11
90.809777249439492
 21
86.011180721499287
 31
0.0
  0
LINE
  5
45BB
  8
0
 10
93.711379785879515
 20
100.6778460669296
 30
0.0
 11
93.711379785879515
 21
102.7730834412353
 31
0.0
  0
LINE
  5
45BC
  8
0
 10
90.809777249439605
 20
102.7730834412353
 30
0.0
 11
93.711379785879515
 21
102.7730834412353
 31
0.0
  0
LINE
  5
45BD
  8
0
 10
90.809777249439605
 20
102.7730834412353
 30
0.0
 11
90.809777249439605
 21
100.6778460669296
 31
0.0
  0
LINE
  5
45BE
  8
0
 10
90.809777249439605
 20
95.439752631165334
 30
0.0
 11
93.711379785879515
 21
95.439752631165334
 31
0.0
  0
LINE
  5
45BF
  8
0
 10
110.9613104358753
 20
106.4397525715607
 30
0.0
 11
113.8629129723152
 21
106.4397525715607
 31
0.0
  0
LINE
  5
45C0
  8
0
 10
90.809777249439605
 20
93.344511531569324
 30
0.0
 11
93.711379785879515
 21
93.344511531569324
 31
0.0
  0
LINE
  5
45C1
  8
0
 10
90.809777249439605
 20
95.439752631165334
 30
0.0
 11
90.809777249439605
 21
93.344511531569324
 31
0.0
  0
LINE
  5
45C2
  8
0
 10
110.9613104358753
 20
91.773083500840016
 30
0.0
 11
113.8629129723152
 21
91.773083500840016
 31
0.0
  0
LINE
  5
45C3
  8
0
 10
110.96131043587521
 20
89.677846126534305
 30
0.0
 11
113.8629129723151
 21
89.677846126534305
 31
0.0
  0
LINE
  5
45C4
  8
0
 10
113.8629129723151
 20
89.677846126534305
 30
0.0
 11
113.8629129723152
 21
91.773083500840016
 31
0.0
  0
LINE
  5
45C5
  8
0
 10
110.96131043587521
 20
86.011180721499287
 30
0.0
 11
113.8629129723151
 21
86.011180721499287
 31
0.0
  0
LINE
  5
45C6
  8
0
 10
110.9613104358753
 20
104.34451147196459
 30
0.0
 11
113.8629129723152
 21
104.34451147196459
 31
0.0
  0
LINE
  5
45C7
  8
0
 10
110.9613104358753
 20
95.439752631165334
 30
0.0
 11
110.9613104358753
 21
93.344511531569324
 31
0.0
  0
LINE
  5
45C8
  8
0
 10
110.9613104358753
 20
95.439752631165334
 30
0.0
 11
113.8629129723152
 21
95.439752631165334
 31
0.0
  0
LINE
  5
45C9
  8
0
 10
93.711379785879515
 20
108.01118060229
 30
0.0
 11
93.711379785879515
 21
110.10641797659569
 31
0.0
  0
LINE
  5
45CA
  8
0
 10
110.9613104358753
 20
93.344511531569324
 30
0.0
 11
113.8629129723152
 21
93.344511531569324
 31
0.0
  0
LINE
  5
45CB
  8
0
 10
93.711379785879373
 20
82.344513453819104
 30
0.0
 11
93.711379785879373
 21
84.439750828124829
 31
0.0
  0
LINE
  5
45CC
  8
0
 10
110.9613104358753
 20
106.4397525715607
 30
0.0
 11
110.9613104358753
 21
104.34451147196459
 31
0.0
  0
LINE
  5
45CD
  8
0
 10
113.8629129723152
 20
93.344511531569324
 30
0.0
 11
113.8629129723152
 21
95.439752631165334
 31
0.0
  0
LINE
  5
45CE
  8
0
 10
113.8629129723151
 20
86.011180721499287
 30
0.0
 11
113.8629129723151
 21
88.106418095804997
 31
0.0
  0
LINE
  5
45CF
  8
0
 10
90.809777249439605
 20
110.10641797659569
 30
0.0
 11
90.809777249439605
 21
108.01118060229
 31
0.0
  0
LINE
  5
45D0
  8
0
 10
90.809777249439492
 20
84.439750828124829
 30
0.0
 11
90.809777249439492
 21
82.344513453819104
 31
0.0
  0
LINE
  5
45D1
  8
0
 10
113.8629129723152
 20
104.34451147196459
 30
0.0
 11
113.8629129723152
 21
106.4397525715607
 31
0.0
  0
LINE
  5
45D3
  8
0
 10
74.409678448780312
 20
81.558799438454457
 30
0.0
 11
130.26301177297429
 21
81.558799438454571
 31
0.0
  0
LINE
  5
45D5
  8
0
 10
74.606345836861976
 20
111.80879741189651
 30
0.0
 11
130.0663443848928
 21
111.80879741189651
 31
0.0
  0
LINE
  5
45D6
  8
0
 10
76.439678539379486
 20
113.64213197705919
 30
0.0
 11
128.23301168237521
 21
113.64213197705919
 31
0.0
  0
LINE
  5
45D7
  8
0
 10
115.7290645510396
 20
108.01118060229
 30
0.0
 11
118.40319620524249
 21
108.01118060229
 31
0.0
  0
LINE
  5
45D8
  8
0
 10
118.40319620524249
 20
108.01118060229
 30
0.0
 11
118.40319620524249
 21
110.10641797659569
 31
0.0
  0
LINE
  5
45D9
  8
0
 10
115.7290645510396
 20
110.10641797659569
 30
0.0
 11
118.40319620524249
 21
110.10641797659569
 31
0.0
  0
LINE
  5
45DA
  8
0
 10
115.7290645510396
 20
110.10641797659569
 30
0.0
 11
115.7290645510396
 21
108.01118060229
 31
0.0
  0
LINE
  5
45DB
  8
0
 10
86.269494016512283
 20
100.6778460669296
 30
0.0
 11
88.943625670715235
 21
100.6778460669296
 31
0.0
  0
LINE
  5
45DC
  8
0
 10
115.7290645510396
 20
97.011180661894628
 30
0.0
 11
118.40319620524249
 21
97.011180661894628
 31
0.0
  0
LINE
  5
45DD
  8
0
 10
86.269494016512155
 20
86.011180721499287
 30
0.0
 11
88.943625670715093
 21
86.011180721499287
 31
0.0
  0
LINE
  5
45DE
  8
0
 10
86.269494016512283
 20
104.34451147196459
 30
0.0
 11
88.943625670715235
 21
104.34451147196459
 31
0.0
  0
LINE
  5
45DF
  8
0
 10
88.943625670715235
 20
104.34451147196459
 30
0.0
 11
88.943625670715235
 21
106.4397525715607
 31
0.0
  0
LINE
  5
45E0
  8
0
 10
86.269494016512283
 20
106.4397525715607
 30
0.0
 11
88.943625670715235
 21
106.4397525715607
 31
0.0
  0
LINE
  5
45E1
  8
0
 10
86.269494016512283
 20
106.4397525715607
 30
0.0
 11
86.269494016512283
 21
104.34451147196459
 31
0.0
  0
LINE
  5
45E2
  8
0
 10
115.7290645510395
 20
82.344513453819104
 30
0.0
 11
118.40319620524239
 21
82.344513453819104
 31
0.0
  0
LINE
  5
45E3
  8
0
 10
118.40319620524239
 20
82.344513453819104
 30
0.0
 11
118.40319620524239
 21
84.439750828124829
 31
0.0
  0
LINE
  5
45E4
  8
0
 10
115.7290645510395
 20
84.439750828124829
 30
0.0
 11
118.40319620524239
 21
84.439750828124829
 31
0.0
  0
LINE
  5
45E5
  8
0
 10
115.7290645510395
 20
84.439750828124829
 30
0.0
 11
115.7290645510395
 21
82.344513453819104
 31
0.0
  0
LINE
  5
45E6
  8
0
 10
115.7290645510396
 20
99.106418036200367
 30
0.0
 11
115.7290645510396
 21
97.011180661894628
 31
0.0
  0
LINE
  5
45E7
  8
0
 10
86.269494016512283
 20
95.439752631165334
 30
0.0
 11
88.943625670715235
 21
95.439752631165334
 31
0.0
  0
LINE
  5
45E8
  8
0
 10
88.943625670715093
 20
82.344513453819104
 30
0.0
 11
88.943625670715093
 21
84.439750828124829
 31
0.0
  0
LINE
  5
45E9
  8
0
 10
115.7290645510396
 20
91.773083500840016
 30
0.0
 11
115.7290645510395
 21
89.677846126534305
 31
0.0
  0
LINE
  5
45EA
  8
0
 10
115.7290645510396
 20
100.6778460669296
 30
0.0
 11
118.40319620524249
 21
100.6778460669296
 31
0.0
  0
LINE
  5
45EB
  8
0
 10
118.40319620524249
 20
100.6778460669296
 30
0.0
 11
118.40319620524249
 21
102.7730834412353
 31
0.0
  0
LINE
  5
45EC
  8
0
 10
115.7290645510396
 20
102.7730834412353
 30
0.0
 11
118.40319620524249
 21
102.7730834412353
 31
0.0
  0
LINE
  5
45ED
  8
0
 10
115.7290645510396
 20
102.7730834412353
 30
0.0
 11
115.7290645510396
 21
100.6778460669296
 31
0.0
  0
LINE
  5
45EE
  8
0
 10
115.7290645510396
 20
104.34451147196459
 30
0.0
 11
118.40319620524249
 21
104.34451147196459
 31
0.0
  0
LINE
  5
45EF
  8
0
 10
115.7290645510396
 20
106.4397525715607
 30
0.0
 11
118.40319620524249
 21
106.4397525715607
 31
0.0
  0
LINE
  5
45F0
  8
0
 10
115.7290645510395
 20
89.677846126534305
 30
0.0
 11
118.40319620524239
 21
89.677846126534305
 31
0.0
  0
LINE
  5
45F1
  8
0
 10
118.40319620524239
 20
89.677846126534305
 30
0.0
 11
118.40319620524249
 21
91.773083500840016
 31
0.0
  0
LINE
  5
45F2
  8
0
 10
115.7290645510396
 20
91.773083500840016
 30
0.0
 11
118.40319620524249
 21
91.773083500840016
 31
0.0
  0
LINE
  5
45F3
  8
0
 10
86.269494016512155
 20
84.439750828124829
 30
0.0
 11
88.943625670715093
 21
84.439750828124829
 31
0.0
  0
LINE
  5
45F4
  8
0
 10
115.7290645510395
 20
88.106418095804997
 30
0.0
 11
118.40319620524239
 21
88.106418095804997
 31
0.0
  0
LINE
  5
45F5
  8
0
 10
115.7290645510396
 20
93.344511531569324
 30
0.0
 11
118.40319620524249
 21
93.344511531569324
 31
0.0
  0
LINE
  5
45F6
  8
0
 10
88.943625670715235
 20
108.01118060229
 30
0.0
 11
88.943625670715235
 21
110.10641797659569
 31
0.0
  0
LINE
  5
45F7
  8
0
 10
86.269494016512283
 20
102.7730834412353
 30
0.0
 11
88.943625670715235
 21
102.7730834412353
 31
0.0
  0
LINE
  5
45F8
  8
0
 10
115.7290645510396
 20
95.439752631165334
 30
0.0
 11
115.7290645510396
 21
93.344511531569324
 31
0.0
  0
LINE
  5
45F9
  8
0
 10
86.269494016512283
 20
93.344511531569324
 30
0.0
 11
88.943625670715235
 21
93.344511531569324
 31
0.0
  0
LINE
  5
45FA
  8
0
 10
88.943625670715235
 20
93.344511531569324
 30
0.0
 11
88.943625670715235
 21
95.439752631165334
 31
0.0
  0
LINE
  5
45FB
  8
0
 10
86.269494016512283
 20
95.439752631165334
 30
0.0
 11
86.269494016512283
 21
93.344511531569324
 31
0.0
  0
LINE
  5
45FC
  8
0
 10
86.269494016512283
 20
97.011180661894628
 30
0.0
 11
88.943625670715235
 21
97.011180661894628
 31
0.0
  0
LINE
  5
45FD
  8
0
 10
88.943625670715235
 20
97.011180661894628
 30
0.0
 11
88.943625670715235
 21
99.106418036200367
 31
0.0
  0
LINE
  5
45FE
  8
0
 10
86.269494016512283
 20
99.106418036200367
 30
0.0
 11
88.943625670715235
 21
99.106418036200367
 31
0.0
  0
LINE
  5
45FF
  8
0
 10
86.269494016512283
 20
99.106418036200367
 30
0.0
 11
86.269494016512283
 21
97.011180661894628
 31
0.0
  0
LINE
  5
4600
  8
0
 10
88.943625670715093
 20
86.011180721499287
 30
0.0
 11
88.943625670715093
 21
88.106418095804997
 31
0.0
  0
LINE
  5
4601
  8
0
 10
86.269494016512155
 20
88.106418095804997
 30
0.0
 11
88.943625670715093
 21
88.106418095804997
 31
0.0
  0
LINE
  5
4602
  8
0
 10
86.269494016512155
 20
88.106418095804997
 30
0.0
 11
86.269494016512155
 21
86.011180721499287
 31
0.0
  0
LINE
  5
4603
  8
0
 10
86.269494016512155
 20
82.344513453819104
 30
0.0
 11
88.943625670715093
 21
82.344513453819104
 31
0.0
  0
LINE
  5
4604
  8
0
 10
86.269494016512155
 20
84.439750828124829
 30
0.0
 11
86.269494016512155
 21
82.344513453819104
 31
0.0
  0
LINE
  5
4605
  8
0
 10
86.269494016512283
 20
108.01118060229
 30
0.0
 11
88.943625670715235
 21
108.01118060229
 31
0.0
  0
LINE
  5
4606
  8
0
 10
118.40319620524249
 20
93.344511531569324
 30
0.0
 11
118.40319620524249
 21
95.439752631165334
 31
0.0
  0
LINE
  5
4607
  8
0
 10
115.7290645510396
 20
95.439752631165334
 30
0.0
 11
118.40319620524249
 21
95.439752631165334
 31
0.0
  0
LINE
  5
4608
  8
0
 10
115.7290645510396
 20
99.106418036200367
 30
0.0
 11
118.40319620524249
 21
99.106418036200367
 31
0.0
  0
LINE
  5
4609
  8
0
 10
88.943625670715235
 20
100.6778460669296
 30
0.0
 11
88.943625670715235
 21
102.7730834412353
 31
0.0
  0
LINE
  5
460A
  8
0
 10
86.269494016512283
 20
102.7730834412353
 30
0.0
 11
86.269494016512283
 21
100.6778460669296
 31
0.0
  0
LINE
  5
460B
  8
0
 10
115.7290645510395
 20
86.011180721499287
 30
0.0
 11
118.40319620524239
 21
86.011180721499287
 31
0.0
  0
LINE
  5
460C
  8
0
 10
86.269494016512155
 20
89.677846126534305
 30
0.0
 11
88.943625670715093
 21
89.677846126534305
 31
0.0
  0
LINE
  5
460D
  8
0
 10
88.943625670715093
 20
89.677846126534305
 30
0.0
 11
88.943625670715235
 21
91.773083500840016
 31
0.0
  0
LINE
  5
460E
  8
0
 10
86.269494016512283
 20
91.773083500840016
 30
0.0
 11
88.943625670715235
 21
91.773083500840016
 31
0.0
  0
LINE
  5
460F
  8
0
 10
86.269494016512283
 20
91.773083500840016
 30
0.0
 11
86.269494016512155
 21
89.677846126534305
 31
0.0
  0
LINE
  5
4610
  8
0
 10
115.7290645510396
 20
106.4397525715607
 30
0.0
 11
115.7290645510396
 21
104.34451147196459
 31
0.0
  0
LINE
  5
4611
  8
0
 10
86.269494016512283
 20
110.10641797659569
 30
0.0
 11
88.943625670715235
 21
110.10641797659569
 31
0.0
  0
LINE
  5
4612
  8
0
 10
86.269494016512283
 20
110.10641797659569
 30
0.0
 11
86.269494016512283
 21
108.01118060229
 31
0.0
  0
LINE
  5
4613
  8
0
 10
118.40319620524239
 20
86.011180721499287
 30
0.0
 11
118.40319620524239
 21
88.106418095804997
 31
0.0
  0
LINE
  5
4614
  8
0
 10
115.7290645510395
 20
88.106418095804997
 30
0.0
 11
115.7290645510395
 21
86.011180721499287
 31
0.0
  0
LINE
  5
4615
  8
0
 10
118.40319620524249
 20
97.011180661894628
 30
0.0
 11
118.40319620524249
 21
99.106418036200367
 31
0.0
  0
LINE
  5
4616
  8
0
 10
118.40319620524249
 20
104.34451147196459
 30
0.0
 11
118.40319620524249
 21
106.4397525715607
 31
0.0
  0
LINE
  5
4619
  8
0
 10
120.0898884430964
 20
88.106418095804997
 30
0.0
 11
122.4552969083626
 21
88.106418095804997
 31
0.0
  0
LINE
  5
461A
  8
0
 10
82.217393313392066
 20
97.011180661894628
 30
0.0
 11
84.582801778658279
 21
97.011180661894628
 31
0.0
  0
LINE
  5
461B
  8
0
 10
84.582801778658279
 20
97.011180661894628
 30
0.0
 11
84.582801778658279
 21
99.106418036200367
 31
0.0
  0
LINE
  5
461C
  8
0
 10
82.217393313392066
 20
99.106418036200367
 30
0.0
 11
84.582801778658279
 21
99.106418036200367
 31
0.0
  0
LINE
  5
461D
  8
0
 10
82.217393313392066
 20
99.106418036200367
 30
0.0
 11
82.217393313392066
 21
97.011180661894628
 31
0.0
  0
LINE
  5
461E
  8
0
 10
82.217393313392066
 20
100.6778460669296
 30
0.0
 11
84.582801778658279
 21
100.6778460669296
 31
0.0
  0
LINE
  5
461F
  8
0
 10
82.217393313391923
 20
89.677846126534305
 30
0.0
 11
84.582801778658165
 21
89.677846126534305
 31
0.0
  0
LINE
  5
4620
  8
0
 10
84.582801778658165
 20
89.677846126534305
 30
0.0
 11
84.582801778658279
 21
91.773083500840016
 31
0.0
  0
LINE
  5
4621
  8
0
 10
82.217393313392066
 20
91.773083500840016
 30
0.0
 11
84.582801778658279
 21
91.773083500840016
 31
0.0
  0
LINE
  5
4622
  8
0
 10
82.217393313392066
 20
91.773083500840016
 30
0.0
 11
82.217393313391923
 21
89.677846126534305
 31
0.0
  0
LINE
  5
4623
  8
0
 10
120.0898884430964
 20
82.344513453819104
 30
0.0
 11
122.4552969083626
 21
82.344513453819104
 31
0.0
  0
LINE
  5
4624
  8
0
 10
122.4552969083626
 20
82.344513453819104
 30
0.0
 11
122.4552969083626
 21
84.439750828124829
 31
0.0
  0
LINE
  5
4625
  8
0
 10
120.0898884430964
 20
84.439750828124829
 30
0.0
 11
122.4552969083626
 21
84.439750828124829
 31
0.0
  0
LINE
  5
4626
  8
0
 10
120.0898884430964
 20
84.439750828124829
 30
0.0
 11
120.0898884430964
 21
82.344513453819104
 31
0.0
  0
LINE
  5
4627
  8
0
 10
82.217393313392066
 20
93.344511531569324
 30
0.0
 11
84.582801778658279
 21
93.344511531569324
 31
0.0
  0
LINE
  5
4628
  8
0
 10
82.217393313392066
 20
95.439752631165334
 30
0.0
 11
84.582801778658279
 21
95.439752631165334
 31
0.0
  0
LINE
  5
4629
  8
0
 10
84.582801778658279
 20
93.344511531569324
 30
0.0
 11
84.582801778658279
 21
95.439752631165334
 31
0.0
  0
LINE
  5
462A
  8
0
 10
120.0898884430965
 20
100.6778460669296
 30
0.0
 11
122.4552969083627
 21
100.6778460669296
 31
0.0
  0
LINE
  5
462B
  8
0
 10
122.4552969083627
 20
100.6778460669296
 30
0.0
 11
122.4552969083627
 21
102.7730834412353
 31
0.0
  0
LINE
  5
462C
  8
0
 10
120.0898884430965
 20
102.7730834412353
 30
0.0
 11
122.4552969083627
 21
102.7730834412353
 31
0.0
  0
LINE
  5
462D
  8
0
 10
120.0898884430965
 20
102.7730834412353
 30
0.0
 11
120.0898884430965
 21
100.6778460669296
 31
0.0
  0
LINE
  5
462E
  8
0
 10
120.0898884430965
 20
99.106418036200367
 30
0.0
 11
120.0898884430965
 21
97.011180661894628
 31
0.0
  0
LINE
  5
462F
  8
0
 10
84.582801778658279
 20
108.01118060229
 30
0.0
 11
84.582801778658279
 21
110.10641797659569
 31
0.0
  0
LINE
  5
4630
  8
0
 10
120.0898884430965
 20
93.344511531569324
 30
0.0
 11
122.4552969083627
 21
93.344511531569324
 31
0.0
  0
LINE
  5
4631
  8
0
 10
122.4552969083627
 20
93.344511531569324
 30
0.0
 11
122.4552969083627
 21
95.439752631165334
 31
0.0
  0
LINE
  5
4632
  8
0
 10
120.0898884430965
 20
95.439752631165334
 30
0.0
 11
122.4552969083627
 21
95.439752631165334
 31
0.0
  0
LINE
  5
4633
  8
0
 10
120.0898884430965
 20
95.439752631165334
 30
0.0
 11
120.0898884430965
 21
93.344511531569324
 31
0.0
  0
LINE
  5
4634
  8
0
 10
120.0898884430964
 20
89.677846126534305
 30
0.0
 11
122.4552969083626
 21
89.677846126534305
 31
0.0
  0
LINE
  5
4635
  8
0
 10
122.4552969083626
 20
89.677846126534305
 30
0.0
 11
122.4552969083627
 21
91.773083500840016
 31
0.0
  0
LINE
  5
4636
  8
0
 10
120.0898884430965
 20
91.773083500840016
 30
0.0
 11
122.4552969083627
 21
91.773083500840016
 31
0.0
  0
LINE
  5
4637
  8
0
 10
120.0898884430965
 20
91.773083500840016
 30
0.0
 11
120.0898884430964
 21
89.677846126534305
 31
0.0
  0
LINE
  5
4638
  8
0
 10
82.217393313392066
 20
104.34451147196459
 30
0.0
 11
84.582801778658279
 21
104.34451147196459
 31
0.0
  0
LINE
  5
4639
  8
0
 10
84.582801778658279
 20
104.34451147196459
 30
0.0
 11
84.582801778658279
 21
106.4397525715607
 31
0.0
  0
LINE
  5
463A
  8
0
 10
82.217393313392066
 20
106.4397525715607
 30
0.0
 11
84.582801778658279
 21
106.4397525715607
 31
0.0
  0
LINE
  5
463B
  8
0
 10
82.217393313392066
 20
106.4397525715607
 30
0.0
 11
82.217393313392066
 21
104.34451147196459
 31
0.0
  0
LINE
  5
463C
  8
0
 10
84.582801778658279
 20
100.6778460669296
 30
0.0
 11
84.582801778658279
 21
102.7730834412353
 31
0.0
  0
LINE
  5
463D
  8
0
 10
82.217393313392066
 20
102.7730834412353
 30
0.0
 11
84.582801778658279
 21
102.7730834412353
 31
0.0
  0
LINE
  5
463E
  8
0
 10
82.217393313392066
 20
102.7730834412353
 30
0.0
 11
82.217393313392066
 21
100.6778460669296
 31
0.0
  0
LINE
  5
463F
  8
0
 10
120.0898884430965
 20
106.4397525715607
 30
0.0
 11
120.0898884430965
 21
104.34451147196459
 31
0.0
  0
LINE
  5
4640
  8
0
 10
120.0898884430965
 20
108.01118060229
 30
0.0
 11
122.4552969083627
 21
108.01118060229
 31
0.0
  0
LINE
  5
4641
  8
0
 10
122.4552969083627
 20
108.01118060229
 30
0.0
 11
122.4552969083627
 21
110.10641797659569
 31
0.0
  0
LINE
  5
4642
  8
0
 10
120.0898884430965
 20
110.10641797659569
 30
0.0
 11
122.4552969083627
 21
110.10641797659569
 31
0.0
  0
LINE
  5
4643
  8
0
 10
120.0898884430965
 20
110.10641797659569
 30
0.0
 11
120.0898884430965
 21
108.01118060229
 31
0.0
  0
LINE
  5
4644
  8
0
 10
84.582801778658165
 20
86.011180721499287
 30
0.0
 11
84.582801778658165
 21
88.106418095804997
 31
0.0
  0
LINE
  5
4645
  8
0
 10
82.217393313391923
 20
82.344513453819104
 30
0.0
 11
84.582801778658165
 21
82.344513453819104
 31
0.0
  0
LINE
  5
4646
  8
0
 10
84.582801778658165
 20
82.344513453819104
 30
0.0
 11
84.582801778658165
 21
84.439750828124829
 31
0.0
  0
LINE
  5
4647
  8
0
 10
82.217393313391923
 20
84.439750828124829
 30
0.0
 11
84.582801778658165
 21
84.439750828124829
 31
0.0
  0
LINE
  5
4648
  8
0
 10
82.217393313391923
 20
84.439750828124829
 30
0.0
 11
82.217393313391923
 21
82.344513453819104
 31
0.0
  0
LINE
  5
4649
  8
0
 10
120.0898884430965
 20
99.106418036200367
 30
0.0
 11
122.4552969083627
 21
99.106418036200367
 31
0.0
  0
LINE
  5
464A
  8
0
 10
120.0898884430965
 20
104.34451147196459
 30
0.0
 11
122.4552969083627
 21
104.34451147196459
 31
0.0
  0
LINE
  5
464B
  8
0
 10
122.4552969083627
 20
104.34451147196459
 30
0.0
 11
122.4552969083627
 21
106.4397525715607
 31
0.0
  0
LINE
  5
464C
  8
0
 10
120.0898884430965
 20
106.4397525715607
 30
0.0
 11
122.4552969083627
 21
106.4397525715607
 31
0.0
  0
LINE
  5
464D
  8
0
 10
82.217393313392066
 20
108.01118060229
 30
0.0
 11
84.582801778658279
 21
108.01118060229
 31
0.0
  0
LINE
  5
464E
  8
0
 10
82.217393313392066
 20
110.10641797659569
 30
0.0
 11
84.582801778658279
 21
110.10641797659569
 31
0.0
  0
LINE
  5
464F
  8
0
 10
82.217393313392066
 20
110.10641797659569
 30
0.0
 11
82.217393313392066
 21
108.01118060229
 31
0.0
  0
LINE
  5
4650
  8
0
 10
120.0898884430965
 20
97.011180661894628
 30
0.0
 11
122.4552969083627
 21
97.011180661894628
 31
0.0
  0
LINE
  5
4651
  8
0
 10
122.4552969083627
 20
97.011180661894628
 30
0.0
 11
122.4552969083627
 21
99.106418036200367
 31
0.0
  0
LINE
  5
4652
  8
0
 10
82.217393313391923
 20
88.106418095804997
 30
0.0
 11
84.582801778658165
 21
88.106418095804997
 31
0.0
  0
LINE
  5
4653
  8
0
 10
120.0898884430964
 20
86.011180721499287
 30
0.0
 11
122.4552969083626
 21
86.011180721499287
 31
0.0
  0
LINE
  5
4654
  8
0
 10
82.217393313391923
 20
86.011180721499287
 30
0.0
 11
84.582801778658165
 21
86.011180721499287
 31
0.0
  0
LINE
  5
4655
  8
0
 10
120.0898884430964
 20
88.106418095804997
 30
0.0
 11
120.0898884430964
 21
86.011180721499287
 31
0.0
  0
LINE
  5
4656
  8
0
 10
82.217393313391923
 20
88.106418095804997
 30
0.0
 11
82.217393313391923
 21
86.011180721499287
 31
0.0
  0
LINE
  5
4657
  8
0
 10
82.217393313392066
 20
95.439752631165334
 30
0.0
 11
82.217393313392066
 21
93.344511531569324
 31
0.0
  0
LINE
  5
4658
  8
0
 10
122.4552969083626
 20
86.011180721499287
 30
0.0
 11
122.4552969083626
 21
88.106418095804997
 31
0.0
  0
LINE
  5
4659
  8
0
 10
78.776597847088112
 20
89.677846126534305
 30
0.0
 11
80.761410166366815
 21
89.677846126534305
 31
0.0
  0
LINE
  5
465A
  8
0
 10
80.761410166366815
 20
89.677846126534305
 30
0.0
 11
80.761410166366943
 21
91.773083500840016
 31
0.0
  0
LINE
  5
465B
  8
0
 10
78.776597847088226
 20
91.773083500840016
 30
0.0
 11
80.761410166366943
 21
91.773083500840016
 31
0.0
  0
LINE
  5
465C
  8
0
 10
78.776597847088226
 20
91.773083500840016
 30
0.0
 11
78.776597847088112
 21
89.677846126534305
 31
0.0
  0
LINE
  5
465D
  8
0
 10
78.776597847088112
 20
86.011180721499287
 30
0.0
 11
80.761410166366815
 21
86.011180721499287
 31
0.0
  0
LINE
  5
465E
  8
0
 10
80.761410166366943
 20
97.011180661894628
 30
0.0
 11
80.761410166366943
 21
99.106418036200367
 31
0.0
  0
LINE
  5
465F
  8
0
 10
78.776597847088112
 20
88.106418095804997
 30
0.0
 11
80.761410166366815
 21
88.106418095804997
 31
0.0
  0
LINE
  5
4660
  8
0
 10
80.761410166366943
 20
100.6778460669296
 30
0.0
 11
80.761410166366943
 21
102.7730834412353
 31
0.0
  0
LINE
  5
4661
  8
0
 10
78.776597847088226
 20
93.344511531569324
 30
0.0
 11
80.761410166366943
 21
93.344511531569324
 31
0.0
  0
LINE
  5
4662
  8
0
 10
78.776597847088226
 20
97.011180661894628
 30
0.0
 11
80.761410166366943
 21
97.011180661894628
 31
0.0
  0
LINE
  5
4663
  8
0
 10
78.776597847088226
 20
99.106418036200367
 30
0.0
 11
80.761410166366943
 21
99.106418036200367
 31
0.0
  0
LINE
  5
4664
  8
0
 10
78.776597847088226
 20
99.106418036200367
 30
0.0
 11
78.776597847088226
 21
97.011180661894628
 31
0.0
  0
LINE
  5
4665
  8
0
 10
123.91128005538781
 20
99.106418036200367
 30
0.0
 11
123.91128005538781
 21
97.011180661894628
 31
0.0
  0
LINE
  5
4666
  8
0
 10
123.91128005538771
 20
82.344513453819104
 30
0.0
 11
125.89609237466649
 21
82.344513453819104
 31
0.0
  0
LINE
  5
4667
  8
0
 10
125.89609237466649
 20
82.344513453819104
 30
0.0
 11
125.89609237466649
 21
84.439750828124829
 31
0.0
  0
LINE
  5
4668
  8
0
 10
123.91128005538771
 20
84.439750828124829
 30
0.0
 11
125.89609237466649
 21
84.439750828124829
 31
0.0
  0
LINE
  5
4669
  8
0
 10
123.91128005538771
 20
84.439750828124829
 30
0.0
 11
123.91128005538771
 21
82.344513453819104
 31
0.0
  0
LINE
  5
466A
  8
0
 10
123.91128005538781
 20
110.10641797659569
 30
0.0
 11
123.91128005538781
 21
108.01118060229
 31
0.0
  0
LINE
  5
466B
  8
0
 10
123.91128005538771
 20
89.677846126534305
 30
0.0
 11
125.89609237466649
 21
89.677846126534305
 31
0.0
  0
LINE
  5
466C
  8
0
 10
125.89609237466649
 20
89.677846126534305
 30
0.0
 11
125.89609237466659
 21
91.773083500840016
 31
0.0
  0
LINE
  5
466D
  8
0
 10
123.91128005538781
 20
91.773083500840016
 30
0.0
 11
125.89609237466659
 21
91.773083500840016
 31
0.0
  0
LINE
  5
466E
  8
0
 10
123.91128005538781
 20
91.773083500840016
 30
0.0
 11
123.91128005538771
 21
89.677846126534305
 31
0.0
  0
LINE
  5
466F
  8
0
 10
78.776597847088226
 20
100.6778460669296
 30
0.0
 11
80.761410166366943
 21
100.6778460669296
 31
0.0
  0
LINE
  5
4670
  8
0
 10
80.761410166366943
 20
93.344511531569324
 30
0.0
 11
80.761410166366943
 21
95.439752631165334
 31
0.0
  0
LINE
  5
4671
  8
0
 10
123.91128005538771
 20
88.106418095804997
 30
0.0
 11
125.89609237466649
 21
88.106418095804997
 31
0.0
  0
LINE
  5
4672
  8
0
 10
123.91128005538781
 20
95.439752631165334
 30
0.0
 11
125.89609237466659
 21
95.439752631165334
 31
0.0
  0
LINE
  5
4673
  8
0
 10
123.91128005538781
 20
93.344511531569324
 30
0.0
 11
125.89609237466659
 21
93.344511531569324
 31
0.0
  0
LINE
  5
4674
  8
0
 10
78.776597847088226
 20
95.439752631165334
 30
0.0
 11
80.761410166366943
 21
95.439752631165334
 31
0.0
  0
LINE
  5
4675
  8
0
 10
123.91128005538781
 20
102.7730834412353
 30
0.0
 11
123.91128005538781
 21
100.6778460669296
 31
0.0
  0
LINE
  5
4676
  8
0
 10
80.761410166366943
 20
104.34451147196459
 30
0.0
 11
80.761410166366943
 21
106.4397525715607
 31
0.0
  0
LINE
  5
4677
  8
0
 10
78.776597847088112
 20
82.344513453819104
 30
0.0
 11
80.761410166366815
 21
82.344513453819104
 31
0.0
  0
LINE
  5
4678
  8
0
 10
78.776597847088226
 20
102.7730834412353
 30
0.0
 11
80.761410166366943
 21
102.7730834412353
 31
0.0
  0
LINE
  5
4679
  8
0
 10
123.91128005538781
 20
97.011180661894628
 30
0.0
 11
125.89609237466659
 21
97.011180661894628
 31
0.0
  0
LINE
  5
467A
  8
0
 10
125.89609237466659
 20
97.011180661894628
 30
0.0
 11
125.89609237466659
 21
99.106418036200367
 31
0.0
  0
LINE
  5
467B
  8
0
 10
123.91128005538781
 20
99.106418036200367
 30
0.0
 11
125.89609237466659
 21
99.106418036200367
 31
0.0
  0
LINE
  5
467C
  8
0
 10
78.776597847088226
 20
104.34451147196459
 30
0.0
 11
80.761410166366943
 21
104.34451147196459
 31
0.0
  0
LINE
  5
467D
  8
0
 10
78.776597847088226
 20
106.4397525715607
 30
0.0
 11
80.761410166366943
 21
106.4397525715607
 31
0.0
  0
LINE
  5
467E
  8
0
 10
78.776597847088226
 20
106.4397525715607
 30
0.0
 11
78.776597847088226
 21
104.34451147196459
 31
0.0
  0
LINE
  5
467F
  8
0
 10
78.776597847088226
 20
102.7730834412353
 30
0.0
 11
78.776597847088226
 21
100.6778460669296
 31
0.0
  0
LINE
  5
4680
  8
0
 10
80.761410166366815
 20
82.344513453819104
 30
0.0
 11
80.761410166366815
 21
84.439750828124829
 31
0.0
  0
LINE
  5
4681
  8
0
 10
123.91128005538781
 20
95.439752631165334
 30
0.0
 11
123.91128005538781
 21
93.344511531569324
 31
0.0
  0
LINE
  5
4682
  8
0
 10
123.91128005538771
 20
86.011180721499287
 30
0.0
 11
125.89609237466649
 21
86.011180721499287
 31
0.0
  0
LINE
  5
4683
  8
0
 10
80.761410166366943
 20
108.01118060229
 30
0.0
 11
80.761410166366943
 21
110.10641797659569
 31
0.0
  0
LINE
  5
4684
  8
0
 10
123.91128005538781
 20
100.6778460669296
 30
0.0
 11
125.89609237466659
 21
100.6778460669296
 31
0.0
  0
LINE
  5
4685
  8
0
 10
125.89609237466659
 20
100.6778460669296
 30
0.0
 11
125.89609237466659
 21
102.7730834412353
 31
0.0
  0
LINE
  5
4686
  8
0
 10
123.91128005538781
 20
102.7730834412353
 30
0.0
 11
125.89609237466659
 21
102.7730834412353
 31
0.0
  0
LINE
  5
4687
  8
0
 10
78.776597847088226
 20
108.01118060229
 30
0.0
 11
80.761410166366943
 21
108.01118060229
 31
0.0
  0
LINE
  5
4688
  8
0
 10
80.761410166366815
 20
86.011180721499287
 30
0.0
 11
80.761410166366815
 21
88.106418095804997
 31
0.0
  0
LINE
  5
4689
  8
0
 10
123.91128005538771
 20
88.106418095804997
 30
0.0
 11
123.91128005538771
 21
86.011180721499287
 31
0.0
  0
LINE
  5
468A
  8
0
 10
78.776597847088112
 20
84.439750828124829
 30
0.0
 11
80.761410166366815
 21
84.439750828124829
 31
0.0
  0
LINE
  5
468B
  8
0
 10
123.91128005538781
 20
110.10641797659569
 30
0.0
 11
125.89609237466659
 21
110.10641797659569
 31
0.0
  0
LINE
  5
468C
  8
0
 10
125.89609237466649
 20
86.011180721499287
 30
0.0
 11
125.89609237466649
 21
88.106418095804997
 31
0.0
  0
LINE
  5
468D
  8
0
 10
78.776597847088226
 20
110.10641797659569
 30
0.0
 11
80.761410166366943
 21
110.10641797659569
 31
0.0
  0
LINE
  5
468E
  8
0
 10
123.91128005538781
 20
104.34451147196459
 30
0.0
 11
125.89609237466659
 21
104.34451147196459
 31
0.0
  0
LINE
  5
468F
  8
0
 10
125.89609237466659
 20
104.34451147196459
 30
0.0
 11
125.89609237466659
 21
106.4397525715607
 31
0.0
  0
LINE
  5
4690
  8
0
 10
123.91128005538781
 20
106.4397525715607
 30
0.0
 11
125.89609237466659
 21
106.4397525715607
 31
0.0
  0
LINE
  5
4691
  8
0
 10
123.91128005538781
 20
106.4397525715607
 30
0.0
 11
123.91128005538781
 21
104.34451147196459
 31
0.0
  0
LINE
  5
4692
  8
0
 10
123.91128005538781
 20
108.01118060229
 30
0.0
 11
125.89609237466659
 21
108.01118060229
 31
0.0
  0
LINE
  5
4693
  8
0
 10
125.89609237466659
 20
108.01118060229
 30
0.0
 11
125.89609237466659
 21
110.10641797659569
 31
0.0
  0
LINE
  5
4694
  8
0
 10
125.89609237466659
 20
93.344511531569324
 30
0.0
 11
125.89609237466659
 21
95.439752631165334
 31
0.0
  0
LINE
  5
4695
  8
0
 10
78.776597847088226
 20
110.10641797659569
 30
0.0
 11
78.776597847088226
 21
108.01118060229
 31
0.0
  0
LINE
  5
4696
  8
0
 10
78.776597847088226
 20
95.439752631165334
 30
0.0
 11
78.776597847088226
 21
93.344511531569324
 31
0.0
  0
LINE
  5
4697
  8
0
 10
78.776597847088112
 20
84.439750828124829
 30
0.0
 11
78.776597847088112
 21
82.344513453819104
 31
0.0
  0
LINE
  5
4698
  8
0
 10
78.776597847088112
 20
88.106418095804997
 30
0.0
 11
78.776597847088112
 21
86.011180721499287
 31
0.0
  0
LINE
  5
4699
  8
0
 10
127.07712674592339
 20
102.7730834412353
 30
0.0
 11
127.07712674592339
 21
100.6778460669296
 31
0.0
  0
LINE
  5
469A
  8
0
 10
77.595563475831284
 20
82.344513453819104
 30
0.0
 11
77.595563475831284
 21
84.439750828124829
 31
0.0
  0
LINE
  5
469B
  8
0
 10
127.07712674592329
 20
82.344513453819104
 30
0.0
 11
128.621037919863
 21
82.344513453819104
 31
0.0
  0
LINE
  5
469C
  8
0
 10
128.621037919863
 20
82.344513453819104
 30
0.0
 11
128.621037919863
 21
84.439750828124829
 31
0.0
  0
LINE
  5
469D
  8
0
 10
127.07712674592329
 20
84.439750828124829
 30
0.0
 11
128.621037919863
 21
84.439750828124829
 31
0.0
  0
LINE
  5
469E
  8
0
 10
127.07712674592329
 20
84.439750828124829
 30
0.0
 11
127.07712674592329
 21
82.344513453819104
 31
0.0
  0
LINE
  5
469F
  8
0
 10
76.051652301891693
 20
93.344511531569324
 30
0.0
 11
77.595563475831383
 21
93.344511531569324
 31
0.0
  0
LINE
  5
46A0
  8
0
 10
76.051652301891693
 20
108.01118060229
 30
0.0
 11
77.595563475831383
 21
108.01118060229
 31
0.0
  0
LINE
  5
46A1
  8
0
 10
77.595563475831383
 20
108.01118060229
 30
0.0
 11
77.595563475831383
 21
110.10641797659569
 31
0.0
  0
LINE
  5
46A2
  8
0
 10
76.051652301891693
 20
110.10641797659569
 30
0.0
 11
77.595563475831383
 21
110.10641797659569
 31
0.0
  0
LINE
  5
46A3
  8
0
 10
76.051652301891693
 20
110.10641797659569
 30
0.0
 11
76.051652301891693
 21
108.01118060229
 31
0.0
  0
LINE
  5
46A4
  8
0
 10
127.07712674592339
 20
97.011180661894628
 30
0.0
 11
128.62103791986311
 21
97.011180661894628
 31
0.0
  0
LINE
  5
46A5
  8
0
 10
127.07712674592339
 20
95.439752631165334
 30
0.0
 11
128.62103791986311
 21
95.439752631165334
 31
0.0
  0
LINE
  5
46A6
  8
0
 10
127.07712674592329
 20
89.677846126534305
 30
0.0
 11
128.621037919863
 21
89.677846126534305
 31
0.0
  0
LINE
  5
46A7
  8
0
 10
128.621037919863
 20
89.677846126534305
 30
0.0
 11
128.62103791986311
 21
91.773083500840016
 31
0.0
  0
LINE
  5
46A8
  8
0
 10
127.07712674592339
 20
91.773083500840016
 30
0.0
 11
128.62103791986311
 21
91.773083500840016
 31
0.0
  0
LINE
  5
46A9
  8
0
 10
127.07712674592339
 20
91.773083500840016
 30
0.0
 11
127.07712674592329
 21
89.677846126534305
 31
0.0
  0
LINE
  5
46AA
  8
0
 10
127.07712674592339
 20
99.106418036200367
 30
0.0
 11
127.07712674592339
 21
97.011180661894628
 31
0.0
  0
LINE
  5
46AB
  8
0
 10
76.051652301891565
 20
86.011180721499287
 30
0.0
 11
77.595563475831284
 21
86.011180721499287
 31
0.0
  0
LINE
  5
46AC
  8
0
 10
76.051652301891565
 20
82.344513453819104
 30
0.0
 11
77.595563475831284
 21
82.344513453819104
 31
0.0
  0
LINE
  5
46AD
  8
0
 10
76.051652301891565
 20
84.439750828124829
 30
0.0
 11
77.595563475831284
 21
84.439750828124829
 31
0.0
  0
LINE
  5
46AE
  8
0
 10
76.051652301891565
 20
84.439750828124829
 30
0.0
 11
76.051652301891565
 21
82.344513453819104
 31
0.0
  0
LINE
  5
46AF
  8
0
 10
127.07712674592339
 20
95.439752631165334
 30
0.0
 11
127.07712674592339
 21
93.344511531569324
 31
0.0
  0
LINE
  5
46B0
  8
0
 10
127.07712674592329
 20
88.106418095804997
 30
0.0
 11
128.621037919863
 21
88.106418095804997
 31
0.0
  0
LINE
  5
46B1
  8
0
 10
127.07712674592339
 20
104.34451147196459
 30
0.0
 11
128.62103791986311
 21
104.34451147196459
 31
0.0
  0
LINE
  5
46B2
  8
0
 10
76.051652301891693
 20
100.6778460669296
 30
0.0
 11
77.595563475831383
 21
100.6778460669296
 31
0.0
  0
LINE
  5
46B3
  8
0
 10
128.62103791986311
 20
97.011180661894628
 30
0.0
 11
128.62103791986311
 21
99.106418036200367
 31
0.0
  0
LINE
  5
46B4
  8
0
 10
127.07712674592339
 20
99.106418036200367
 30
0.0
 11
128.62103791986311
 21
99.106418036200367
 31
0.0
  0
LINE
  5
46B5
  8
0
 10
127.07712674592339
 20
100.6778460669296
 30
0.0
 11
128.62103791986311
 21
100.6778460669296
 31
0.0
  0
LINE
  5
46B6
  8
0
 10
128.62103791986311
 20
100.6778460669296
 30
0.0
 11
128.62103791986311
 21
102.7730834412353
 31
0.0
  0
LINE
  5
46B7
  8
0
 10
127.07712674592339
 20
102.7730834412353
 30
0.0
 11
128.62103791986311
 21
102.7730834412353
 31
0.0
  0
LINE
  5
46B8
  8
0
 10
76.051652301891565
 20
89.677846126534305
 30
0.0
 11
77.595563475831284
 21
89.677846126534305
 31
0.0
  0
LINE
  5
46B9
  8
0
 10
77.595563475831284
 20
89.677846126534305
 30
0.0
 11
77.595563475831383
 21
91.773083500840016
 31
0.0
  0
LINE
  5
46BA
  8
0
 10
76.051652301891693
 20
91.773083500840016
 30
0.0
 11
77.595563475831383
 21
91.773083500840016
 31
0.0
  0
LINE
  5
46BB
  8
0
 10
76.051652301891693
 20
91.773083500840016
 30
0.0
 11
76.051652301891565
 21
89.677846126534305
 31
0.0
  0
LINE
  5
46BC
  8
0
 10
127.07712674592339
 20
93.344511531569324
 30
0.0
 11
128.62103791986311
 21
93.344511531569324
 31
0.0
  0
LINE
  5
46BD
  8
0
 10
76.051652301891565
 20
88.106418095804997
 30
0.0
 11
77.595563475831284
 21
88.106418095804997
 31
0.0
  0
LINE
  5
46BE
  8
0
 10
127.07712674592329
 20
88.106418095804997
 30
0.0
 11
127.07712674592329
 21
86.011180721499287
 31
0.0
  0
LINE
  5
46BF
  8
0
 10
76.051652301891693
 20
95.439752631165334
 30
0.0
 11
77.595563475831383
 21
95.439752631165334
 31
0.0
  0
LINE
  5
46C0
  8
0
 10
127.07712674592339
 20
110.10641797659569
 30
0.0
 11
127.07712674592339
 21
108.01118060229
 31
0.0
  0
LINE
  5
46C1
  8
0
 10
127.07712674592339
 20
108.01118060229
 30
0.0
 11
128.62103791986311
 21
108.01118060229
 31
0.0
  0
LINE
  5
46C2
  8
0
 10
128.62103791986311
 20
108.01118060229
 30
0.0
 11
128.62103791986311
 21
110.10641797659569
 31
0.0
  0
LINE
  5
46C3
  8
0
 10
127.07712674592339
 20
110.10641797659569
 30
0.0
 11
128.62103791986311
 21
110.10641797659569
 31
0.0
  0
LINE
  5
46C4
  8
0
 10
127.07712674592339
 20
106.4397525715607
 30
0.0
 11
128.62103791986311
 21
106.4397525715607
 31
0.0
  0
LINE
  5
46C5
  8
0
 10
76.051652301891693
 20
104.34451147196459
 30
0.0
 11
77.595563475831383
 21
104.34451147196459
 31
0.0
  0
LINE
  5
46C6
  8
0
 10
77.595563475831284
 20
86.011180721499287
 30
0.0
 11
77.595563475831284
 21
88.106418095804997
 31
0.0
  0
LINE
  5
46C7
  8
0
 10
127.07712674592339
 20
106.4397525715607
 30
0.0
 11
127.07712674592339
 21
104.34451147196459
 31
0.0
  0
LINE
  5
46C8
  8
0
 10
77.595563475831383
 20
97.011180661894628
 30
0.0
 11
77.595563475831383
 21
99.106418036200367
 31
0.0
  0
LINE
  5
46C9
  8
0
 10
76.051652301891693
 20
102.7730834412353
 30
0.0
 11
77.595563475831383
 21
102.7730834412353
 31
0.0
  0
LINE
  5
46CA
  8
0
 10
77.595563475831383
 20
104.34451147196459
 30
0.0
 11
77.595563475831383
 21
106.4397525715607
 31
0.0
  0
LINE
  5
46CB
  8
0
 10
76.051652301891693
 20
106.4397525715607
 30
0.0
 11
77.595563475831383
 21
106.4397525715607
 31
0.0
  0
LINE
  5
46CC
  8
0
 10
76.051652301891693
 20
106.4397525715607
 30
0.0
 11
76.051652301891693
 21
104.34451147196459
 31
0.0
  0
LINE
  5
46CD
  8
0
 10
128.62103791986311
 20
104.34451147196459
 30
0.0
 11
128.62103791986311
 21
106.4397525715607
 31
0.0
  0
LINE
  5
46CE
  8
0
 10
76.051652301891693
 20
97.011180661894628
 30
0.0
 11
77.595563475831383
 21
97.011180661894628
 31
0.0
  0
LINE
  5
46CF
  8
0
 10
76.051652301891693
 20
99.106418036200367
 30
0.0
 11
77.595563475831383
 21
99.106418036200367
 31
0.0
  0
LINE
  5
46D0
  8
0
 10
76.051652301891693
 20
99.106418036200367
 30
0.0
 11
76.051652301891693
 21
97.011180661894628
 31
0.0
  0
LINE
  5
46D1
  8
0
 10
128.62103791986311
 20
93.344511531569324
 30
0.0
 11
128.62103791986311
 21
95.439752631165334
 31
0.0
  0
LINE
  5
46D2
  8
0
 10
127.07712674592329
 20
86.011180721499287
 30
0.0
 11
128.621037919863
 21
86.011180721499287
 31
0.0
  0
LINE
  5
46D3
  8
0
 10
128.621037919863
 20
86.011180721499287
 30
0.0
 11
128.621037919863
 21
88.106418095804997
 31
0.0
  0
LINE
  5
46D4
  8
0
 10
77.595563475831383
 20
100.6778460669296
 30
0.0
 11
77.595563475831383
 21
102.7730834412353
 31
0.0
  0
LINE
  5
46D5
  8
0
 10
76.051652301891693
 20
102.7730834412353
 30
0.0
 11
76.051652301891693
 21
100.6778460669296
 31
0.0
  0
LINE
  5
46D6
  8
0
 10
77.595563475831383
 20
93.344511531569324
 30
0.0
 11
77.595563475831383
 21
95.439752631165334
 31
0.0
  0
LINE
  5
46D7
  8
0
 10
76.051652301891565
 20
88.106418095804997
 30
0.0
 11
76.051652301891565
 21
86.011180721499287
 31
0.0
  0
LINE
  5
46D8
  8
0
 10
76.051652301891693
 20
95.439752631165334
 30
0.0
 11
76.051652301891693
 21
93.344511531569324
 31
0.0
  0
LINE
  5
46D9
  8
0
 10
129.49123779390661
 20
110.10641797659569
 30
0.0
 11
129.49123779390661
 21
108.01118060229
 31
0.0
  0
LINE
  5
46DA
  8
0
 10
74.125354979976066
 20
104.34451147196459
 30
0.0
 11
75.181452427848214
 21
104.34451147196459
 31
0.0
  0
LINE
  5
46DB
  8
0
 10
74.125354979976066
 20
108.01118060229
 30
0.0
 11
75.181452427848214
 21
108.01118060229
 31
0.0
  0
LINE
  5
46DC
  8
0
 10
75.181452427848214
 20
108.01118060229
 30
0.0
 11
75.181452427848214
 21
110.10641797659569
 31
0.0
  0
LINE
  5
46DD
  8
0
 10
74.125354979976066
 20
110.10641797659569
 30
0.0
 11
75.181452427848214
 21
110.10641797659569
 31
0.0
  0
LINE
  5
46DE
  8
0
 10
74.125354979976066
 20
110.10641797659569
 30
0.0
 11
74.125354979976066
 21
108.01118060229
 31
0.0
  0
LINE
  5
46DF
  8
0
 10
129.49123779390661
 20
106.4397525715607
 30
0.0
 11
129.49123779390661
 21
104.34451147196459
 31
0.0
  0
LINE
  5
46E0
  8
0
 10
129.49123779390641
 20
88.106418095804997
 30
0.0
 11
130.5473352417786
 21
88.106418095804969
 31
0.0
  0
LINE
  5
46E1
  8
0
 10
75.181452427848114
 20
89.677846126534305
 30
0.0
 11
75.181452427848214
 21
91.773083500840016
 31
0.0
  0
LINE
  5
46E2
  8
0
 10
74.125354979975953
 20
82.344513453819104
 30
0.0
 11
75.181452427848114
 21
82.344513453819104
 31
0.0
  0
LINE
  5
46E3
  8
0
 10
75.181452427848114
 20
82.344513453819104
 30
0.0
 11
75.181452427848114
 21
84.439750828124829
 31
0.0
  0
LINE
  5
46E4
  8
0
 10
74.125354979975953
 20
84.439750828124829
 30
0.0
 11
75.181452427848114
 21
84.439750828124829
 31
0.0
  0
LINE
  5
46E5
  8
0
 10
74.125354979975953
 20
84.439750828124829
 30
0.0
 11
74.125354979975953
 21
82.344513453819104
 31
0.0
  0
LINE
  5
46E6
  8
0
 10
75.181452427848114
 20
86.011180721499287
 30
0.0
 11
75.181452427848114
 21
88.106418095804997
 31
0.0
  0
LINE
  5
46E7
  8
0
 10
75.181452427848214
 20
100.6778460669296
 30
0.0
 11
75.181452427848214
 21
102.7730834412353
 31
0.0
  0
LINE
  5
46E8
  8
0
 10
74.125354979975953
 20
89.677846126534305
 30
0.0
 11
75.181452427848114
 21
89.677846126534305
 31
0.0
  0
LINE
  5
46E9
  8
0
 10
74.125354979976066
 20
91.773083500840016
 30
0.0
 11
75.181452427848214
 21
91.773083500840016
 31
0.0
  0
LINE
  5
46EA
  8
0
 10
74.125354979976066
 20
91.773083500840016
 30
0.0
 11
74.125354979975953
 21
89.677846126534305
 31
0.0
  0
LINE
  5
46EB
  8
0
 10
129.49123779390661
 20
95.439752631165334
 30
0.0
 11
130.54733524177871
 21
95.439752631165305
 31
0.0
  0
LINE
  5
46EC
  8
0
 10
74.125354979975953
 20
86.011180721499287
 30
0.0
 11
75.181452427848114
 21
86.011180721499287
 31
0.0
  0
LINE
  5
46ED
  8
0
 10
129.49123779390641
 20
89.677846126534305
 30
0.0
 11
130.5473352417786
 21
89.677846126534263
 31
0.0
  0
LINE
  5
46EE
  8
0
 10
130.5473352417786
 20
89.677846126534263
 30
0.0
 11
130.54733524177871
 21
91.773083500839988
 31
0.0
  0
LINE
  5
46EF
  8
0
 10
129.49123779390661
 20
91.773083500840016
 30
0.0
 11
130.54733524177871
 21
91.773083500839988
 31
0.0
  0
LINE
  5
46F0
  8
0
 10
129.49123779390661
 20
91.773083500840016
 30
0.0
 11
129.49123779390641
 21
89.677846126534305
 31
0.0
  0
LINE
  5
46F1
  8
0
 10
129.49123779390641
 20
82.344513453819104
 30
0.0
 11
130.5473352417786
 21
82.344513453819076
 31
0.0
  0
LINE
  5
46F2
  8
0
 10
130.5473352417786
 20
82.344513453819076
 30
0.0
 11
130.5473352417786
 21
84.439750828124801
 31
0.0
  0
LINE
  5
46F3
  8
0
 10
129.49123779390641
 20
84.439750828124829
 30
0.0
 11
130.5473352417786
 21
84.439750828124801
 31
0.0
  0
LINE
  5
46F4
  8
0
 10
129.49123779390641
 20
84.439750828124829
 30
0.0
 11
129.49123779390641
 21
82.344513453819104
 31
0.0
  0
LINE
  5
46F5
  8
0
 10
129.49123779390661
 20
108.01118060229
 30
0.0
 11
130.54733524177871
 21
108.0111806022899
 31
0.0
  0
LINE
  5
46F6
  8
0
 10
130.54733524177871
 20
108.0111806022899
 30
0.0
 11
130.54733524177871
 21
110.10641797659569
 31
0.0
  0
LINE
  5
46F7
  8
0
 10
129.49123779390661
 20
110.10641797659569
 30
0.0
 11
130.54733524177871
 21
110.10641797659569
 31
0.0
  0
LINE
  5
46F8
  8
0
 10
129.49123779390661
 20
102.7730834412353
 30
0.0
 11
129.49123779390661
 21
100.6778460669296
 31
0.0
  0
LINE
  5
46F9
  8
0
 10
75.181452427848214
 20
93.344511531569324
 30
0.0
 11
75.181452427848214
 21
95.439752631165334
 31
0.0
  0
LINE
  5
46FA
  8
0
 10
75.181452427848214
 20
104.34451147196459
 30
0.0
 11
75.181452427848214
 21
106.4397525715607
 31
0.0
  0
LINE
  5
46FB
  8
0
 10
129.49123779390661
 20
104.34451147196459
 30
0.0
 11
130.54733524177871
 21
104.34451147196459
 31
0.0
  0
LINE
  5
46FC
  8
0
 10
74.125354979976066
 20
97.011180661894628
 30
0.0
 11
75.181452427848214
 21
97.011180661894628
 31
0.0
  0
LINE
  5
46FD
  8
0
 10
129.49123779390661
 20
99.106418036200367
 30
0.0
 11
130.54733524177871
 21
99.106418036200324
 31
0.0
  0
LINE
  5
46FE
  8
0
 10
129.49123779390661
 20
93.344511531569324
 30
0.0
 11
130.54733524177871
 21
93.344511531569282
 31
0.0
  0
LINE
  5
46FF
  8
0
 10
130.54733524177871
 20
93.344511531569282
 30
0.0
 11
130.54733524177871
 21
95.439752631165305
 31
0.0
  0
LINE
  5
4700
  8
0
 10
129.49123779390661
 20
95.439752631165334
 30
0.0
 11
129.49123779390661
 21
93.344511531569324
 31
0.0
  0
LINE
  5
4701
  8
0
 10
129.49123779390641
 20
86.011180721499287
 30
0.0
 11
130.5473352417786
 21
86.011180721499244
 31
0.0
  0
LINE
  5
4702
  8
0
 10
130.5473352417786
 20
86.011180721499244
 30
0.0
 11
130.5473352417786
 21
88.106418095804969
 31
0.0
  0
LINE
  5
4703
  8
0
 10
129.49123779390641
 20
88.106418095804997
 30
0.0
 11
129.49123779390641
 21
86.011180721499287
 31
0.0
  0
LINE
  5
4704
  8
0
 10
74.125354979976066
 20
106.4397525715607
 30
0.0
 11
75.181452427848214
 21
106.4397525715607
 31
0.0
  0
LINE
  5
4705
  8
0
 10
74.125354979976066
 20
100.6778460669296
 30
0.0
 11
75.181452427848214
 21
100.6778460669296
 31
0.0
  0
LINE
  5
4706
  8
0
 10
74.125354979976066
 20
102.7730834412353
 30
0.0
 11
75.181452427848214
 21
102.7730834412353
 31
0.0
  0
LINE
  5
4707
  8
0
 10
74.125354979976066
 20
102.7730834412353
 30
0.0
 11
74.125354979976066
 21
100.6778460669296
 31
0.0
  0
LINE
  5
4708
  8
0
 10
129.49123779390661
 20
100.6778460669296
 30
0.0
 11
130.54733524177871
 21
100.6778460669296
 31
0.0
  0
LINE
  5
4709
  8
0
 10
74.125354979976066
 20
93.344511531569324
 30
0.0
 11
75.181452427848214
 21
93.344511531569324
 31
0.0
  0
LINE
  5
470A
  8
0
 10
74.125354979976066
 20
95.439752631165334
 30
0.0
 11
75.181452427848214
 21
95.439752631165334
 31
0.0
  0
LINE
  5
470B
  8
0
 10
74.125354979975953
 20
88.106418095804997
 30
0.0
 11
75.181452427848114
 21
88.106418095804997
 31
0.0
  0
LINE
  5
470C
  8
0
 10
75.181452427848214
 20
97.011180661894628
 30
0.0
 11
75.181452427848214
 21
99.106418036200367
 31
0.0
  0
LINE
  5
470D
  8
0
 10
129.49123779390661
 20
97.011180661894628
 30
0.0
 11
130.54733524177871
 21
97.011180661894599
 31
0.0
  0
LINE
  5
470E
  8
0
 10
74.125354979975953
 20
88.106418095804997
 30
0.0
 11
74.125354979975953
 21
86.011180721499287
 31
0.0
  0
LINE
  5
470F
  8
0
 10
129.49123779390661
 20
99.106418036200367
 30
0.0
 11
129.49123779390661
 21
97.011180661894628
 31
0.0
  0
LINE
  5
4710
  8
0
 10
130.54733524177871
 20
100.6778460669296
 30
0.0
 11
130.54733524177871
 21
102.7730834412353
 31
0.0
  0
LINE
  5
4711
  8
0
 10
129.49123779390661
 20
102.7730834412353
 30
0.0
 11
130.54733524177871
 21
102.7730834412353
 31
0.0
  0
LINE
  5
4712
  8
0
 10
74.125354979976066
 20
95.439752631165334
 30
0.0
 11
74.125354979976066
 21
93.344511531569324
 31
0.0
  0
LINE
  5
4713
  8
0
 10
129.49123779390661
 20
106.4397525715607
 30
0.0
 11
130.54733524177871
 21
106.4397525715606
 31
0.0
  0
LINE
  5
4714
  8
0
 10
74.125354979976066
 20
99.106418036200367
 30
0.0
 11
75.181452427848214
 21
99.106418036200367
 31
0.0
  0
LINE
  5
4715
  8
0
 10
130.54733524177871
 20
97.011180661894599
 30
0.0
 11
130.54733524177871
 21
99.106418036200324
 31
0.0
  0
LINE
  5
4716
  8
0
 10
74.125354979976066
 20
99.106418036200367
 30
0.0
 11
74.125354979976066
 21
97.011180661894628
 31
0.0
  0
LINE
  5
4717
  8
0
 10
74.125354979976066
 20
106.4397525715607
 30
0.0
 11
74.125354979976066
 21
104.34451147196459
 31
0.0
  0
LINE
  5
4718
  8
0
 10
130.54733524177871
 20
104.34451147196459
 30
0.0
 11
130.54733524177871
 21
106.4397525715606
 31
0.0
  0
LINE
  5
471E
  8
0
 10
131.08026223336049
 20
84.439750828124801
 30
0.0
 11
131.08026223336049
 21
82.344513453819076
 31
0.0
  0
LINE
  5
471F
  8
0
 10
131.08026223336049
 20
86.011180721499244
 30
0.0
 11
131.61645630453421
 21
86.011180721499244
 31
0.0
  0
LINE
  5
4720
  8
0
 10
131.0802622333606
 20
100.6778460669296
 30
0.0
 11
131.6164563045343
 21
100.6778460669296
 31
0.0
  0
LINE
  5
4721
  8
0
 10
131.0802622333606
 20
91.773083500839988
 30
0.0
 11
131.6164563045343
 21
91.773083500839988
 31
0.0
  0
LINE
  5
4722
  8
0
 10
131.0802622333606
 20
95.439752631165305
 30
0.0
 11
131.6164563045343
 21
95.439752631165305
 31
0.0
  0
LINE
  5
4723
  8
0
 10
131.0802622333606
 20
93.344511531569282
 30
0.0
 11
131.6164563045343
 21
93.344511531569282
 31
0.0
  0
LINE
  5
4724
  8
0
 10
131.08026223336049
 20
88.106418095804969
 30
0.0
 11
131.61645630453421
 21
88.106418095804969
 31
0.0
  0
LINE
  5
4725
  8
0
 10
131.0802622333606
 20
110.10641797659569
 30
0.0
 11
131.0802622333606
 21
108.0111806022899
 31
0.0
  0
LINE
  5
4726
  8
0
 10
131.0802622333606
 20
91.773083500839988
 30
0.0
 11
131.08026223336049
 21
89.677846126534263
 31
0.0
  0
LINE
  5
4727
  8
0
 10
131.08026223336049
 20
89.677846126534263
 30
0.0
 11
131.61645630453421
 21
89.677846126534263
 31
0.0
  0
LINE
  5
4728
  8
0
 10
131.0802622333606
 20
95.439752631165305
 30
0.0
 11
131.0802622333606
 21
93.344511531569282
 31
0.0
  0
LINE
  5
4729
  8
0
 10
131.08026223336049
 20
82.344513453819076
 30
0.0
 11
131.61645630453421
 21
82.344513453819076
 31
0.0
  0
LINE
  5
472A
  8
0
 10
131.08026223336049
 20
84.439750828124801
 30
0.0
 11
131.61645630453421
 21
84.439750828124801
 31
0.0
  0
LINE
  5
472B
  8
0
 10
131.08026223336049
 20
88.106418095804969
 30
0.0
 11
131.08026223336049
 21
86.011180721499244
 31
0.0
  0
LINE
  5
472C
  8
0
 10
131.0802622333606
 20
102.7730834412353
 30
0.0
 11
131.6164563045343
 21
102.7730834412353
 31
0.0
  0
LINE
  5
472D
  8
0
 10
131.0802622333606
 20
110.10641797659569
 30
0.0
 11
131.6164563045343
 21
110.10641797659569
 31
0.0
  0
LINE
  5
472E
  8
0
 10
131.0802622333606
 20
97.011180661894599
 30
0.0
 11
131.6164563045343
 21
97.011180661894599
 31
0.0
  0
LINE
  5
472F
  8
0
 10
131.0802622333606
 20
106.4397525715606
 30
0.0
 11
131.0802622333606
 21
104.34451147196459
 31
0.0
  0
LINE
  5
4730
  8
0
 10
131.0802622333606
 20
106.4397525715606
 30
0.0
 11
131.6164563045343
 21
106.4397525715606
 31
0.0
  0
LINE
  5
4731
  8
0
 10
131.0802622333606
 20
99.106418036200324
 30
0.0
 11
131.6164563045343
 21
99.106418036200324
 31
0.0
  0
LINE
  5
4732
  8
0
 10
131.0802622333606
 20
102.7730834412353
 30
0.0
 11
131.0802622333606
 21
100.6778460669296
 31
0.0
  0
LINE
  5
4733
  8
0
 10
131.0802622333606
 20
104.34451147196459
 30
0.0
 11
131.6164563045343
 21
104.34451147196459
 31
0.0
  0
LINE
  5
4734
  8
0
 10
131.0802622333606
 20
99.106418036200324
 30
0.0
 11
131.0802622333606
 21
97.011180661894599
 31
0.0
  0
LINE
  5
4735
  8
0
 10
131.0802622333606
 20
108.0111806022899
 30
0.0
 11
131.6164563045343
 21
108.0111806022899
 31
0.0
  0
LINE
  5
4736
  8
0
 10
73.592427988394149
 20
108.01118060229
 30
0.0
 11
73.592427988394149
 21
110.10641797659569
 31
0.0
  0
LINE
  5
4737
  8
0
 10
73.056233917220482
 20
110.10641797659569
 30
0.0
 11
73.592427988394149
 21
110.10641797659569
 31
0.0
  0
LINE
  5
4738
  8
0
 10
73.056233917220354
 20
86.011180721499287
 30
0.0
 11
73.592427988394036
 21
86.011180721499287
 31
0.0
  0
LINE
  5
4739
  8
0
 10
73.056233917220482
 20
108.01118060229
 30
0.0
 11
73.592427988394149
 21
108.01118060229
 31
0.0
  0
LINE
  5
473A
  8
0
 10
73.592427988394149
 20
97.011180661894628
 30
0.0
 11
73.592427988394149
 21
99.106418036200367
 31
0.0
  0
LINE
  5
473B
  8
0
 10
73.592427988394149
 20
100.6778460669296
 30
0.0
 11
73.592427988394149
 21
102.7730834412353
 31
0.0
  0
LINE
  5
473C
  8
0
 10
73.056233917220482
 20
104.34451147196459
 30
0.0
 11
73.592427988394149
 21
104.34451147196459
 31
0.0
  0
LINE
  5
473D
  8
0
 10
73.592427988394036
 20
89.677846126534305
 30
0.0
 11
73.592427988394149
 21
91.773083500840016
 31
0.0
  0
LINE
  5
473E
  8
0
 10
73.056233917220354
 20
88.106418095804997
 30
0.0
 11
73.592427988394036
 21
88.106418095804997
 31
0.0
  0
LINE
  5
473F
  8
0
 10
73.592427988394149
 20
93.344511531569324
 30
0.0
 11
73.592427988394149
 21
95.439752631165334
 31
0.0
  0
LINE
  5
4740
  8
0
 10
73.056233917220354
 20
84.439750828124829
 30
0.0
 11
73.592427988394036
 21
84.439750828124829
 31
0.0
  0
LINE
  5
4741
  8
0
 10
73.056233917220482
 20
97.011180661894628
 30
0.0
 11
73.592427988394149
 21
97.011180661894628
 31
0.0
  0
LINE
  5
4742
  8
0
 10
73.056233917220482
 20
102.7730834412353
 30
0.0
 11
73.592427988394149
 21
102.7730834412353
 31
0.0
  0
LINE
  5
4743
  8
0
 10
73.056233917220482
 20
95.439752631165334
 30
0.0
 11
73.592427988394149
 21
95.439752631165334
 31
0.0
  0
LINE
  5
4744
  8
0
 10
73.056233917220354
 20
82.344513453819104
 30
0.0
 11
73.592427988394036
 21
82.344513453819104
 31
0.0
  0
LINE
  5
4745
  8
0
 10
73.056233917220482
 20
100.6778460669296
 30
0.0
 11
73.592427988394149
 21
100.6778460669296
 31
0.0
  0
LINE
  5
4746
  8
0
 10
73.056233917220482
 20
91.773083500840016
 30
0.0
 11
73.592427988394149
 21
91.773083500840016
 31
0.0
  0
LINE
  5
4747
  8
0
 10
73.056233917220482
 20
106.4397525715607
 30
0.0
 11
73.592427988394149
 21
106.4397525715607
 31
0.0
  0
LINE
  5
4748
  8
0
 10
73.592427988394149
 20
104.34451147196459
 30
0.0
 11
73.592427988394149
 21
106.4397525715607
 31
0.0
  0
LINE
  5
4749
  8
0
 10
73.592427988394036
 20
86.011180721499287
 30
0.0
 11
73.592427988394036
 21
88.106418095804997
 31
0.0
  0
LINE
  5
474A
  8
0
 10
73.056233917220354
 20
89.677846126534305
 30
0.0
 11
73.592427988394036
 21
89.677846126534305
 31
0.0
  0
LINE
  5
474B
  8
0
 10
73.056233917220482
 20
93.344511531569324
 30
0.0
 11
73.592427988394149
 21
93.344511531569324
 31
0.0
  0
LINE
  5
474C
  8
0
 10
73.056233917220482
 20
99.106418036200367
 30
0.0
 11
73.592427988394149
 21
99.106418036200367
 31
0.0
  0
LINE
  5
474D
  8
0
 10
73.592427988394036
 20
82.344513453819104
 30
0.0
 11
73.592427988394036
 21
84.439750828124829
 31
0.0
  0
LINE
  5
474E
  8
0
 10
131.6164563045343
 20
104.34451147196459
 30
0.0
 11
131.6164563045343
 21
106.4397525715606
 31
0.0
  0
LINE
  5
474F
  8
0
 10
131.61645630453421
 20
82.344513453819076
 30
0.0
 11
131.61645630453421
 21
84.439750828124801
 31
0.0
  0
LINE
  5
4750
  8
0
 10
73.056233917220354
 20
84.439750828124829
 30
0.0
 11
73.056233917220354
 21
82.344513453819104
 31
0.0
  0
LINE
  5
4751
  8
0
 10
73.056233917220482
 20
99.106418036200367
 30
0.0
 11
73.056233917220482
 21
97.011180661894628
 31
0.0
  0
LINE
  5
4752
  8
0
 10
73.056233917220482
 20
106.4397525715607
 30
0.0
 11
73.056233917220482
 21
104.34451147196459
 31
0.0
  0
LINE
  5
4753
  8
0
 10
73.056233917220354
 20
88.106418095804997
 30
0.0
 11
73.056233917220354
 21
86.011180721499287
 31
0.0
  0
LINE
  5
4754
  8
0
 10
131.6164563045343
 20
93.344511531569282
 30
0.0
 11
131.6164563045343
 21
95.439752631165305
 31
0.0
  0
LINE
  5
4755
  8
0
 10
131.6164563045343
 20
97.011180661894599
 30
0.0
 11
131.6164563045343
 21
99.106418036200324
 31
0.0
  0
LINE
  5
4756
  8
0
 10
131.61645630453421
 20
89.677846126534263
 30
0.0
 11
131.6164563045343
 21
91.773083500839988
 31
0.0
  0
LINE
  5
4757
  8
0
 10
131.6164563045343
 20
108.0111806022899
 30
0.0
 11
131.6164563045343
 21
110.10641797659569
 31
0.0
  0
LINE
  5
4758
  8
0
 10
131.61645630453421
 20
86.011180721499244
 30
0.0
 11
131.61645630453421
 21
88.106418095804969
 31
0.0
  0
LINE
  5
4759
  8
0
 10
131.6164563045343
 20
100.6778460669296
 30
0.0
 11
131.6164563045343
 21
102.7730834412353
 31
0.0
  0
LINE
  5
475A
  8
0
 10
73.056233917220482
 20
110.10641797659569
 30
0.0
 11
73.056233917220482
 21
108.01118060229
 31
0.0
  0
LINE
  5
475B
  8
0
 10
73.056233917220482
 20
91.773083500840016
 30
0.0
 11
73.056233917220354
 21
89.677846126534305
 31
0.0
  0
LINE
  5
475C
  8
0
 10
73.056233917220482
 20
95.439752631165334
 30
0.0
 11
73.056233917220482
 21
93.344511531569324
 31
0.0
  0
LINE
  5
475D
  8
0
 10
73.056233917220482
 20
102.7730834412353
 30
0.0
 11
73.056233917220482
 21
100.6778460669296
 31
0.0
  0
LINE
  5
476E
  8
0
 10
72.836344932063469
 20
110.10641797659569
 30
0.0
 11
72.876773645027527
 21
110.10641797659569
 31
0.0
  0
LINE
  5
476F
  8
0
 10
74.409678448780426
 20
110.8921338546055
 30
0.0
 11
130.26301177297449
 21
110.8921338546055
 31
0.0
  0
LINE
  5
4770
  8
0
 10
72.876773645027527
 20
108.01118060229
 30
0.0
 11
72.876773645027527
 21
110.10641797659569
 31
0.0
  0
LINE
  5
4771
  8
0
 10
72.876773645027527
 20
100.6778460669296
 30
0.0
 11
72.876773645027527
 21
102.7730834412353
 31
0.0
  0
LINE
  5
4772
  8
0
 10
131.79591657672731
 20
110.10641797659569
 30
0.0
 11
131.79591657672731
 21
108.0111806022899
 31
0.0
  0
LINE
  5
4773
  8
0
 10
72.876773645027527
 20
97.011180661894628
 30
0.0
 11
72.876773645027527
 21
99.106418036200367
 31
0.0
  0
LINE
  5
4774
  8
0
 10
131.79591657672731
 20
102.7730834412353
 30
0.0
 11
131.79591657672731
 21
100.6778460669296
 31
0.0
  0
LINE
  5
4775
  8
0
 10
72.836344932063469
 20
106.4397525715607
 30
0.0
 11
72.876773645027527
 21
106.4397525715607
 31
0.0
  0
LINE
  5
4776
  8
0
 10
74.409678448780426
 20
107.2254647242802
 30
0.0
 11
130.2630117729741
 21
107.2254647242802
 31
0.0
  0
LINE
  5
4777
  8
0
 10
131.79591657672719
 20
89.677846126534263
 30
0.0
 11
131.8363452896912
 21
89.677846126534263
 31
0.0
  0
LINE
  5
4778
  8
0
 10
72.836344932063469
 20
102.7730834412353
 30
0.0
 11
72.876773645027527
 21
102.7730834412353
 31
0.0
  0
LINE
  5
4779
  8
0
 10
74.409678448780426
 20
103.5587993192451
 30
0.0
 11
130.26301177297449
 21
103.5587993192451
 31
0.0
  0
LINE
  5
477A
  8
0
 10
131.79591657672719
 20
86.011180721499244
 30
0.0
 11
131.8363452896912
 21
86.011180721499244
 31
0.0
  0
LINE
  5
477B
  8
0
 10
72.836344932063469
 20
104.34451147196459
 30
0.0
 11
72.876773645027527
 21
104.34451147196459
 31
0.0
  0
LINE
  5
477C
  8
0
 10
72.836344932063469
 20
99.106418036200367
 30
0.0
 11
72.876773645027527
 21
99.106418036200367
 31
0.0
  0
LINE
  5
477D
  8
0
 10
74.409678448780426
 20
99.892133914210149
 30
0.0
 11
130.26301177297449
 21
99.892133914210149
 31
0.0
  0
LINE
  5
477E
  8
0
 10
74.409678448780426
 20
92.558799378849827
 30
0.0
 11
130.26301177297449
 21
92.558799378849827
 31
0.0
  0
LINE
  5
477F
  8
0
 10
72.836344932063469
 20
93.344511531569324
 30
0.0
 11
72.876773645027527
 21
93.344511531569324
 31
0.0
  0
LINE
  5
4780
  8
0
 10
131.79591657672731
 20
91.773083500839988
 30
0.0
 11
131.83634528969131
 21
91.773083500839988
 31
0.0
  0
LINE
  5
4781
  8
0
 10
72.876773645027413
 20
82.344513453819104
 30
0.0
 11
72.876773645027413
 21
84.439750828124829
 31
0.0
  0
LINE
  5
4782
  8
0
 10
131.79591657672719
 20
88.106418095804969
 30
0.0
 11
131.79591657672719
 21
86.011180721499244
 31
0.0
  0
LINE
  5
4783
  8
0
 10
131.79591657672731
 20
93.344511531569282
 30
0.0
 11
131.83634528969131
 21
93.344511531569282
 31
0.0
  0
LINE
  5
4784
  8
0
 10
131.79591657672719
 20
88.106418095804969
 30
0.0
 11
131.8363452896912
 21
88.106418095804969
 31
0.0
  0
LINE
  5
4785
  8
0
 10
72.836344932063469
 20
108.01118060229
 30
0.0
 11
72.876773645027527
 21
108.01118060229
 31
0.0
  0
LINE
  5
4786
  8
0
 10
72.836344932063355
 20
82.344513453819104
 30
0.0
 11
72.876773645027413
 21
82.344513453819104
 31
0.0
  0
LINE
  5
4787
  8
0
 10
72.876773645027413
 20
89.677846126534305
 30
0.0
 11
72.876773645027527
 21
91.773083500840016
 31
0.0
  0
LINE
  5
4788
  8
0
 10
72.876773645027527
 20
93.344511531569324
 30
0.0
 11
72.876773645027527
 21
95.439752631165334
 31
0.0
  0
LINE
  5
4789
  8
0
 10
72.836344932063469
 20
100.6778460669296
 30
0.0
 11
72.876773645027527
 21
100.6778460669296
 31
0.0
  0
LINE
  5
478A
  8
0
 10
72.876773645027527
 20
104.34451147196459
 30
0.0
 11
72.876773645027527
 21
106.4397525715607
 31
0.0
  0
LINE
  5
478B
  8
0
 10
131.79591657672731
 20
108.0111806022899
 30
0.0
 11
131.83634528969131
 21
108.0111806022899
 31
0.0
  0
LINE
  5
478C
  8
0
 10
131.79591657672731
 20
95.439752631165305
 30
0.0
 11
131.83634528969131
 21
95.439752631165305
 31
0.0
  0
LINE
  5
478D
  8
0
 10
131.79591657672731
 20
100.6778460669296
 30
0.0
 11
131.83634528969131
 21
100.6778460669296
 31
0.0
  0
LINE
  5
478E
  8
0
 10
74.409678448780312
 20
85.225464843489476
 30
0.0
 11
130.2630117729741
 21
85.225464843489476
 31
0.0
  0
LINE
  5
478F
  8
0
 10
72.836344932063355
 20
86.011180721499287
 30
0.0
 11
72.876773645027413
 21
86.011180721499287
 31
0.0
  0
LINE
  5
4790
  8
0
 10
131.79591657672731
 20
91.773083500839988
 30
0.0
 11
131.79591657672719
 21
89.677846126534263
 31
0.0
  0
LINE
  5
4791
  8
0
 10
131.79591657672719
 20
84.439750828124801
 30
0.0
 11
131.79591657672719
 21
82.344513453819076
 31
0.0
  0
LINE
  5
4792
  8
0
 10
131.79591657672731
 20
106.4397525715606
 30
0.0
 11
131.83634528969131
 21
106.4397525715606
 31
0.0
  0
LINE
  5
4793
  8
0
 10
72.876773645027413
 20
86.011180721499287
 30
0.0
 11
72.876773645027413
 21
88.106418095804997
 31
0.0
  0
LINE
  5
4794
  8
0
 10
131.79591657672731
 20
97.011180661894599
 30
0.0
 11
131.83634528969131
 21
97.011180661894599
 31
0.0
  0
LINE
  5
4795
  8
0
 10
131.79591657672731
 20
102.7730834412353
 30
0.0
 11
131.83634528969131
 21
102.7730834412353
 31
0.0
  0
LINE
  5
4796
  8
0
 10
131.79591657672731
 20
106.4397525715606
 30
0.0
 11
131.79591657672731
 21
104.34451147196459
 31
0.0
  0
LINE
  5
4797
  8
0
 10
131.79591657672719
 20
82.344513453819076
 30
0.0
 11
131.8363452896912
 21
82.344513453819076
 31
0.0
  0
LINE
  5
4798
  8
0
 10
131.79591657672731
 20
99.106418036200324
 30
0.0
 11
131.79591657672731
 21
97.011180661894599
 31
0.0
  0
LINE
  5
4799
  8
0
 10
131.79591657672731
 20
95.439752631165305
 30
0.0
 11
131.79591657672731
 21
93.344511531569282
 31
0.0
  0
LINE
  5
479A
  8
0
 10
72.836344932063469
 20
95.439752631165334
 30
0.0
 11
72.876773645027527
 21
95.439752631165334
 31
0.0
  0
LINE
  5
479B
  8
0
 10
74.409678448780426
 20
96.225464783884846
 30
0.0
 11
130.26301177297429
 21
96.225464783884846
 31
0.0
  0
LINE
  5
479C
  8
0
 10
131.79591657672731
 20
99.106418036200324
 30
0.0
 11
131.83634528969131
 21
99.106418036200324
 31
0.0
  0
LINE
  5
479D
  8
0
 10
131.79591657672731
 20
104.34451147196459
 30
0.0
 11
131.83634528969131
 21
104.34451147196459
 31
0.0
  0
LINE
  5
479E
  8
0
 10
74.409678448780312
 20
88.892132111169644
 30
0.0
 11
130.26301177297429
 21
88.892132111169644
 31
0.0
  0
LINE
  5
479F
  8
0
 10
72.836344932063355
 20
89.677846126534305
 30
0.0
 11
72.876773645027413
 21
89.677846126534305
 31
0.0
  0
LINE
  5
47A0
  8
0
 10
72.836344932063355
 20
84.439750828124829
 30
0.0
 11
72.876773645027413
 21
84.439750828124829
 31
0.0
  0
LINE
  5
47A1
  8
0
 10
72.836344932063355
 20
88.106418095804997
 30
0.0
 11
72.876773645027413
 21
88.106418095804997
 31
0.0
  0
LINE
  5
47A2
  8
0
 10
131.79591657672731
 20
110.10641797659569
 30
0.0
 11
131.83634528969131
 21
110.10641797659569
 31
0.0
  0
LINE
  5
47A3
  8
0
 10
131.79591657672719
 20
84.439750828124801
 30
0.0
 11
131.8363452896912
 21
84.439750828124801
 31
0.0
  0
LINE
  5
47A4
  8
0
 10
72.836344932063469
 20
91.773083500840016
 30
0.0
 11
72.876773645027527
 21
91.773083500840016
 31
0.0
  0
LINE
  5
47A5
  8
0
 10
72.836344932063469
 20
97.011180661894628
 30
0.0
 11
72.876773645027527
 21
97.011180661894628
 31
0.0
  0
LINE
  5
47A9
  8
0
 10
101.6145704972502
 20
64.892132163323652
 30
0.0
 11
103.0579464972501
 21
64.892132163323652
 31
0.0
  0
LINE
  5
47AA
  8
0
 10
103.0579464972501
 20
64.892132163323652
 30
0.0
 11
103.7796344972501
 21
63.642132163323652
 31
0.0
  0
LINE
  5
47AB
  8
0
 10
103.7796344972501
 20
63.642132163323652
 30
0.0
 11
103.0579464972501
 21
62.392132163323652
 31
0.0
  0
LINE
  5
47AC
  8
0
 10
103.0579464972501
 20
62.392132163323652
 30
0.0
 11
101.6145704972502
 21
62.392132163323652
 31
0.0
  0
LINE
  5
47AD
  8
0
 10
101.6145704972502
 20
62.392132163323652
 30
0.0
 11
100.8928824972501
 21
63.642132163323652
 31
0.0
  0
LINE
  5
47AE
  8
0
 10
100.8928824972501
 20
63.642132163323652
 30
0.0
 11
101.6145704972502
 21
64.892132163323652
 31
0.0
  0
CIRCLE
  5
47AF
  8
3
 10
102.3362584972502
 20
63.642132163323652
 30
0.0
 40
2.0669999999999988
  0
CIRCLE
  5
47B0
  8
0
 10
102.3362584972502
 20
63.642132163323652
 30
0.0
 40
2.5
  0
LINE
  5
47B2
  8
2
 10
93.33634549830748
 20
69.335131973304044
 30
0.0
 11
93.33634549830748
 21
79.142132841326486
 31
0.0
  0
LINE
  5
47B3
  8
2
 10
111.3363447234471
 20
79.142132841326486
 30
0.0
 11
111.3363447234471
 21
69.335131973304044
 31
0.0
  0
LINE
  5
47FE
  8
2
 10
216.33634424660991
 20
184.1421323644893
 30
0.0
 11
226.1433451146323
 21
184.1421323644893
 31
0.0
  0
LINE
  5
47FF
  8
2
 10
216.33634424660991
 20
202.142131589629
 30
0.0
 11
226.1433451146323
 21
202.142131589629
 31
0.0
  0
LINE
  5
4809
  8
2
 10
229.76943153823979
 20
189.08471868444431
 30
0.0
 11
229.76943153823979
 21
184.25195551931461
 31
0.0
  0
LINE
  5
480C
  8
2
 10
233.9034315382398
 20
189.08454504619939
 30
0.0
 11
233.9034315382398
 21
184.25353083188031
 31
0.0
  0
LINE
  5
480F
  8
3
 10
229.7694315382399
 20
184.19954520061069
 30
0.0
 11
229.7694315382399
 21
184.25195551931461
 31
0.0
  0
LINE
  5
4810
  8
3
 10
233.90343153823969
 20
184.19971889136809
 30
0.0
 11
233.90343153823969
 21
184.25353083188031
 31
0.0
  0
LINE
  5
4813
  8
1
 10
102.3363451108772
 20
118.64213197705919
 30
0.0
 11
102.3363451108772
 21
39.142132692314867
 31
0.0
  0
LINE
  5
4814
  8
1
 10
241.83634481285409
 20
193.14213197705911
 30
0.0
 11
176.8363451108772
 21
193.14213197705911
 31
0.0
  0
LINE
  5
481B
  8
1
 10
254.33634439562141
 20
212.1421322974341
 30
0.0
 11
223.3363449544151
 21
212.1421322974341
 31
0.0
  0
LINE
  5
481C
  8
1
 10
107.8362584972502
 20
63.642132163323652
 30
0.0
 11
96.836258497250185
 21
63.642132163323652
 31
0.0
  0
LINE
  5
4820
  8
1
 10
231.83634492461269
 20
181.1421323644893
 30
0.0
 11
231.83634492461269
 21
192.1421317870693
 31
0.0
  0
TEXT
  5
4909
  8
0
 10
101.26491653944881
 20
198.4421319770592
 30
0.0
 40
1.5
  1
20
 41
0.75
  7
07500
 72
     1
 11
102.3363451108773
 21
198.4421319770592
 31
0.0
  0
TEXT
  5
490A
  8
0
 10
101.7292022537345
 20
200.14213197705919
 30
0.0
 40
1.5
  1
1
 72
     1
 11
102.3363451108773
 21
200.14213197705919
 31
0.0
  0
TEXT
  5
490C
  8
0
 10
100.9077736823059
 20
204.14213197705919
 30
0.0
 40
3.0
  1
0
 72
     4
 11
102.3363451108773
 21
205.64213197705919
 31
0.0
  0
TEXT
  5
490D
  8
0
 10
93.560458028650046
 20
201.754844406746
 30
0.0
 40
3.0
  1
2
 50
0.0000000000000368
 72
     4
 11
94.989029457221477
 21
203.254844406746
 31
0.0
  0
TEXT
  5
490E
  8
0
 10
88.948138657187826
 20
195.50484440674609
 30
0.0
 40
3.0
  1
4
 50
0.0000000000000368
 72
     4
 11
90.448138657187826
 21
197.00484440674609
 31
0.0
  0
TEXT
  5
490F
  8
0
 10
88.948138657187428
 20
187.77941954737241
 30
0.0
 40
3.0
  1
6
 50
0.0000000000000368
 72
     4
 11
90.448138657187414
 21
189.27941954737241
 31
0.0
  0
TEXT
  5
4910
  8
0
 10
93.560458028650089
 20
181.5294195473723
 30
0.0
 40
3.0
  1
8
 50
0.0000000000000368
 72
     4
 11
94.989029457221534
 21
183.0294195473723
 31
0.0
  0
TEXT
  5
4911
  8
0
 10
100.0327736823059
 20
179.14213197705919
 30
0.0
 40
3.0
  1
10
 41
0.75
  7
07500
 72
     4
 11
102.3363451108773
 21
180.64213197705919
 31
0.0
  0
TEXT
  5
4912
  8
0
 10
107.3800893359619
 20
181.52941954737241
 30
0.0
 40
3.0
  1
12
 50
0.0000000000000368
 41
0.75
  7
07500
 72
     4
 11
109.6836607645333
 21
183.02941954737241
 31
0.0
  0
TEXT
  5
4913
  8
0
 10
111.86740870742391
 20
187.7794195473723
 30
0.0
 40
3.0
  1
14
 50
0.0000000000000368
 41
0.75
  7
07500
 72
     4
 11
114.2245515645667
 21
189.2794195473723
 31
0.0
  0
TEXT
  5
4914
  8
0
 10
111.92098013599529
 20
195.504844406746
 30
0.0
 40
3.0
  1
16
 50
0.0000000000000368
 41
0.75
  7
07500
 72
     4
 11
114.2245515645667
 21
197.004844406746
 31
0.0
  0
TEXT
  5
4915
  8
0
 10
107.3800893359618
 20
201.75484440674609
 30
0.0
 40
3.0
  1
18
 50
0.0000000000000368
 41
0.75
  7
07500
 72
     4
 11
109.6836607645332
 21
203.25484440674609
 31
0.0
  0
ARC
  5
495E
  8
0
 10
231.88815943929009
 20
175.13442081009171
 30
0.0
 40
9.3620462283100423
 50
90.31710676194983
 51
105.8138798773567
  0
LINE
  5
49BA
  8
2
 10
233.84584474269931
 20
189.1421317870693
 30
0.0
 11
229.82684464086481
 21
189.1421317870693
 31
0.0
  0
TEXT
  5
4A1B
  8
0
 62
     3
 10
0.0
 20
0.0
 30
0.0
 40
10.0
  1
DGKA60L-1/20
  7
STANDARD1
  0
LINE
  5
4B14
  8
0
 10
101.87294702221079
 20
194.78873651452591
 30
0.0
 11
113.7424345948714
 21
202.8838527020157
 31
0.0
  0
INSERT
  5
4B15
  8
0
  6
CONTINUOUS
  2
*U0
 10
0.0
 20
0.0
 30
0.0
1001
GRADIENTCOLOR1ACI
1070
     5
1001
GRADIENTCOLOR2ACI
1070
     2
1001
ACAD
1002
{
1000
R14_HATCH_DATA
1000
4B15
1011
1.0
1021
0.0
1031
0.0
1021
0.0
1031
0.0
1011
0.0
1021
0.0
1031
0.0
1021
1.0
1031
0.0
1011
0.0
1021
0.0
1031
0.0
1021
0.0
1031
1.0
1040
0.0
1010
0.0
1020
0.0
1030
1.0
1000
SOLID
1070
     1
1070
     0
1071
        2
1071
        7
1070
     1
1070
     1
1071
        5
1040
113.7424345948714
1040
202.8838527020157
1040
0.0
1040
105.65634511086149
1040
194.30142306648551
1040
0.0
1040
105.65634511086149
1040
194.58859743077201
1040
0.4411370411791314
1040
105.11306977714609
1040
195.08453507217169
1040
0.0
1040
101.87294702221079
1040
194.78873651452591
1040
0.0
1071
        0
1071
        7
1070
     1
1070
     1
1071
        4
1040
99.165485753927243
1040
191.74269805584601
1040
0.0
1040
102.92244976644631
1040
191.39971582335571
1040
0.0
1040
101.4861455657766
1040
189.87524843255571
1040
-0.4463040353222575
1040
100.7449991930681
1040
189.8933254309589
1040
0.0
1071
        0
1070
     1
1070
     1
1040
0.0387757878708331
1071
        2
1040
106.05884994611451
1040
196.63846094644359
1040
0.0
1040
101.287086925259
1040
190.74454142385889
1040
0.0
1002
}
  0
LINE
  5
4B16
  8
0
 10
100.7449991930681
 20
189.8933254309589
 30
0.0
 11
99.165485753927243
 21
191.74269805584601
 31
0.0
  0
ARC
  5
4B17
  8
0
 10
101.1236813639369
 20
190.2167505590273
 30
0.0
 40
0.4979999999999201
 50
220.4999999999938
 51
316.70559813970578
  0
LINE
  5
4B18
  8
0
 10
113.7424345948714
 20
202.8838527020157
 30
0.0
 11
105.65634511086149
 21
194.30142306648551
 31
0.0
  0
LINE
  5
4B19
  8
0
 10
102.92244976644631
 20
191.39971582335571
 30
0.0
 11
101.4861455657766
 21
189.87524843255579
 31
0.0
  0
LINE
  5
4B1A
  8
0
 10
105.11306977714609
 20
191.19972888195721
 30
0.0
 11
83.836345110861416
 21
193.14213197706471
 31
0.0
  0
ARC
  5
4B1B
  8
0
 10
105.1583451108614
 20
191.69566652335681
 30
0.0
 40
0.4980000000000351
 50
264.7837903067649
 51
359.99999999999841
  0
LINE
  5
4B1C
  8
0
 10
105.65634511086149
 20
194.5885974307721
 30
0.0
 11
105.65634511086139
 21
191.69566652335681
 31
0.0
  0
ARC
  5
4B1D
  8
0
 10
105.1583451108614
 20
194.5885974307721
 30
0.0
 40
0.4980000000000634
 50
0.0000000000016284
 51
95.216209693231704
  0
LINE
  5
4B1E
  8
0
 10
83.836345110861416
 20
193.14213197706471
 30
0.0
 11
105.11306977714619
 21
195.0845350721716
 31
0.0
  0
INSERT
  5
4B1F
  8
0
  6
CONTINUOUS
  2
*U1
 10
0.0
 20
0.0
 30
0.0
1001
GRADIENTCOLOR1ACI
1070
     5
1001
GRADIENTCOLOR2ACI
1070
     2
1001
ACAD
1002
{
1000
R14_HATCH_DATA
1000
4B1F
1011
1.0
1021
0.0
1031
0.0
1021
0.0
1031
0.0
1011
0.0
1021
0.0
1031
0.0
1021
1.0
1031
0.0
1011
0.0
1021
0.0
1031
0.0
1021
0.0
1031
1.0
1040
0.0
1010
0.0
1020
0.0
1030
1.0
1000
SOLID
1070
     1
1070
     0
1071
        1
1071
        7
1070
     1
1070
     1
1071
        2
1040
101.34034511087729
1040
193.14213197705919
1040
-1.0
1040
103.3323451108773
1040
193.14213197705919
1040
-1.0
1071
        0
1070
     1
1070
     1
1040
0.0146528828859101
1071
        1
1040
102.19970398029039
1040
192.7054515025697
1040
0.0
1002
}
  0
CIRCLE
  5
4B20
  8
0
 10
102.3363451108773
 20
193.14213197705919
 30
0.0
 40
0.996
  0
ENDSEC
  0
EOF
