  0
SECTION
  2
HEADER
  9
$ACADVER
  1
AC1009
  9
$INSBASE
 10
0.0
 20
0.0
 30
0.0
  9
$EXTMIN
 10
0.0
 20
-2.960436562073669
 30
0.0
  9
$EXTMAX
 10
167.5
 20
108.0
 30
0.0
  9
$LIMMIN
 10
0.0
 20
0.0
  9
$LIMMAX
 10
187.5
 20
135.0
  9
$ORTHOMODE
 70
     1
  9
$REGENMODE
 70
     1
  9
$FILLMODE
 70
     1
  9
$QTEXTMODE
 70
     0
  9
$MIRRTEXT
 70
     0
  9
$DRAGMODE
 70
     2
  9
$LTSCALE
 40
5.0
  9
$OSMODE
 70
  3071
  9
$ATTMODE
 70
     1
  9
$TEXTSIZE
 40
3.0
  9
$TRACEWID
 40
0.05
  9
$TEXTSTYLE
  7
08000
  9
$CLAYER
  8
0
  9
$CELTYPE
  6
BYLAYER
  9
$CECOLOR
 62
   256
  9
$DIMSCALE
 40
0.5
  9
$DIMASZ
 40
3.0
  9
$DIMEXO
 40
2.0
  9
$DIMDLI
 40
0.38
  9
$DIMRND
 40
0.0
  9
$DIMDLE
 40
0.0
  9
$DIMEXE
 40
2.0
  9
$DIMTP
 40
0.0
  9
$DIMTM
 40
0.0
  9
$DIMTXT
 40
3.2000000000000002
  9
$DIMCEN
 40
0.0
  9
$DIMTSZ
 40
0.0
  9
$DIMTOL
 70
     0
  9
$DIMLIM
 70
     0
  9
$DIMTIH
 70
     0
  9
$DIMTOH
 70
     0
  9
$DIMSE1
 70
     0
  9
$DIMSE2
 70
     0
  9
$DIMTAD
 70
     1
  9
$DIMZIN
 70
     0
  9
$DIMBLK
  1

  9
$DIMASO
 70
     0
  9
$DIMSHO
 70
     0
  9
$DIMPOST
  1

  9
$DIMAPOST
  1

  9
$DIMALT
 70
     0
  9
$DIMALTD
 70
     2
  9
$DIMALTF
 40
25.399999999999999
  9
$DIMLFAC
 40
1.0
  9
$DIMTOFL
 70
     0
  9
$DIMTVP
 40
1.6000000000000001
  9
$DIMTIX
 70
     1
  9
$DIMSOXD
 70
     0
  9
$DIMSAH
 70
     0
  9
$DIMBLK1
  1

  9
$DIMBLK2
  1

  9
$DIMSTYLE
  2
STANDARD
  9
$DIMCLRD
 70
     0
  9
$DIMCLRE
 70
     0
  9
$DIMCLRT
 70
     0
  9
$DIMTFAC
 40
1.0
  9
$DIMGAP
 40
0.09
  9
$LUNITS
 70
     2
  9
$LUPREC
 70
     1
  9
$SKETCHINC
 40
0.1
  9
$FILLETRAD
 40
0.0
  9
$AUNITS
 70
     0
  9
$AUPREC
 70
     0
  9
$MENU
  1
E:\r13\win\SUPPORT\ACAD
  9
$ELEVATION
 40
0.0
  9
$PELEVATION
 40
0.0
  9
$THICKNESS
 40
0.0
  9
$LIMCHECK
 70
     0
  9
$BLIPMODE
 70
     0
  9
$CHAMFERA
 40
0.0
  9
$CHAMFERB
 40
0.0
  9
$SKPOLY
 70
     0
  9
$TDCREATE
 40
2449839.7929745368
  9
$TDUPDATE
 40
2456598.6084142481
  9
$TDINDWG
 40
0.0005521644
  9
$TDUSRTIMER
 40
0.0005521644
  9
$USRTIMER
 70
     1
  9
$ANGBASE
 50
0.0
  9
$ANGDIR
 70
     0
  9
$PDMODE
 70
     0
  9
$PDSIZE
 40
0.0
  9
$PLINEWID
 40
0.0
  9
$COORDS
 70
     1
  9
$SPLFRAME
 70
     0
  9
$SPLINETYPE
 70
     6
  9
$SPLINESEGS
 70
     8
  9
$ATTDIA
 70
     0
  9
$ATTREQ
 70
     1
  9
$HANDLING
 70
     1
  9
$HANDSEED
  5
7DE
  9
$SURFTAB1
 70
     6
  9
$SURFTAB2
 70
     6
  9
$SURFTYPE
 70
     6
  9
$SURFU
 70
     6
  9
$SURFV
 70
     6
  9
$UCSNAME
  2

  9
$UCSORG
 10
0.0
 20
0.0
 30
0.0
  9
$UCSXDIR
 10
1.0
 20
0.0
 30
0.0
  9
$UCSYDIR
 10
0.0
 20
1.0
 30
0.0
  9
$PUCSNAME
  2

  9
$PUCSORG
 10
0.0
 20
0.0
 30
0.0
  9
$PUCSXDIR
 10
1.0
 20
0.0
 30
0.0
  9
$PUCSYDIR
 10
0.0
 20
1.0
 30
0.0
  9
$USERI1
 70
     0
  9
$USERI2
 70
     1
  9
$USERI3
 70
     0
  9
$USERI4
 70
     0
  9
$USERI5
 70
     0
  9
$USERR1
 40
0.0
  9
$USERR2
 40
0.0
  9
$USERR3
 40
0.0
  9
$USERR4
 40
0.0
  9
$USERR5
 40
0.0
  9
$WORLDVIEW
 70
     1
  9
$SHADEDGE
 70
     3
  9
$SHADEDIF
 70
    70
  9
$TILEMODE
 70
     1
  9
$MAXACTVP
 70
    16
  9
$PLIMCHECK
 70
     0
  9
$PEXTMIN
 10
1.0000000000000000E+020
 20
1.0000000000000000E+020
 30
1.0000000000000000E+020
  9
$PEXTMAX
 10
-1.0000000000000000E+020
 20
-1.0000000000000000E+020
 30
-1.0000000000000000E+020
  9
$PLIMMIN
 10
0.0
 20
0.0
  9
$PLIMMAX
 10
12.0
 20
9.0
  9
$UNITMODE
 70
     0
  9
$VISRETAIN
 70
     0
  9
$PLINEGEN
 70
     0
  9
$PSLTSCALE
 70
     0
  0
ENDSEC
  0
SECTION
  2
TABLES
  0
TABLE
  2
VPORT
 70
     1
  0
VPORT
  2
*ACTIVE
 70
     0
 10
0.0
 20
0.0
 11
1.0
 21
1.0
 12
97.570150770051072
 22
66.014785922033241
 13
0.0
 23
0.0
 14
5.0
 24
5.0
 15
5.0
 25
5.0
 16
0.0
 26
0.0
 36
1.0
 17
0.0
 27
0.0
 37
0.0
 40
139.20783109903601
 41
1.831871345029239
 42
50.0
 43
0.0
 44
0.0
 50
0.0
 51
0.0
 71
     0
 72
   100
 73
     1
 74
     0
 75
     0
 76
     0
 77
     0
 78
     2
  0
ENDTAB
  0
TABLE
  2
LTYPE
 70
     4
  0
LTYPE
  2
CONTINUOUS
 70
     0
  3
Solid Line
 72
    65
 73
     0
 40
0.0
  0
LTYPE
  2
CENTER
 70
     0
  3
____ _ ____ _ ____ _ ____ _ ____ _ ____ _ ____
 72
    65
 73
     4
 40
2.0
 49
1.25
 49
-0.25
 49
0.25
 49
-0.25
  0
LTYPE
  2
HIDDEN
 70
     0
  3
_ _ _ _ _ _ _ _ _ _ _ _ _ _ _ _ _ _ _ _ _ _ _
 72
    65
 73
     2
 40
0.375
 49
0.25
 49
-0.125
  0
LTYPE
  2
PHANTOM2
 70
     0
  3
___ _ _ ___ _ _ ___ _ _ ___ _ _
 72
    65
 73
     6
 40
1.25
 49
0.625
 49
-0.125
 49
0.125
 49
-0.125
 49
0.125
 49
-0.125
  0
ENDTAB
  0
TABLE
  2
LAYER
 70
     4
  0
LAYER
  2
0
 70
     0
 62
     7
  6
CONTINUOUS
  0
LAYER
  2
1
 70
     0
 62
     1
  6
CENTER
  0
LAYER
  2
3
 70
     0
 62
     3
  6
CONTINUOUS
  0
LAYER
  2
2
 70
     0
 62
     2
  6
HIDDEN
  0
ENDTAB
  0
TABLE
  2
STYLE
 70
     5
  0
STYLE
  2
STANDARD
 70
     0
 40
0.0
 41
1.0
 50
0.0
 71
     0
 42
4.0
  3
ROMANS
  4

  0
STYLE
  2
06500
 70
     0
 40
0.0
 41
1.0
 50
0.0
 71
     0
 42
1.0
  3
romans.shx
  4

  0
STYLE
  2
07500
 70
     0
 40
0.0
 41
1.0
 50
0.0
 71
     0
 42
3.0
  3
romans.shx
  4

  0
STYLE
  2
08000
 70
     0
 40
0.0
 41
1.0
 50
0.0
 71
     0
 42
3.0
  3
romans.shx
  4

  0
STYLE
  2
STANDARD1
 70
     0
 40
0.0
 41
1.0
 50
0.0
 71
     0
 42
3.0
  3
txt
  4

  0
ENDTAB
  0
TABLE
  2
VIEW
 70
     1
  0
VIEW
  2
ALL
 70
     0
 40
270.0
 10
220.59942000000001
 20
135.0
 41
441.19884000000002
 11
0.0
 21
0.0
 31
1.0
 12
0.0
 22
0.0
 32
0.0
 42
0.0
 43
0.0
 44
0.0
 50
0.0
 71
     0
  0
ENDTAB
  0
TABLE
  2
UCS
 70
     0
  0
ENDTAB
  0
TABLE
  2
APPID
 70
     3
  0
APPID
  2
ACAD
 70
     0
  0
APPID
  2
ACAD_MLEADERVER
 70
     0
  0
APPID
  2
ACAD_NAV_VCDISPLAY
 70
     0
  0
ENDTAB
  0
TABLE
  2
DIMSTYLE
 70
     1
  0
DIMSTYLE
  2
STANDARD
 70
     0
  3

  4

  5

  6

  7

 40
1.0
 41
0.18
 42
0.0625
 43
0.38
 44
0.18
 45
0.0
 46
0.0
 47
0.0
 48
0.0
140
0.18
141
0.09
142
0.0
143
25.399999999999999
144
1.0
145
0.0
146
1.0
147
0.09
 71
     0
 72
     0
 73
     1
 74
     1
 75
     0
 76
     0
 77
     0
 78
     0
170
     0
171
     2
172
     0
173
     0
174
     0
175
     0
176
     0
177
     0
178
     0
  0
ENDTAB
  0
ENDSEC
  0
SECTION
  2
BLOCKS
  0
BLOCK
  8
0
  2
$MODEL_SPACE
 70
     0
 10
0.0
 20
0.0
 30
0.0
  3
$MODEL_SPACE
  1

  0
ENDBLK
  5
677
  8
0
  0
BLOCK
 67
     1
  8
0
  2
$PAPER_SPACE
 70
     0
 10
0.0
 20
0.0
 30
0.0
  3
$PAPER_SPACE
  1

  0
ENDBLK
  5
675
 67
     1
  8
0
  0
ENDSEC
  0
SECTION
  2
ENTITIES
  0
LINE
  5
2B
  8
0
 10
114.0
 20
36.899999999999999
 30
0.0
 11
114.0
 21
103.09999999999999
 31
0.0
  0
LINE
  5
2C
  8
0
 10
122.07735
 20
105.5
 30
0.0
 11
123.92265
 21
105.5
 31
0.0
  0
LINE
  5
2D
  8
0
 10
165.0
 20
81.0
 30
0.0
 11
165.0
 21
59.0
 31
0.0
  0
LINE
  5
2E
  8
1
 10
111.5
 20
70.0
 30
0.0
 11
167.5
 21
70.0
 31
0.0
  0
LINE
  5
2F
  8
0
 10
146.5
 20
101.75
 30
0.0
 11
146.5
 21
38.25
 31
0.0
  0
LINE
  5
30
  8
0
 10
164.69999999999999
 20
82.799999999999983
 30
0.0
 11
164.69999999999999
 21
57.200000000000003
 31
0.0
  0
LINE
  5
31
  8
0
 10
148.5
 20
84.0
 30
0.0
 11
163.5
 21
84.0
 31
0.0
  0
LINE
  5
32
  8
0
 10
148.5
 20
56.0
 30
0.0
 11
163.5
 21
56.0
 31
0.0
  0
LINE
  5
33
  8
0
 10
121.0
 20
35.899999999999999
 30
0.0
 11
121.0
 21
104.09999999999999
 31
0.0
  0
LINE
  5
34
  8
0
 10
121.5
 20
35.5
 30
0.0
 11
121.5
 21
104.5
 31
0.0
  0
LINE
  5
35
  8
0
 10
115.0
 20
104.09999999999999
 30
0.0
 11
121.0
 21
104.09999999999999
 31
0.0
  0
LINE
  5
36
  8
0
 10
115.0
 20
35.899999999999999
 30
0.0
 11
121.0
 21
35.899999999999999
 31
0.0
  0
ARC
  5
37
  8
0
 10
115.0
 20
103.09999999999999
 30
0.0
 40
1.0
 50
90.0
 51
180.0
  0
ARC
  5
38
  8
0
 10
115.0
 20
36.899999999999999
 30
0.0
 40
1.0
 50
180.0
 51
270.0
  0
LINE
  5
39
  8
0
 10
142.5
 20
103.75
 30
0.0
 11
144.5
 21
103.75
 31
0.0
  0
LINE
  5
3A
  8
0
 10
142.5
 20
36.25
 30
0.0
 11
144.5
 21
36.25
 31
0.0
  0
LINE
  5
3B
  8
0
 10
142.5
 20
104.5
 30
0.0
 11
142.5
 21
35.5
 31
0.0
  0
ARC
  5
3C
  8
0
 10
144.5
 20
101.75
 30
0.0
 40
2.0
 50
0.0
 51
90.0
  0
ARC
  5
3D
  8
0
 10
144.5
 20
38.25
 30
0.0
 40
2.0
 50
270.0
 51
360.0
  0
LINE
  5
3E
  8
0
 10
121.5
 20
37.399999999999999
 30
0.0
 11
121.0
 21
37.399999999999999
 31
0.0
  0
ARC
  5
3F
  8
0
 10
148.5
 20
86.0
 30
0.0
 40
2.0
 50
180.0
 51
270.0
  0
ARC
  5
40
  8
0
 10
148.5
 20
54.0
 30
0.0
 40
2.0
 50
90.0
 51
180.0
  0
LINE
  5
41
  8
0
 10
163.5
 20
84.0
 30
0.0
 11
164.69999999999999
 21
82.799999999999983
 31
0.0
  0
LINE
  5
42
  8
0
 10
164.69999999999999
 20
57.200000000000003
 30
0.0
 11
163.5
 21
56.0
 31
0.0
  0
LINE
  5
43
  8
2
 10
144.0
 20
65.0
 30
0.0
 11
164.0
 21
65.0
 31
0.0
  0
LINE
  5
44
  8
2
 10
143.0
 20
80.25
 30
0.0
 11
143.0
 21
59.75
 31
0.0
  0
LINE
  5
45
  8
2
 10
164.0
 20
65.0
 30
0.0
 11
165.0
 21
64.0
 31
0.0
  0
LINE
  5
46
  8
2
 10
164.0
 20
65.0
 30
0.0
 11
164.0
 21
75.0
 31
0.0
  0
LINE
  5
47
  8
2
 10
145.0
 20
59.75
 30
0.0
 11
145.0
 21
59.0
 31
0.0
  0
LINE
  5
48
  8
2
 10
143.0
 20
59.75
 30
0.0
 11
145.0
 21
59.75
 31
0.0
  0
LINE
  5
49
  8
2
 10
144.0
 20
65.0
 30
0.0
 11
143.0
 21
64.0
 31
0.0
  0
LINE
  5
4A
  8
2
 10
144.0
 20
65.0
 30
0.0
 11
144.0
 21
75.0
 31
0.0
  0
LINE
  5
4B
  8
2
 10
144.0
 20
65.958547999999993
 30
0.0
 11
145.42965799999999
 21
65.958547999999993
 31
0.0
  0
LINE
  5
4C
  8
2
 10
145.80000000000001
 20
73.400000000000006
 30
0.0
 11
145.80000000000001
 21
66.599999999999994
 31
0.0
  0
LINE
  5
4D
  8
2
 10
144.0
 20
67.979274000000004
 30
0.0
 11
145.42965799999999
 21
67.979274000000004
 31
0.0
  0
ARC
  5
4E
  8
2
 10
139.05487199999999
 20
70.0
 30
0.0
 40
6.6873929999999993
 50
342.41204599999998
 51
360.0
  0
ARC
  5
4F
  8
2
 10
143.95318900000001
 20
66.968911000000006
 30
0.0
 40
1.789075999999999
 50
334.38424700000002
 51
34.384247000000002
  0
LINE
  5
50
  8
2
 10
145.80000000000001
 20
66.599999999999994
 30
0.0
 11
145.42965799999999
 21
65.958547999999993
 31
0.0
  0
LINE
  5
51
  8
2
 10
145.80000000000001
 20
68.0
 30
0.0
 11
146.19999999999999
 21
68.0
 31
0.0
  0
LINE
  5
52
  8
2
 10
147.0
 20
71.200000000000003
 30
0.0
 11
147.0
 21
68.799999999999983
 31
0.0
  0
LINE
  5
53
  8
2
 10
146.19999999999999
 20
72.0
 30
0.0
 11
146.19999999999999
 21
68.0
 31
0.0
  0
LINE
  5
54
  8
2
 10
147.0
 20
68.799999999999983
 30
0.0
 11
146.19999999999999
 21
68.0
 31
0.0
  0
LINE
  5
55
  8
2
 10
145.80000000000001
 20
68.378999999999991
 30
0.0
 11
146.57900000000001
 21
68.378999999999991
 31
0.0
  0
LINE
  5
56
  8
0
 10
121.0
 20
102.59999999999999
 30
0.0
 11
121.5
 21
102.59999999999999
 31
0.0
  0
LINE
  5
57
  8
2
 10
143.0
 20
65.5
 30
0.0
 11
144.0
 21
65.5
 31
0.0
  0
LINE
  5
58
  8
0
 10
124.5
 20
35.5
 30
0.0
 11
124.5
 21
104.5
 31
0.0
  0
LINE
  5
59
  8
0
 10
127.5
 20
35.5
 30
0.0
 11
127.5
 21
104.5
 31
0.0
  0
LINE
  5
5A
  8
0
 10
130.5
 20
35.5
 30
0.0
 11
130.5
 21
104.5
 31
0.0
  0
LINE
  5
5B
  8
0
 10
133.5
 20
35.5
 30
0.0
 11
133.5
 21
104.5
 31
0.0
  0
LINE
  5
5C
  8
0
 10
136.5
 20
35.5
 30
0.0
 11
136.5
 21
104.5
 31
0.0
  0
LINE
  5
5D
  8
0
 10
139.5
 20
35.5
 30
0.0
 11
139.5
 21
104.5
 31
0.0
  0
LINE
  5
5E
  8
0
 10
122.07735
 20
105.5
 30
0.0
 11
122.07735
 21
105.485913
 31
0.0
  0
LINE
  5
5F
  8
0
 10
123.92265
 20
105.5
 30
0.0
 11
123.92265
 21
105.485913
 31
0.0
  0
LINE
  5
60
  8
0
 10
122.07735
 20
71.0
 30
0.0
 11
123.92265
 21
71.0
 31
0.0
  0
LINE
  5
61
  8
0
 10
122.07735
 20
72.096606000000008
 30
0.0
 11
123.92265
 21
72.096606000000008
 31
0.0
  0
LINE
  5
62
  8
0
 10
122.07735
 20
74.088995999999995
 30
0.0
 11
123.92265
 21
74.088995999999995
 31
0.0
  0
LINE
  5
63
  8
0
 10
122.07735
 20
75.177256
 30
0.0
 11
123.92265
 21
75.177256
 31
0.0
  0
LINE
  5
64
  8
0
 10
122.07735
 20
77.146872000000002
 30
0.0
 11
123.92265
 21
77.146872000000002
 31
0.0
  0
LINE
  5
65
  8
0
 10
122.07735
 20
78.21850400000001
 30
0.0
 11
123.92265
 21
78.21850400000001
 31
0.0
  0
LINE
  5
66
  8
0
 10
122.07735
 20
80.150356000000002
 30
0.0
 11
123.92265
 21
80.150356000000002
 31
0.0
  0
LINE
  5
67
  8
0
 10
122.07735
 20
81.197203999999999
 30
0.0
 11
123.92265
 21
81.197203999999999
 31
0.0
  0
LINE
  5
68
  8
0
 10
122.07735
 20
83.076589999999996
 30
0.0
 11
123.92265
 21
83.076589999999996
 31
0.0
  0
LINE
  5
69
  8
0
 10
122.07735
 20
84.090687000000003
 30
0.0
 11
123.92265
 21
84.090687000000003
 31
0.0
  0
LINE
  5
6A
  8
0
 10
122.07735
 20
85.903303000000008
 30
0.0
 11
123.92265
 21
85.903303000000008
 31
0.0
  0
LINE
  5
6B
  8
0
 10
122.07735
 20
86.876930999999999
 30
0.0
 11
123.92265
 21
86.876930999999999
 31
0.0
  0
LINE
  5
6C
  8
0
 10
122.07735
 20
88.608981999999983
 30
0.0
 11
123.92265
 21
88.608981999999983
 31
0.0
  0
LINE
  5
6D
  8
0
 10
122.07735
 20
89.534731000000008
 30
0.0
 11
123.92265
 21
89.534731000000008
 31
0.0
  0
LINE
  5
6E
  8
0
 10
122.07735
 20
91.173034999999999
 30
0.0
 11
123.92265
 21
91.173034999999999
 31
0.0
  0
LINE
  5
6F
  8
0
 10
122.07735
 20
92.043860999999978
 30
0.0
 11
123.92265
 21
92.043860999999978
 31
0.0
  0
LINE
  5
70
  8
0
 10
122.07735
 20
93.575948999999994
 30
0.0
 11
123.92265
 21
93.575948999999994
 31
0.0
  0
LINE
  5
71
  8
0
 10
122.07735
 20
94.385222999999996
 30
0.0
 11
123.92265
 21
94.385222999999996
 31
0.0
  0
LINE
  5
72
  8
0
 10
122.07735
 20
95.799436
 30
0.0
 11
123.92265
 21
95.799436
 31
0.0
  0
LINE
  5
73
  8
0
 10
122.07735
 20
96.540998999999999
 30
0.0
 11
123.92265
 21
96.540998999999999
 31
0.0
  0
LINE
  5
74
  8
0
 10
122.07735
 20
97.826573999999994
 30
0.0
 11
123.92265
 21
97.826573999999994
 31
0.0
  0
LINE
  5
75
  8
0
 10
122.07735
 20
98.494781000000003
 30
0.0
 11
123.92265
 21
98.494781000000003
 31
0.0
  0
LINE
  5
76
  8
0
 10
122.07735
 20
99.641933999999992
 30
0.0
 11
123.92265
 21
99.641933999999992
 31
0.0
  0
LINE
  5
77
  8
0
 10
122.07735
 20
100.231702
 30
0.0
 11
123.92265
 21
100.231702
 31
0.0
  0
LINE
  5
78
  8
0
 10
122.07735
 20
101.231702
 30
0.0
 11
123.92265
 21
101.231702
 31
0.0
  0
LINE
  5
79
  8
0
 10
122.07735
 20
101.738541
 30
0.0
 11
123.92265
 21
101.738541
 31
0.0
  0
LINE
  5
7A
  8
0
 10
122.07735
 20
102.583777
 30
0.0
 11
123.92265
 21
102.583777
 31
0.0
  0
LINE
  5
7B
  8
0
 10
122.07735
 20
103.00382999999999
 30
0.0
 11
123.92265
 21
103.00382999999999
 31
0.0
  0
LINE
  5
7C
  8
0
 10
122.07735
 20
103.68787
 30
0.0
 11
123.92265
 21
103.68787
 31
0.0
  0
LINE
  5
7D
  8
0
 10
122.07735
 20
104.01794
 30
0.0
 11
123.92265
 21
104.01794
 31
0.0
  0
LINE
  5
7E
  8
0
 10
122.07735
 20
104.535579
 30
0.0
 11
123.92265
 21
104.535579
 31
0.0
  0
LINE
  5
7F
  8
0
 10
122.07735
 20
104.77315400000001
 30
0.0
 11
123.92265
 21
104.77315400000001
 31
0.0
  0
LINE
  5
80
  8
0
 10
122.07735
 20
105.12045000000001
 30
0.0
 11
123.92265
 21
105.12045000000001
 31
0.0
  0
LINE
  5
81
  8
0
 10
122.07735
 20
105.263722
 30
0.0
 11
123.92265
 21
105.263722
 31
0.0
  0
LINE
  5
82
  8
0
 10
122.07735
 20
105.438034
 30
0.0
 11
123.92265
 21
105.438034
 31
0.0
  0
LINE
  5
83
  8
0
 10
122.07735
 20
105.485913
 30
0.0
 11
123.92265
 21
105.485913
 31
0.0
  0
LINE
  5
84
  8
0
 10
123.92265
 20
71.0
 30
0.0
 11
123.92265
 21
69.0
 31
0.0
  0
LINE
  5
85
  8
0
 10
122.07735
 20
71.0
 30
0.0
 11
122.07735
 21
69.0
 31
0.0
  0
LINE
  5
86
  8
0
 10
122.07735
 20
74.088995999999995
 30
0.0
 11
122.07735
 21
72.096606000000008
 31
0.0
  0
LINE
  5
87
  8
0
 10
123.92265
 20
74.088995999999995
 30
0.0
 11
123.92265
 21
72.096606000000008
 31
0.0
  0
LINE
  5
88
  8
0
 10
123.92265
 20
77.146872000000002
 30
0.0
 11
123.92265
 21
75.177256
 31
0.0
  0
LINE
  5
89
  8
0
 10
122.07735
 20
77.146872000000002
 30
0.0
 11
122.07735
 21
75.177256
 31
0.0
  0
LINE
  5
8A
  8
0
 10
122.07735
 20
80.150356000000002
 30
0.0
 11
122.07735
 21
78.21850400000001
 31
0.0
  0
LINE
  5
8B
  8
0
 10
123.92265
 20
80.150356000000002
 30
0.0
 11
123.92265
 21
78.21850400000001
 31
0.0
  0
LINE
  5
8C
  8
0
 10
123.92265
 20
83.076589999999996
 30
0.0
 11
123.92265
 21
81.197203999999999
 31
0.0
  0
LINE
  5
8D
  8
0
 10
122.07735
 20
83.076589999999996
 30
0.0
 11
122.07735
 21
81.197203999999999
 31
0.0
  0
LINE
  5
8E
  8
0
 10
122.07735
 20
85.903303000000008
 30
0.0
 11
122.07735
 21
84.090687000000003
 31
0.0
  0
LINE
  5
8F
  8
0
 10
123.92265
 20
85.903303000000008
 30
0.0
 11
123.92265
 21
84.090687000000003
 31
0.0
  0
LINE
  5
90
  8
0
 10
123.92265
 20
88.608981999999983
 30
0.0
 11
123.92265
 21
86.876930999999999
 31
0.0
  0
LINE
  5
91
  8
0
 10
122.07735
 20
88.608981999999983
 30
0.0
 11
122.07735
 21
86.876930999999999
 31
0.0
  0
LINE
  5
92
  8
0
 10
123.92265
 20
91.173034999999999
 30
0.0
 11
123.92265
 21
89.534731000000008
 31
0.0
  0
LINE
  5
93
  8
0
 10
122.07735
 20
91.173034999999999
 30
0.0
 11
122.07735
 21
89.534731000000008
 31
0.0
  0
LINE
  5
94
  8
0
 10
122.07735
 20
93.575948999999994
 30
0.0
 11
122.07735
 21
92.043860999999978
 31
0.0
  0
LINE
  5
95
  8
0
 10
123.92265
 20
93.575948999999994
 30
0.0
 11
123.92265
 21
92.043860999999978
 31
0.0
  0
LINE
  5
96
  8
0
 10
123.92265
 20
95.799436
 30
0.0
 11
123.92265
 21
94.385222999999996
 31
0.0
  0
LINE
  5
97
  8
0
 10
122.07735
 20
95.799436
 30
0.0
 11
122.07735
 21
94.385222999999996
 31
0.0
  0
LINE
  5
98
  8
0
 10
122.07735
 20
97.826573999999994
 30
0.0
 11
122.07735
 21
96.540998999999999
 31
0.0
  0
LINE
  5
99
  8
0
 10
123.92265
 20
97.826573999999994
 30
0.0
 11
123.92265
 21
96.540998999999999
 31
0.0
  0
LINE
  5
9A
  8
0
 10
123.92265
 20
99.641933999999992
 30
0.0
 11
123.92265
 21
98.494781000000003
 31
0.0
  0
LINE
  5
9B
  8
0
 10
122.07735
 20
99.641933999999992
 30
0.0
 11
122.07735
 21
98.494781000000003
 31
0.0
  0
LINE
  5
9C
  8
0
 10
122.07735
 20
101.231702
 30
0.0
 11
122.07735
 21
100.231702
 31
0.0
  0
LINE
  5
9D
  8
0
 10
123.92265
 20
101.231702
 30
0.0
 11
123.92265
 21
100.231702
 31
0.0
  0
LINE
  5
9E
  8
0
 10
123.92265
 20
102.583777
 30
0.0
 11
123.92265
 21
101.738541
 31
0.0
  0
LINE
  5
9F
  8
0
 10
122.07735
 20
102.583777
 30
0.0
 11
122.07735
 21
101.738541
 31
0.0
  0
LINE
  5
A0
  8
0
 10
122.07735
 20
103.68787
 30
0.0
 11
122.07735
 21
103.00382999999999
 31
0.0
  0
LINE
  5
A1
  8
0
 10
123.92265
 20
103.68787
 30
0.0
 11
123.92265
 21
103.00382999999999
 31
0.0
  0
LINE
  5
A2
  8
0
 10
122.07735
 20
104.535579
 30
0.0
 11
122.07735
 21
104.01794
 31
0.0
  0
LINE
  5
A3
  8
0
 10
123.92265
 20
104.535579
 30
0.0
 11
123.92265
 21
104.01794
 31
0.0
  0
LINE
  5
A4
  8
0
 10
122.07735
 20
105.12045000000001
 30
0.0
 11
122.07735
 21
104.77315400000001
 31
0.0
  0
LINE
  5
A5
  8
0
 10
123.92265
 20
105.12045000000001
 30
0.0
 11
123.92265
 21
104.77315400000001
 31
0.0
  0
LINE
  5
A6
  8
0
 10
123.92265
 20
105.438034
 30
0.0
 11
123.92265
 21
105.263722
 31
0.0
  0
LINE
  5
A7
  8
0
 10
122.07735
 20
105.438034
 30
0.0
 11
122.07735
 21
105.263722
 31
0.0
  0
LINE
  5
A8
  8
0
 10
125.07735
 20
105.438034
 30
0.0
 11
125.07735
 21
105.263722
 31
0.0
  0
LINE
  5
A9
  8
0
 10
126.92265
 20
105.438034
 30
0.0
 11
126.92265
 21
105.263722
 31
0.0
  0
LINE
  5
AA
  8
0
 10
126.92265
 20
105.12045000000001
 30
0.0
 11
126.92265
 21
104.77315400000001
 31
0.0
  0
LINE
  5
AB
  8
0
 10
125.07735
 20
105.12045000000001
 30
0.0
 11
125.07735
 21
104.77315400000001
 31
0.0
  0
LINE
  5
AC
  8
0
 10
126.92265
 20
104.535579
 30
0.0
 11
126.92265
 21
104.01794
 31
0.0
  0
LINE
  5
AD
  8
0
 10
125.07735
 20
104.535579
 30
0.0
 11
125.07735
 21
104.01794
 31
0.0
  0
LINE
  5
AE
  8
0
 10
126.92265
 20
103.68787
 30
0.0
 11
126.92265
 21
103.00382999999999
 31
0.0
  0
LINE
  5
AF
  8
0
 10
125.07735
 20
103.68787
 30
0.0
 11
125.07735
 21
103.00382999999999
 31
0.0
  0
LINE
  5
B0
  8
0
 10
125.07735
 20
102.583777
 30
0.0
 11
125.07735
 21
101.738541
 31
0.0
  0
LINE
  5
B1
  8
0
 10
126.92265
 20
102.583777
 30
0.0
 11
126.92265
 21
101.738541
 31
0.0
  0
LINE
  5
B2
  8
0
 10
126.92265
 20
101.231702
 30
0.0
 11
126.92265
 21
100.231702
 31
0.0
  0
LINE
  5
B3
  8
0
 10
125.07735
 20
101.231702
 30
0.0
 11
125.07735
 21
100.231702
 31
0.0
  0
LINE
  5
B4
  8
0
 10
125.07735
 20
99.641933999999992
 30
0.0
 11
125.07735
 21
98.494781000000003
 31
0.0
  0
LINE
  5
B5
  8
0
 10
126.92265
 20
99.641933999999992
 30
0.0
 11
126.92265
 21
98.494781000000003
 31
0.0
  0
LINE
  5
B6
  8
0
 10
126.92265
 20
97.826573999999994
 30
0.0
 11
126.92265
 21
96.540998999999999
 31
0.0
  0
LINE
  5
B7
  8
0
 10
125.07735
 20
97.826573999999994
 30
0.0
 11
125.07735
 21
96.540998999999999
 31
0.0
  0
LINE
  5
B8
  8
0
 10
125.07735
 20
95.799436
 30
0.0
 11
125.07735
 21
94.385222999999996
 31
0.0
  0
LINE
  5
B9
  8
0
 10
126.92265
 20
95.799436
 30
0.0
 11
126.92265
 21
94.385222999999996
 31
0.0
  0
LINE
  5
BA
  8
0
 10
126.92265
 20
93.575948999999994
 30
0.0
 11
126.92265
 21
92.043860999999978
 31
0.0
  0
LINE
  5
BB
  8
0
 10
125.07735
 20
93.575948999999994
 30
0.0
 11
125.07735
 21
92.043860999999978
 31
0.0
  0
LINE
  5
BC
  8
0
 10
125.07735
 20
91.173034999999999
 30
0.0
 11
125.07735
 21
89.534731000000008
 31
0.0
  0
LINE
  5
BD
  8
0
 10
126.92265
 20
91.173034999999999
 30
0.0
 11
126.92265
 21
89.534731000000008
 31
0.0
  0
LINE
  5
BE
  8
0
 10
125.07735
 20
88.608981999999983
 30
0.0
 11
125.07735
 21
86.876930999999999
 31
0.0
  0
LINE
  5
BF
  8
0
 10
126.92265
 20
88.608981999999983
 30
0.0
 11
126.92265
 21
86.876930999999999
 31
0.0
  0
LINE
  5
C0
  8
0
 10
126.92265
 20
85.903303000000008
 30
0.0
 11
126.92265
 21
84.090687000000003
 31
0.0
  0
LINE
  5
C1
  8
0
 10
125.07735
 20
85.903303000000008
 30
0.0
 11
125.07735
 21
84.090687000000003
 31
0.0
  0
LINE
  5
C2
  8
0
 10
125.07735
 20
83.076589999999996
 30
0.0
 11
125.07735
 21
81.197203999999999
 31
0.0
  0
LINE
  5
C3
  8
0
 10
126.92265
 20
83.076589999999996
 30
0.0
 11
126.92265
 21
81.197203999999999
 31
0.0
  0
LINE
  5
C4
  8
0
 10
126.92265
 20
80.150356000000002
 30
0.0
 11
126.92265
 21
78.21850400000001
 31
0.0
  0
LINE
  5
C5
  8
0
 10
125.07735
 20
80.150356000000002
 30
0.0
 11
125.07735
 21
78.21850400000001
 31
0.0
  0
LINE
  5
C6
  8
0
 10
125.07735
 20
77.146872000000002
 30
0.0
 11
125.07735
 21
75.177256
 31
0.0
  0
LINE
  5
C7
  8
0
 10
126.92265
 20
77.146872000000002
 30
0.0
 11
126.92265
 21
75.177256
 31
0.0
  0
LINE
  5
C8
  8
0
 10
126.92265
 20
74.088995999999995
 30
0.0
 11
126.92265
 21
72.096606000000008
 31
0.0
  0
LINE
  5
C9
  8
0
 10
125.07735
 20
74.088995999999995
 30
0.0
 11
125.07735
 21
72.096606000000008
 31
0.0
  0
LINE
  5
CA
  8
0
 10
125.07735
 20
105.485913
 30
0.0
 11
126.92265
 21
105.485913
 31
0.0
  0
LINE
  5
CB
  8
0
 10
125.07735
 20
105.438034
 30
0.0
 11
126.92265
 21
105.438034
 31
0.0
  0
LINE
  5
CC
  8
0
 10
125.07735
 20
105.263722
 30
0.0
 11
126.92265
 21
105.263722
 31
0.0
  0
LINE
  5
CD
  8
0
 10
125.07735
 20
105.12045000000001
 30
0.0
 11
126.92265
 21
105.12045000000001
 31
0.0
  0
LINE
  5
CE
  8
0
 10
125.07735
 20
104.77315400000001
 30
0.0
 11
126.92265
 21
104.77315400000001
 31
0.0
  0
LINE
  5
CF
  8
0
 10
125.07735
 20
104.535579
 30
0.0
 11
126.92265
 21
104.535579
 31
0.0
  0
LINE
  5
D0
  8
0
 10
125.07735
 20
104.01794
 30
0.0
 11
126.92265
 21
104.01794
 31
0.0
  0
LINE
  5
D1
  8
0
 10
125.07735
 20
103.68787
 30
0.0
 11
126.92265
 21
103.68787
 31
0.0
  0
LINE
  5
D2
  8
0
 10
125.07735
 20
103.00382999999999
 30
0.0
 11
126.92265
 21
103.00382999999999
 31
0.0
  0
LINE
  5
D3
  8
0
 10
125.07735
 20
102.583777
 30
0.0
 11
126.92265
 21
102.583777
 31
0.0
  0
LINE
  5
D4
  8
0
 10
125.07735
 20
101.738541
 30
0.0
 11
126.92265
 21
101.738541
 31
0.0
  0
LINE
  5
D5
  8
0
 10
125.07735
 20
101.231702
 30
0.0
 11
126.92265
 21
101.231702
 31
0.0
  0
LINE
  5
D6
  8
0
 10
125.07735
 20
100.231702
 30
0.0
 11
126.92265
 21
100.231702
 31
0.0
  0
LINE
  5
D7
  8
0
 10
125.07735
 20
99.641933999999992
 30
0.0
 11
126.92265
 21
99.641933999999992
 31
0.0
  0
LINE
  5
D8
  8
0
 10
125.07735
 20
98.494781000000003
 30
0.0
 11
126.92265
 21
98.494781000000003
 31
0.0
  0
LINE
  5
D9
  8
0
 10
125.07735
 20
97.826573999999994
 30
0.0
 11
126.92265
 21
97.826573999999994
 31
0.0
  0
LINE
  5
DA
  8
0
 10
125.07735
 20
96.540998999999999
 30
0.0
 11
126.92265
 21
96.540998999999999
 31
0.0
  0
LINE
  5
DB
  8
0
 10
125.07735
 20
95.799436
 30
0.0
 11
126.92265
 21
95.799436
 31
0.0
  0
LINE
  5
DC
  8
0
 10
125.07735
 20
94.385222999999996
 30
0.0
 11
126.92265
 21
94.385222999999996
 31
0.0
  0
LINE
  5
DD
  8
0
 10
125.07735
 20
93.575948999999994
 30
0.0
 11
126.92265
 21
93.575948999999994
 31
0.0
  0
LINE
  5
DE
  8
0
 10
125.07735
 20
92.043860999999978
 30
0.0
 11
126.92265
 21
92.043860999999978
 31
0.0
  0
LINE
  5
DF
  8
0
 10
125.07735
 20
91.173034999999999
 30
0.0
 11
126.92265
 21
91.173034999999999
 31
0.0
  0
LINE
  5
E0
  8
0
 10
125.07735
 20
89.534731000000008
 30
0.0
 11
126.92265
 21
89.534731000000008
 31
0.0
  0
LINE
  5
E1
  8
0
 10
125.07735
 20
88.608981999999983
 30
0.0
 11
126.92265
 21
88.608981999999983
 31
0.0
  0
LINE
  5
E2
  8
0
 10
125.07735
 20
86.876930999999999
 30
0.0
 11
126.92265
 21
86.876930999999999
 31
0.0
  0
LINE
  5
E3
  8
0
 10
125.07735
 20
85.903303000000008
 30
0.0
 11
126.92265
 21
85.903303000000008
 31
0.0
  0
LINE
  5
E4
  8
0
 10
125.07735
 20
84.090687000000003
 30
0.0
 11
126.92265
 21
84.090687000000003
 31
0.0
  0
LINE
  5
E5
  8
0
 10
125.07735
 20
83.076589999999996
 30
0.0
 11
126.92265
 21
83.076589999999996
 31
0.0
  0
LINE
  5
E6
  8
0
 10
125.07735
 20
81.197203999999999
 30
0.0
 11
126.92265
 21
81.197203999999999
 31
0.0
  0
LINE
  5
E7
  8
0
 10
125.07735
 20
80.150356000000002
 30
0.0
 11
126.92265
 21
80.150356000000002
 31
0.0
  0
LINE
  5
E8
  8
0
 10
125.07735
 20
78.21850400000001
 30
0.0
 11
126.92265
 21
78.21850400000001
 31
0.0
  0
LINE
  5
E9
  8
0
 10
125.07735
 20
77.146872000000002
 30
0.0
 11
126.92265
 21
77.146872000000002
 31
0.0
  0
LINE
  5
EA
  8
0
 10
125.07735
 20
75.177256
 30
0.0
 11
126.92265
 21
75.177256
 31
0.0
  0
LINE
  5
EB
  8
0
 10
125.07735
 20
74.088995999999995
 30
0.0
 11
126.92265
 21
74.088995999999995
 31
0.0
  0
LINE
  5
EC
  8
0
 10
125.07735
 20
72.096606000000008
 30
0.0
 11
126.92265
 21
72.096606000000008
 31
0.0
  0
LINE
  5
ED
  8
0
 10
125.07735
 20
71.0
 30
0.0
 11
126.92265
 21
71.0
 31
0.0
  0
LINE
  5
EE
  8
0
 10
126.92265
 20
105.5
 30
0.0
 11
126.92265
 21
105.485913
 31
0.0
  0
LINE
  5
EF
  8
0
 10
125.07735
 20
105.5
 30
0.0
 11
125.07735
 21
105.485913
 31
0.0
  0
LINE
  5
F0
  8
0
 10
125.07735
 20
105.5
 30
0.0
 11
126.92265
 21
105.5
 31
0.0
  0
LINE
  5
F1
  8
0
 10
125.07735
 20
71.0
 30
0.0
 11
125.07735
 21
69.0
 31
0.0
  0
LINE
  5
F2
  8
0
 10
126.92265
 20
71.0
 30
0.0
 11
126.92265
 21
69.0
 31
0.0
  0
LINE
  5
F3
  8
0
 10
128.07735
 20
105.438034
 30
0.0
 11
128.07735
 21
105.263722
 31
0.0
  0
LINE
  5
F4
  8
0
 10
129.92265
 20
105.438034
 30
0.0
 11
129.92265
 21
105.263722
 31
0.0
  0
LINE
  5
F5
  8
0
 10
129.92265
 20
105.12045000000001
 30
0.0
 11
129.92265
 21
104.77315400000001
 31
0.0
  0
LINE
  5
F6
  8
0
 10
128.07735
 20
105.12045000000001
 30
0.0
 11
128.07735
 21
104.77315400000001
 31
0.0
  0
LINE
  5
F7
  8
0
 10
129.92265
 20
104.535579
 30
0.0
 11
129.92265
 21
104.01794
 31
0.0
  0
LINE
  5
F8
  8
0
 10
128.07735
 20
104.535579
 30
0.0
 11
128.07735
 21
104.01794
 31
0.0
  0
LINE
  5
F9
  8
0
 10
129.92265
 20
103.68787
 30
0.0
 11
129.92265
 21
103.00382999999999
 31
0.0
  0
LINE
  5
FA
  8
0
 10
128.07735
 20
103.68787
 30
0.0
 11
128.07735
 21
103.00382999999999
 31
0.0
  0
LINE
  5
FB
  8
0
 10
128.07735
 20
102.583777
 30
0.0
 11
128.07735
 21
101.738541
 31
0.0
  0
LINE
  5
FC
  8
0
 10
129.92265
 20
102.583777
 30
0.0
 11
129.92265
 21
101.738541
 31
0.0
  0
LINE
  5
FD
  8
0
 10
129.92265
 20
101.231702
 30
0.0
 11
129.92265
 21
100.231702
 31
0.0
  0
LINE
  5
FE
  8
0
 10
128.07735
 20
101.231702
 30
0.0
 11
128.07735
 21
100.231702
 31
0.0
  0
LINE
  5
FF
  8
0
 10
128.07735
 20
99.641933999999992
 30
0.0
 11
128.07735
 21
98.494781000000003
 31
0.0
  0
LINE
  5
100
  8
0
 10
129.92265
 20
99.641933999999992
 30
0.0
 11
129.92265
 21
98.494781000000003
 31
0.0
  0
LINE
  5
101
  8
0
 10
129.92265
 20
97.826573999999994
 30
0.0
 11
129.92265
 21
96.540998999999999
 31
0.0
  0
LINE
  5
102
  8
0
 10
128.07735
 20
97.826573999999994
 30
0.0
 11
128.07735
 21
96.540998999999999
 31
0.0
  0
LINE
  5
103
  8
0
 10
128.07735
 20
95.799436
 30
0.0
 11
128.07735
 21
94.385222999999996
 31
0.0
  0
LINE
  5
104
  8
0
 10
129.92265
 20
95.799436
 30
0.0
 11
129.92265
 21
94.385222999999996
 31
0.0
  0
LINE
  5
105
  8
0
 10
129.92265
 20
93.575948999999994
 30
0.0
 11
129.92265
 21
92.043860999999978
 31
0.0
  0
LINE
  5
106
  8
0
 10
128.07735
 20
93.575948999999994
 30
0.0
 11
128.07735
 21
92.043860999999978
 31
0.0
  0
LINE
  5
107
  8
0
 10
128.07735
 20
91.173034999999999
 30
0.0
 11
128.07735
 21
89.534731000000008
 31
0.0
  0
LINE
  5
108
  8
0
 10
129.92265
 20
91.173034999999999
 30
0.0
 11
129.92265
 21
89.534731000000008
 31
0.0
  0
LINE
  5
109
  8
0
 10
128.07735
 20
88.608981999999983
 30
0.0
 11
128.07735
 21
86.876930999999999
 31
0.0
  0
LINE
  5
10A
  8
0
 10
129.92265
 20
88.608981999999983
 30
0.0
 11
129.92265
 21
86.876930999999999
 31
0.0
  0
LINE
  5
10B
  8
0
 10
129.92265
 20
85.903303000000008
 30
0.0
 11
129.92265
 21
84.090687000000003
 31
0.0
  0
LINE
  5
10C
  8
0
 10
128.07735
 20
85.903303000000008
 30
0.0
 11
128.07735
 21
84.090687000000003
 31
0.0
  0
LINE
  5
10D
  8
0
 10
128.07735
 20
83.076589999999996
 30
0.0
 11
128.07735
 21
81.197203999999999
 31
0.0
  0
LINE
  5
10E
  8
0
 10
129.92265
 20
83.076589999999996
 30
0.0
 11
129.92265
 21
81.197203999999999
 31
0.0
  0
LINE
  5
10F
  8
0
 10
129.92265
 20
80.150356000000002
 30
0.0
 11
129.92265
 21
78.21850400000001
 31
0.0
  0
LINE
  5
110
  8
0
 10
128.07735
 20
80.150356000000002
 30
0.0
 11
128.07735
 21
78.21850400000001
 31
0.0
  0
LINE
  5
111
  8
0
 10
128.07735
 20
77.146872000000002
 30
0.0
 11
128.07735
 21
75.177256
 31
0.0
  0
LINE
  5
112
  8
0
 10
129.92265
 20
77.146872000000002
 30
0.0
 11
129.92265
 21
75.177256
 31
0.0
  0
LINE
  5
113
  8
0
 10
129.92265
 20
74.088995999999995
 30
0.0
 11
129.92265
 21
72.096606000000008
 31
0.0
  0
LINE
  5
114
  8
0
 10
128.07735
 20
74.088995999999995
 30
0.0
 11
128.07735
 21
72.096606000000008
 31
0.0
  0
LINE
  5
115
  8
0
 10
128.07735
 20
105.485913
 30
0.0
 11
129.92265
 21
105.485913
 31
0.0
  0
LINE
  5
116
  8
0
 10
128.07735
 20
105.438034
 30
0.0
 11
129.92265
 21
105.438034
 31
0.0
  0
LINE
  5
117
  8
0
 10
128.07735
 20
105.263722
 30
0.0
 11
129.92265
 21
105.263722
 31
0.0
  0
LINE
  5
118
  8
0
 10
128.07735
 20
105.12045000000001
 30
0.0
 11
129.92265
 21
105.12045000000001
 31
0.0
  0
LINE
  5
119
  8
0
 10
128.07735
 20
104.77315400000001
 30
0.0
 11
129.92265
 21
104.77315400000001
 31
0.0
  0
LINE
  5
11A
  8
0
 10
128.07735
 20
104.535579
 30
0.0
 11
129.92265
 21
104.535579
 31
0.0
  0
LINE
  5
11B
  8
0
 10
128.07735
 20
104.01794
 30
0.0
 11
129.92265
 21
104.01794
 31
0.0
  0
LINE
  5
11C
  8
0
 10
128.07735
 20
103.68787
 30
0.0
 11
129.92265
 21
103.68787
 31
0.0
  0
LINE
  5
11D
  8
0
 10
128.07735
 20
103.00382999999999
 30
0.0
 11
129.92265
 21
103.00382999999999
 31
0.0
  0
LINE
  5
11E
  8
0
 10
128.07735
 20
102.583777
 30
0.0
 11
129.92265
 21
102.583777
 31
0.0
  0
LINE
  5
11F
  8
0
 10
128.07735
 20
101.738541
 30
0.0
 11
129.92265
 21
101.738541
 31
0.0
  0
LINE
  5
120
  8
0
 10
128.07735
 20
101.231702
 30
0.0
 11
129.92265
 21
101.231702
 31
0.0
  0
LINE
  5
121
  8
0
 10
128.07735
 20
100.231702
 30
0.0
 11
129.92265
 21
100.231702
 31
0.0
  0
LINE
  5
122
  8
0
 10
128.07735
 20
99.641933999999992
 30
0.0
 11
129.92265
 21
99.641933999999992
 31
0.0
  0
LINE
  5
123
  8
0
 10
128.07735
 20
98.494781000000003
 30
0.0
 11
129.92265
 21
98.494781000000003
 31
0.0
  0
LINE
  5
124
  8
0
 10
128.07735
 20
97.826573999999994
 30
0.0
 11
129.92265
 21
97.826573999999994
 31
0.0
  0
LINE
  5
125
  8
0
 10
128.07735
 20
96.540998999999999
 30
0.0
 11
129.92265
 21
96.540998999999999
 31
0.0
  0
LINE
  5
126
  8
0
 10
128.07735
 20
95.799436
 30
0.0
 11
129.92265
 21
95.799436
 31
0.0
  0
LINE
  5
127
  8
0
 10
128.07735
 20
94.385222999999996
 30
0.0
 11
129.92265
 21
94.385222999999996
 31
0.0
  0
LINE
  5
128
  8
0
 10
128.07735
 20
93.575948999999994
 30
0.0
 11
129.92265
 21
93.575948999999994
 31
0.0
  0
LINE
  5
129
  8
0
 10
128.07735
 20
92.043860999999978
 30
0.0
 11
129.92265
 21
92.043860999999978
 31
0.0
  0
LINE
  5
12A
  8
0
 10
128.07735
 20
91.173034999999999
 30
0.0
 11
129.92265
 21
91.173034999999999
 31
0.0
  0
LINE
  5
12B
  8
0
 10
128.07735
 20
89.534731000000008
 30
0.0
 11
129.92265
 21
89.534731000000008
 31
0.0
  0
LINE
  5
12C
  8
0
 10
128.07735
 20
88.608981999999983
 30
0.0
 11
129.92265
 21
88.608981999999983
 31
0.0
  0
LINE
  5
12D
  8
0
 10
128.07735
 20
86.876930999999999
 30
0.0
 11
129.92265
 21
86.876930999999999
 31
0.0
  0
LINE
  5
12E
  8
0
 10
128.07735
 20
85.903303000000008
 30
0.0
 11
129.92265
 21
85.903303000000008
 31
0.0
  0
LINE
  5
12F
  8
0
 10
128.07735
 20
84.090687000000003
 30
0.0
 11
129.92265
 21
84.090687000000003
 31
0.0
  0
LINE
  5
130
  8
0
 10
128.07735
 20
83.076589999999996
 30
0.0
 11
129.92265
 21
83.076589999999996
 31
0.0
  0
LINE
  5
131
  8
0
 10
128.07735
 20
81.197203999999999
 30
0.0
 11
129.92265
 21
81.197203999999999
 31
0.0
  0
LINE
  5
132
  8
0
 10
128.07735
 20
80.150356000000002
 30
0.0
 11
129.92265
 21
80.150356000000002
 31
0.0
  0
LINE
  5
133
  8
0
 10
128.07735
 20
78.21850400000001
 30
0.0
 11
129.92265
 21
78.21850400000001
 31
0.0
  0
LINE
  5
134
  8
0
 10
128.07735
 20
77.146872000000002
 30
0.0
 11
129.92265
 21
77.146872000000002
 31
0.0
  0
LINE
  5
135
  8
0
 10
128.07735
 20
75.177256
 30
0.0
 11
129.92265
 21
75.177256
 31
0.0
  0
LINE
  5
136
  8
0
 10
128.07735
 20
74.088995999999995
 30
0.0
 11
129.92265
 21
74.088995999999995
 31
0.0
  0
LINE
  5
137
  8
0
 10
128.07735
 20
72.096606000000008
 30
0.0
 11
129.92265
 21
72.096606000000008
 31
0.0
  0
LINE
  5
138
  8
0
 10
128.07735
 20
71.0
 30
0.0
 11
129.92265
 21
71.0
 31
0.0
  0
LINE
  5
139
  8
0
 10
129.92265
 20
105.5
 30
0.0
 11
129.92265
 21
105.485913
 31
0.0
  0
LINE
  5
13A
  8
0
 10
128.07735
 20
105.5
 30
0.0
 11
128.07735
 21
105.485913
 31
0.0
  0
LINE
  5
13B
  8
0
 10
128.07735
 20
105.5
 30
0.0
 11
129.92265
 21
105.5
 31
0.0
  0
LINE
  5
13C
  8
0
 10
128.07735
 20
71.0
 30
0.0
 11
128.07735
 21
69.0
 31
0.0
  0
LINE
  5
13D
  8
0
 10
129.92265
 20
71.0
 30
0.0
 11
129.92265
 21
69.0
 31
0.0
  0
LINE
  5
13E
  8
0
 10
131.07735
 20
105.438034
 30
0.0
 11
131.07735
 21
105.263722
 31
0.0
  0
LINE
  5
13F
  8
0
 10
132.92265
 20
105.438034
 30
0.0
 11
132.92265
 21
105.263722
 31
0.0
  0
LINE
  5
140
  8
0
 10
132.92265
 20
105.12045000000001
 30
0.0
 11
132.92265
 21
104.77315400000001
 31
0.0
  0
LINE
  5
141
  8
0
 10
131.07735
 20
105.12045000000001
 30
0.0
 11
131.07735
 21
104.77315400000001
 31
0.0
  0
LINE
  5
142
  8
0
 10
132.92265
 20
104.535579
 30
0.0
 11
132.92265
 21
104.01794
 31
0.0
  0
LINE
  5
143
  8
0
 10
131.07735
 20
104.535579
 30
0.0
 11
131.07735
 21
104.01794
 31
0.0
  0
LINE
  5
144
  8
0
 10
132.92265
 20
103.68787
 30
0.0
 11
132.92265
 21
103.00382999999999
 31
0.0
  0
LINE
  5
145
  8
0
 10
131.07735
 20
103.68787
 30
0.0
 11
131.07735
 21
103.00382999999999
 31
0.0
  0
LINE
  5
146
  8
0
 10
131.07735
 20
102.583777
 30
0.0
 11
131.07735
 21
101.738541
 31
0.0
  0
LINE
  5
147
  8
0
 10
132.92265
 20
102.583777
 30
0.0
 11
132.92265
 21
101.738541
 31
0.0
  0
LINE
  5
148
  8
0
 10
132.92265
 20
101.231702
 30
0.0
 11
132.92265
 21
100.231702
 31
0.0
  0
LINE
  5
149
  8
0
 10
131.07735
 20
101.231702
 30
0.0
 11
131.07735
 21
100.231702
 31
0.0
  0
LINE
  5
14A
  8
0
 10
131.07735
 20
99.641933999999992
 30
0.0
 11
131.07735
 21
98.494781000000003
 31
0.0
  0
LINE
  5
14B
  8
0
 10
132.92265
 20
99.641933999999992
 30
0.0
 11
132.92265
 21
98.494781000000003
 31
0.0
  0
LINE
  5
14C
  8
0
 10
132.92265
 20
97.826573999999994
 30
0.0
 11
132.92265
 21
96.540998999999999
 31
0.0
  0
LINE
  5
14D
  8
0
 10
131.07735
 20
97.826573999999994
 30
0.0
 11
131.07735
 21
96.540998999999999
 31
0.0
  0
LINE
  5
14E
  8
0
 10
131.07735
 20
95.799436
 30
0.0
 11
131.07735
 21
94.385222999999996
 31
0.0
  0
LINE
  5
14F
  8
0
 10
132.92265
 20
95.799436
 30
0.0
 11
132.92265
 21
94.385222999999996
 31
0.0
  0
LINE
  5
150
  8
0
 10
132.92265
 20
93.575948999999994
 30
0.0
 11
132.92265
 21
92.043860999999978
 31
0.0
  0
LINE
  5
151
  8
0
 10
131.07735
 20
93.575948999999994
 30
0.0
 11
131.07735
 21
92.043860999999978
 31
0.0
  0
LINE
  5
152
  8
0
 10
131.07735
 20
91.173034999999999
 30
0.0
 11
131.07735
 21
89.534731000000008
 31
0.0
  0
LINE
  5
153
  8
0
 10
132.92265
 20
91.173034999999999
 30
0.0
 11
132.92265
 21
89.534731000000008
 31
0.0
  0
LINE
  5
154
  8
0
 10
131.07735
 20
88.608981999999983
 30
0.0
 11
131.07735
 21
86.876930999999999
 31
0.0
  0
LINE
  5
155
  8
0
 10
132.92265
 20
88.608981999999983
 30
0.0
 11
132.92265
 21
86.876930999999999
 31
0.0
  0
LINE
  5
156
  8
0
 10
132.92265
 20
85.903303000000008
 30
0.0
 11
132.92265
 21
84.090687000000003
 31
0.0
  0
LINE
  5
157
  8
0
 10
131.07735
 20
85.903303000000008
 30
0.0
 11
131.07735
 21
84.090687000000003
 31
0.0
  0
LINE
  5
158
  8
0
 10
131.07735
 20
83.076589999999996
 30
0.0
 11
131.07735
 21
81.197203999999999
 31
0.0
  0
LINE
  5
159
  8
0
 10
132.92265
 20
83.076589999999996
 30
0.0
 11
132.92265
 21
81.197203999999999
 31
0.0
  0
LINE
  5
15A
  8
0
 10
132.92265
 20
80.150356000000002
 30
0.0
 11
132.92265
 21
78.21850400000001
 31
0.0
  0
LINE
  5
15B
  8
0
 10
131.07735
 20
80.150356000000002
 30
0.0
 11
131.07735
 21
78.21850400000001
 31
0.0
  0
LINE
  5
15C
  8
0
 10
131.07735
 20
77.146872000000002
 30
0.0
 11
131.07735
 21
75.177256
 31
0.0
  0
LINE
  5
15D
  8
0
 10
132.92265
 20
77.146872000000002
 30
0.0
 11
132.92265
 21
75.177256
 31
0.0
  0
LINE
  5
15E
  8
0
 10
132.92265
 20
74.088995999999995
 30
0.0
 11
132.92265
 21
72.096606000000008
 31
0.0
  0
LINE
  5
15F
  8
0
 10
131.07735
 20
74.088995999999995
 30
0.0
 11
131.07735
 21
72.096606000000008
 31
0.0
  0
LINE
  5
160
  8
0
 10
131.07735
 20
105.485913
 30
0.0
 11
132.92265
 21
105.485913
 31
0.0
  0
LINE
  5
161
  8
0
 10
131.07735
 20
105.438034
 30
0.0
 11
132.92265
 21
105.438034
 31
0.0
  0
LINE
  5
162
  8
0
 10
131.07735
 20
105.263722
 30
0.0
 11
132.92265
 21
105.263722
 31
0.0
  0
LINE
  5
163
  8
0
 10
131.07735
 20
105.12045000000001
 30
0.0
 11
132.92265
 21
105.12045000000001
 31
0.0
  0
LINE
  5
164
  8
0
 10
131.07735
 20
104.77315400000001
 30
0.0
 11
132.92265
 21
104.77315400000001
 31
0.0
  0
LINE
  5
165
  8
0
 10
131.07735
 20
104.535579
 30
0.0
 11
132.92265
 21
104.535579
 31
0.0
  0
LINE
  5
166
  8
0
 10
131.07735
 20
104.01794
 30
0.0
 11
132.92265
 21
104.01794
 31
0.0
  0
LINE
  5
167
  8
0
 10
131.07735
 20
103.68787
 30
0.0
 11
132.92265
 21
103.68787
 31
0.0
  0
LINE
  5
168
  8
0
 10
131.07735
 20
103.00382999999999
 30
0.0
 11
132.92265
 21
103.00382999999999
 31
0.0
  0
LINE
  5
169
  8
0
 10
131.07735
 20
102.583777
 30
0.0
 11
132.92265
 21
102.583777
 31
0.0
  0
LINE
  5
16A
  8
0
 10
131.07735
 20
101.738541
 30
0.0
 11
132.92265
 21
101.738541
 31
0.0
  0
LINE
  5
16B
  8
0
 10
131.07735
 20
101.231702
 30
0.0
 11
132.92265
 21
101.231702
 31
0.0
  0
LINE
  5
16C
  8
0
 10
131.07735
 20
100.231702
 30
0.0
 11
132.92265
 21
100.231702
 31
0.0
  0
LINE
  5
16D
  8
0
 10
131.07735
 20
99.641933999999992
 30
0.0
 11
132.92265
 21
99.641933999999992
 31
0.0
  0
LINE
  5
16E
  8
0
 10
131.07735
 20
98.494781000000003
 30
0.0
 11
132.92265
 21
98.494781000000003
 31
0.0
  0
LINE
  5
16F
  8
0
 10
131.07735
 20
97.826573999999994
 30
0.0
 11
132.92265
 21
97.826573999999994
 31
0.0
  0
LINE
  5
170
  8
0
 10
131.07735
 20
96.540998999999999
 30
0.0
 11
132.92265
 21
96.540998999999999
 31
0.0
  0
LINE
  5
171
  8
0
 10
131.07735
 20
95.799436
 30
0.0
 11
132.92265
 21
95.799436
 31
0.0
  0
LINE
  5
172
  8
0
 10
131.07735
 20
94.385222999999996
 30
0.0
 11
132.92265
 21
94.385222999999996
 31
0.0
  0
LINE
  5
173
  8
0
 10
131.07735
 20
93.575948999999994
 30
0.0
 11
132.92265
 21
93.575948999999994
 31
0.0
  0
LINE
  5
174
  8
0
 10
131.07735
 20
92.043860999999978
 30
0.0
 11
132.92265
 21
92.043860999999978
 31
0.0
  0
LINE
  5
175
  8
0
 10
131.07735
 20
91.173034999999999
 30
0.0
 11
132.92265
 21
91.173034999999999
 31
0.0
  0
LINE
  5
176
  8
0
 10
131.07735
 20
89.534731000000008
 30
0.0
 11
132.92265
 21
89.534731000000008
 31
0.0
  0
LINE
  5
177
  8
0
 10
131.07735
 20
88.608981999999983
 30
0.0
 11
132.92265
 21
88.608981999999983
 31
0.0
  0
LINE
  5
178
  8
0
 10
131.07735
 20
86.876930999999999
 30
0.0
 11
132.92265
 21
86.876930999999999
 31
0.0
  0
LINE
  5
179
  8
0
 10
131.07735
 20
85.903303000000008
 30
0.0
 11
132.92265
 21
85.903303000000008
 31
0.0
  0
LINE
  5
17A
  8
0
 10
131.07735
 20
84.090687000000003
 30
0.0
 11
132.92265
 21
84.090687000000003
 31
0.0
  0
LINE
  5
17B
  8
0
 10
131.07735
 20
83.076589999999996
 30
0.0
 11
132.92265
 21
83.076589999999996
 31
0.0
  0
LINE
  5
17C
  8
0
 10
131.07735
 20
81.197203999999999
 30
0.0
 11
132.92265
 21
81.197203999999999
 31
0.0
  0
LINE
  5
17D
  8
0
 10
131.07735
 20
80.150356000000002
 30
0.0
 11
132.92265
 21
80.150356000000002
 31
0.0
  0
LINE
  5
17E
  8
0
 10
131.07735
 20
78.21850400000001
 30
0.0
 11
132.92265
 21
78.21850400000001
 31
0.0
  0
LINE
  5
17F
  8
0
 10
131.07735
 20
77.146872000000002
 30
0.0
 11
132.92265
 21
77.146872000000002
 31
0.0
  0
LINE
  5
180
  8
0
 10
131.07735
 20
75.177256
 30
0.0
 11
132.92265
 21
75.177256
 31
0.0
  0
LINE
  5
181
  8
0
 10
131.07735
 20
74.088995999999995
 30
0.0
 11
132.92265
 21
74.088995999999995
 31
0.0
  0
LINE
  5
182
  8
0
 10
131.07735
 20
72.096606000000008
 30
0.0
 11
132.92265
 21
72.096606000000008
 31
0.0
  0
LINE
  5
183
  8
0
 10
131.07735
 20
71.0
 30
0.0
 11
132.92265
 21
71.0
 31
0.0
  0
LINE
  5
184
  8
0
 10
132.92265
 20
105.5
 30
0.0
 11
132.92265
 21
105.485913
 31
0.0
  0
LINE
  5
185
  8
0
 10
131.07735
 20
105.5
 30
0.0
 11
131.07735
 21
105.485913
 31
0.0
  0
LINE
  5
186
  8
0
 10
131.07735
 20
105.5
 30
0.0
 11
132.92265
 21
105.5
 31
0.0
  0
LINE
  5
187
  8
0
 10
131.07735
 20
71.0
 30
0.0
 11
131.07735
 21
69.0
 31
0.0
  0
LINE
  5
188
  8
0
 10
132.92265
 20
71.0
 30
0.0
 11
132.92265
 21
69.0
 31
0.0
  0
LINE
  5
189
  8
0
 10
134.07735
 20
105.438034
 30
0.0
 11
134.07735
 21
105.263722
 31
0.0
  0
LINE
  5
18A
  8
0
 10
135.92265
 20
105.438034
 30
0.0
 11
135.92265
 21
105.263722
 31
0.0
  0
LINE
  5
18B
  8
0
 10
135.92265
 20
105.12045000000001
 30
0.0
 11
135.92265
 21
104.77315400000001
 31
0.0
  0
LINE
  5
18C
  8
0
 10
134.07735
 20
105.12045000000001
 30
0.0
 11
134.07735
 21
104.77315400000001
 31
0.0
  0
LINE
  5
18D
  8
0
 10
135.92265
 20
104.535579
 30
0.0
 11
135.92265
 21
104.01794
 31
0.0
  0
LINE
  5
18E
  8
0
 10
134.07735
 20
104.535579
 30
0.0
 11
134.07735
 21
104.01794
 31
0.0
  0
LINE
  5
18F
  8
0
 10
135.92265
 20
103.68787
 30
0.0
 11
135.92265
 21
103.00382999999999
 31
0.0
  0
LINE
  5
190
  8
0
 10
134.07735
 20
103.68787
 30
0.0
 11
134.07735
 21
103.00382999999999
 31
0.0
  0
LINE
  5
191
  8
0
 10
134.07735
 20
102.583777
 30
0.0
 11
134.07735
 21
101.738541
 31
0.0
  0
LINE
  5
192
  8
0
 10
135.92265
 20
102.583777
 30
0.0
 11
135.92265
 21
101.738541
 31
0.0
  0
LINE
  5
193
  8
0
 10
135.92265
 20
101.231702
 30
0.0
 11
135.92265
 21
100.231702
 31
0.0
  0
LINE
  5
194
  8
0
 10
134.07735
 20
101.231702
 30
0.0
 11
134.07735
 21
100.231702
 31
0.0
  0
LINE
  5
195
  8
0
 10
134.07735
 20
99.641933999999992
 30
0.0
 11
134.07735
 21
98.494781000000003
 31
0.0
  0
LINE
  5
196
  8
0
 10
135.92265
 20
99.641933999999992
 30
0.0
 11
135.92265
 21
98.494781000000003
 31
0.0
  0
LINE
  5
197
  8
0
 10
135.92265
 20
97.826573999999994
 30
0.0
 11
135.92265
 21
96.540998999999999
 31
0.0
  0
LINE
  5
198
  8
0
 10
134.07735
 20
97.826573999999994
 30
0.0
 11
134.07735
 21
96.540998999999999
 31
0.0
  0
LINE
  5
199
  8
0
 10
134.07735
 20
95.799436
 30
0.0
 11
134.07735
 21
94.385222999999996
 31
0.0
  0
LINE
  5
19A
  8
0
 10
135.92265
 20
95.799436
 30
0.0
 11
135.92265
 21
94.385222999999996
 31
0.0
  0
LINE
  5
19B
  8
0
 10
135.92265
 20
93.575948999999994
 30
0.0
 11
135.92265
 21
92.043860999999978
 31
0.0
  0
LINE
  5
19C
  8
0
 10
134.07735
 20
93.575948999999994
 30
0.0
 11
134.07735
 21
92.043860999999978
 31
0.0
  0
LINE
  5
19D
  8
0
 10
134.07735
 20
91.173034999999999
 30
0.0
 11
134.07735
 21
89.534731000000008
 31
0.0
  0
LINE
  5
19E
  8
0
 10
135.92265
 20
91.173034999999999
 30
0.0
 11
135.92265
 21
89.534731000000008
 31
0.0
  0
LINE
  5
19F
  8
0
 10
134.07735
 20
88.608981999999983
 30
0.0
 11
134.07735
 21
86.876930999999999
 31
0.0
  0
LINE
  5
1A0
  8
0
 10
135.92265
 20
88.608981999999983
 30
0.0
 11
135.92265
 21
86.876930999999999
 31
0.0
  0
LINE
  5
1A1
  8
0
 10
135.92265
 20
85.903303000000008
 30
0.0
 11
135.92265
 21
84.090687000000003
 31
0.0
  0
LINE
  5
1A2
  8
0
 10
134.07735
 20
85.903303000000008
 30
0.0
 11
134.07735
 21
84.090687000000003
 31
0.0
  0
LINE
  5
1A3
  8
0
 10
134.07735
 20
83.076589999999996
 30
0.0
 11
134.07735
 21
81.197203999999999
 31
0.0
  0
LINE
  5
1A4
  8
0
 10
135.92265
 20
83.076589999999996
 30
0.0
 11
135.92265
 21
81.197203999999999
 31
0.0
  0
LINE
  5
1A5
  8
0
 10
135.92265
 20
80.150356000000002
 30
0.0
 11
135.92265
 21
78.21850400000001
 31
0.0
  0
LINE
  5
1A6
  8
0
 10
134.07735
 20
80.150356000000002
 30
0.0
 11
134.07735
 21
78.21850400000001
 31
0.0
  0
LINE
  5
1A7
  8
0
 10
134.07735
 20
77.146872000000002
 30
0.0
 11
134.07735
 21
75.177256
 31
0.0
  0
LINE
  5
1A8
  8
0
 10
135.92265
 20
77.146872000000002
 30
0.0
 11
135.92265
 21
75.177256
 31
0.0
  0
LINE
  5
1A9
  8
0
 10
135.92265
 20
74.088995999999995
 30
0.0
 11
135.92265
 21
72.096606000000008
 31
0.0
  0
LINE
  5
1AA
  8
0
 10
134.07735
 20
74.088995999999995
 30
0.0
 11
134.07735
 21
72.096606000000008
 31
0.0
  0
LINE
  5
1AB
  8
0
 10
134.07735
 20
105.485913
 30
0.0
 11
135.92265
 21
105.485913
 31
0.0
  0
LINE
  5
1AC
  8
0
 10
134.07735
 20
105.438034
 30
0.0
 11
135.92265
 21
105.438034
 31
0.0
  0
LINE
  5
1AD
  8
0
 10
134.07735
 20
105.263722
 30
0.0
 11
135.92265
 21
105.263722
 31
0.0
  0
LINE
  5
1AE
  8
0
 10
134.07735
 20
105.12045000000001
 30
0.0
 11
135.92265
 21
105.12045000000001
 31
0.0
  0
LINE
  5
1AF
  8
0
 10
134.07735
 20
104.77315400000001
 30
0.0
 11
135.92265
 21
104.77315400000001
 31
0.0
  0
LINE
  5
1B0
  8
0
 10
134.07735
 20
104.535579
 30
0.0
 11
135.92265
 21
104.535579
 31
0.0
  0
LINE
  5
1B1
  8
0
 10
134.07735
 20
104.01794
 30
0.0
 11
135.92265
 21
104.01794
 31
0.0
  0
LINE
  5
1B2
  8
0
 10
134.07735
 20
103.68787
 30
0.0
 11
135.92265
 21
103.68787
 31
0.0
  0
LINE
  5
1B3
  8
0
 10
134.07735
 20
103.00382999999999
 30
0.0
 11
135.92265
 21
103.00382999999999
 31
0.0
  0
LINE
  5
1B4
  8
0
 10
134.07735
 20
102.583777
 30
0.0
 11
135.92265
 21
102.583777
 31
0.0
  0
LINE
  5
1B5
  8
0
 10
134.07735
 20
101.738541
 30
0.0
 11
135.92265
 21
101.738541
 31
0.0
  0
LINE
  5
1B6
  8
0
 10
134.07735
 20
101.231702
 30
0.0
 11
135.92265
 21
101.231702
 31
0.0
  0
LINE
  5
1B7
  8
0
 10
134.07735
 20
100.231702
 30
0.0
 11
135.92265
 21
100.231702
 31
0.0
  0
LINE
  5
1B8
  8
0
 10
134.07735
 20
99.641933999999992
 30
0.0
 11
135.92265
 21
99.641933999999992
 31
0.0
  0
LINE
  5
1B9
  8
0
 10
134.07735
 20
98.494781000000003
 30
0.0
 11
135.92265
 21
98.494781000000003
 31
0.0
  0
LINE
  5
1BA
  8
0
 10
134.07735
 20
97.826573999999994
 30
0.0
 11
135.92265
 21
97.826573999999994
 31
0.0
  0
LINE
  5
1BB
  8
0
 10
134.07735
 20
96.540998999999999
 30
0.0
 11
135.92265
 21
96.540998999999999
 31
0.0
  0
LINE
  5
1BC
  8
0
 10
134.07735
 20
95.799436
 30
0.0
 11
135.92265
 21
95.799436
 31
0.0
  0
LINE
  5
1BD
  8
0
 10
134.07735
 20
94.385222999999996
 30
0.0
 11
135.92265
 21
94.385222999999996
 31
0.0
  0
LINE
  5
1BE
  8
0
 10
134.07735
 20
93.575948999999994
 30
0.0
 11
135.92265
 21
93.575948999999994
 31
0.0
  0
LINE
  5
1BF
  8
0
 10
134.07735
 20
92.043860999999978
 30
0.0
 11
135.92265
 21
92.043860999999978
 31
0.0
  0
LINE
  5
1C0
  8
0
 10
134.07735
 20
91.173034999999999
 30
0.0
 11
135.92265
 21
91.173034999999999
 31
0.0
  0
LINE
  5
1C1
  8
0
 10
134.07735
 20
89.534731000000008
 30
0.0
 11
135.92265
 21
89.534731000000008
 31
0.0
  0
LINE
  5
1C2
  8
0
 10
134.07735
 20
88.608981999999983
 30
0.0
 11
135.92265
 21
88.608981999999983
 31
0.0
  0
LINE
  5
1C3
  8
0
 10
134.07735
 20
86.876930999999999
 30
0.0
 11
135.92265
 21
86.876930999999999
 31
0.0
  0
LINE
  5
1C4
  8
0
 10
134.07735
 20
85.903303000000008
 30
0.0
 11
135.92265
 21
85.903303000000008
 31
0.0
  0
LINE
  5
1C5
  8
0
 10
134.07735
 20
84.090687000000003
 30
0.0
 11
135.92265
 21
84.090687000000003
 31
0.0
  0
LINE
  5
1C6
  8
0
 10
134.07735
 20
83.076589999999996
 30
0.0
 11
135.92265
 21
83.076589999999996
 31
0.0
  0
LINE
  5
1C7
  8
0
 10
134.07735
 20
81.197203999999999
 30
0.0
 11
135.92265
 21
81.197203999999999
 31
0.0
  0
LINE
  5
1C8
  8
0
 10
134.07735
 20
80.150356000000002
 30
0.0
 11
135.92265
 21
80.150356000000002
 31
0.0
  0
LINE
  5
1C9
  8
0
 10
134.07735
 20
78.21850400000001
 30
0.0
 11
135.92265
 21
78.21850400000001
 31
0.0
  0
LINE
  5
1CA
  8
0
 10
134.07735
 20
77.146872000000002
 30
0.0
 11
135.92265
 21
77.146872000000002
 31
0.0
  0
LINE
  5
1CB
  8
0
 10
134.07735
 20
75.177256
 30
0.0
 11
135.92265
 21
75.177256
 31
0.0
  0
LINE
  5
1CC
  8
0
 10
134.07735
 20
74.088995999999995
 30
0.0
 11
135.92265
 21
74.088995999999995
 31
0.0
  0
LINE
  5
1CD
  8
0
 10
134.07735
 20
72.096606000000008
 30
0.0
 11
135.92265
 21
72.096606000000008
 31
0.0
  0
LINE
  5
1CE
  8
0
 10
134.07735
 20
71.0
 30
0.0
 11
135.92265
 21
71.0
 31
0.0
  0
LINE
  5
1CF
  8
0
 10
135.92265
 20
105.5
 30
0.0
 11
135.92265
 21
105.485913
 31
0.0
  0
LINE
  5
1D0
  8
0
 10
134.07735
 20
105.5
 30
0.0
 11
134.07735
 21
105.485913
 31
0.0
  0
LINE
  5
1D1
  8
0
 10
134.07735
 20
105.5
 30
0.0
 11
135.92265
 21
105.5
 31
0.0
  0
LINE
  5
1D2
  8
0
 10
134.07735
 20
71.0
 30
0.0
 11
134.07735
 21
69.0
 31
0.0
  0
LINE
  5
1D3
  8
0
 10
135.92265
 20
71.0
 30
0.0
 11
135.92265
 21
69.0
 31
0.0
  0
LINE
  5
1D4
  8
0
 10
137.07735
 20
105.438034
 30
0.0
 11
137.07735
 21
105.263722
 31
0.0
  0
LINE
  5
1D5
  8
0
 10
138.92265
 20
105.438034
 30
0.0
 11
138.92265
 21
105.263722
 31
0.0
  0
LINE
  5
1D6
  8
0
 10
138.92265
 20
105.12045000000001
 30
0.0
 11
138.92265
 21
104.77315400000001
 31
0.0
  0
LINE
  5
1D7
  8
0
 10
137.07735
 20
105.12045000000001
 30
0.0
 11
137.07735
 21
104.77315400000001
 31
0.0
  0
LINE
  5
1D8
  8
0
 10
138.92265
 20
104.535579
 30
0.0
 11
138.92265
 21
104.01794
 31
0.0
  0
LINE
  5
1D9
  8
0
 10
137.07735
 20
104.535579
 30
0.0
 11
137.07735
 21
104.01794
 31
0.0
  0
LINE
  5
1DA
  8
0
 10
138.92265
 20
103.68787
 30
0.0
 11
138.92265
 21
103.00382999999999
 31
0.0
  0
LINE
  5
1DB
  8
0
 10
137.07735
 20
103.68787
 30
0.0
 11
137.07735
 21
103.00382999999999
 31
0.0
  0
LINE
  5
1DC
  8
0
 10
137.07735
 20
102.583777
 30
0.0
 11
137.07735
 21
101.738541
 31
0.0
  0
LINE
  5
1DD
  8
0
 10
138.92265
 20
102.583777
 30
0.0
 11
138.92265
 21
101.738541
 31
0.0
  0
LINE
  5
1DE
  8
0
 10
138.92265
 20
101.231702
 30
0.0
 11
138.92265
 21
100.231702
 31
0.0
  0
LINE
  5
1DF
  8
0
 10
137.07735
 20
101.231702
 30
0.0
 11
137.07735
 21
100.231702
 31
0.0
  0
LINE
  5
1E0
  8
0
 10
137.07735
 20
99.641933999999992
 30
0.0
 11
137.07735
 21
98.494781000000003
 31
0.0
  0
LINE
  5
1E1
  8
0
 10
138.92265
 20
99.641933999999992
 30
0.0
 11
138.92265
 21
98.494781000000003
 31
0.0
  0
LINE
  5
1E2
  8
0
 10
138.92265
 20
97.826573999999994
 30
0.0
 11
138.92265
 21
96.540998999999999
 31
0.0
  0
LINE
  5
1E3
  8
0
 10
137.07735
 20
97.826573999999994
 30
0.0
 11
137.07735
 21
96.540998999999999
 31
0.0
  0
LINE
  5
1E4
  8
0
 10
137.07735
 20
95.799436
 30
0.0
 11
137.07735
 21
94.385222999999996
 31
0.0
  0
LINE
  5
1E5
  8
0
 10
138.92265
 20
95.799436
 30
0.0
 11
138.92265
 21
94.385222999999996
 31
0.0
  0
LINE
  5
1E6
  8
0
 10
138.92265
 20
93.575948999999994
 30
0.0
 11
138.92265
 21
92.043860999999978
 31
0.0
  0
LINE
  5
1E7
  8
0
 10
137.07735
 20
93.575948999999994
 30
0.0
 11
137.07735
 21
92.043860999999978
 31
0.0
  0
LINE
  5
1E8
  8
0
 10
137.07735
 20
91.173034999999999
 30
0.0
 11
137.07735
 21
89.534731000000008
 31
0.0
  0
LINE
  5
1E9
  8
0
 10
138.92265
 20
91.173034999999999
 30
0.0
 11
138.92265
 21
89.534731000000008
 31
0.0
  0
LINE
  5
1EA
  8
0
 10
137.07735
 20
88.608981999999983
 30
0.0
 11
137.07735
 21
86.876930999999999
 31
0.0
  0
LINE
  5
1EB
  8
0
 10
138.92265
 20
88.608981999999983
 30
0.0
 11
138.92265
 21
86.876930999999999
 31
0.0
  0
LINE
  5
1EC
  8
0
 10
138.92265
 20
85.903303000000008
 30
0.0
 11
138.92265
 21
84.090687000000003
 31
0.0
  0
LINE
  5
1ED
  8
0
 10
137.07735
 20
85.903303000000008
 30
0.0
 11
137.07735
 21
84.090687000000003
 31
0.0
  0
LINE
  5
1EE
  8
0
 10
137.07735
 20
83.076589999999996
 30
0.0
 11
137.07735
 21
81.197203999999999
 31
0.0
  0
LINE
  5
1EF
  8
0
 10
138.92265
 20
83.076589999999996
 30
0.0
 11
138.92265
 21
81.197203999999999
 31
0.0
  0
LINE
  5
1F0
  8
0
 10
138.92265
 20
80.150356000000002
 30
0.0
 11
138.92265
 21
78.21850400000001
 31
0.0
  0
LINE
  5
1F1
  8
0
 10
137.07735
 20
80.150356000000002
 30
0.0
 11
137.07735
 21
78.21850400000001
 31
0.0
  0
LINE
  5
1F2
  8
0
 10
137.07735
 20
77.146872000000002
 30
0.0
 11
137.07735
 21
75.177256
 31
0.0
  0
LINE
  5
1F3
  8
0
 10
138.92265
 20
77.146872000000002
 30
0.0
 11
138.92265
 21
75.177256
 31
0.0
  0
LINE
  5
1F4
  8
0
 10
138.92265
 20
74.088995999999995
 30
0.0
 11
138.92265
 21
72.096606000000008
 31
0.0
  0
LINE
  5
1F5
  8
0
 10
137.07735
 20
74.088995999999995
 30
0.0
 11
137.07735
 21
72.096606000000008
 31
0.0
  0
LINE
  5
1F6
  8
0
 10
137.07735
 20
105.485913
 30
0.0
 11
138.92265
 21
105.485913
 31
0.0
  0
LINE
  5
1F7
  8
0
 10
137.07735
 20
105.438034
 30
0.0
 11
138.92265
 21
105.438034
 31
0.0
  0
LINE
  5
1F8
  8
0
 10
137.07735
 20
105.263722
 30
0.0
 11
138.92265
 21
105.263722
 31
0.0
  0
LINE
  5
1F9
  8
0
 10
137.07735
 20
105.12045000000001
 30
0.0
 11
138.92265
 21
105.12045000000001
 31
0.0
  0
LINE
  5
1FA
  8
0
 10
137.07735
 20
104.77315400000001
 30
0.0
 11
138.92265
 21
104.77315400000001
 31
0.0
  0
LINE
  5
1FB
  8
0
 10
137.07735
 20
104.535579
 30
0.0
 11
138.92265
 21
104.535579
 31
0.0
  0
LINE
  5
1FC
  8
0
 10
137.07735
 20
104.01794
 30
0.0
 11
138.92265
 21
104.01794
 31
0.0
  0
LINE
  5
1FD
  8
0
 10
137.07735
 20
103.68787
 30
0.0
 11
138.92265
 21
103.68787
 31
0.0
  0
LINE
  5
1FE
  8
0
 10
137.07735
 20
103.00382999999999
 30
0.0
 11
138.92265
 21
103.00382999999999
 31
0.0
  0
LINE
  5
1FF
  8
0
 10
137.07735
 20
102.583777
 30
0.0
 11
138.92265
 21
102.583777
 31
0.0
  0
LINE
  5
200
  8
0
 10
137.07735
 20
101.738541
 30
0.0
 11
138.92265
 21
101.738541
 31
0.0
  0
LINE
  5
201
  8
0
 10
137.07735
 20
101.231702
 30
0.0
 11
138.92265
 21
101.231702
 31
0.0
  0
LINE
  5
202
  8
0
 10
137.07735
 20
100.231702
 30
0.0
 11
138.92265
 21
100.231702
 31
0.0
  0
LINE
  5
203
  8
0
 10
137.07735
 20
99.641933999999992
 30
0.0
 11
138.92265
 21
99.641933999999992
 31
0.0
  0
LINE
  5
204
  8
0
 10
137.07735
 20
98.494781000000003
 30
0.0
 11
138.92265
 21
98.494781000000003
 31
0.0
  0
LINE
  5
205
  8
0
 10
137.07735
 20
97.826573999999994
 30
0.0
 11
138.92265
 21
97.826573999999994
 31
0.0
  0
LINE
  5
206
  8
0
 10
137.07735
 20
96.540998999999999
 30
0.0
 11
138.92265
 21
96.540998999999999
 31
0.0
  0
LINE
  5
207
  8
0
 10
137.07735
 20
95.799436
 30
0.0
 11
138.92265
 21
95.799436
 31
0.0
  0
LINE
  5
208
  8
0
 10
137.07735
 20
94.385222999999996
 30
0.0
 11
138.92265
 21
94.385222999999996
 31
0.0
  0
LINE
  5
209
  8
0
 10
137.07735
 20
93.575948999999994
 30
0.0
 11
138.92265
 21
93.575948999999994
 31
0.0
  0
LINE
  5
20A
  8
0
 10
137.07735
 20
92.043860999999978
 30
0.0
 11
138.92265
 21
92.043860999999978
 31
0.0
  0
LINE
  5
20B
  8
0
 10
137.07735
 20
91.173034999999999
 30
0.0
 11
138.92265
 21
91.173034999999999
 31
0.0
  0
LINE
  5
20C
  8
0
 10
137.07735
 20
89.534731000000008
 30
0.0
 11
138.92265
 21
89.534731000000008
 31
0.0
  0
LINE
  5
20D
  8
0
 10
137.07735
 20
88.608981999999983
 30
0.0
 11
138.92265
 21
88.608981999999983
 31
0.0
  0
LINE
  5
20E
  8
0
 10
137.07735
 20
86.876930999999999
 30
0.0
 11
138.92265
 21
86.876930999999999
 31
0.0
  0
LINE
  5
20F
  8
0
 10
137.07735
 20
85.903303000000008
 30
0.0
 11
138.92265
 21
85.903303000000008
 31
0.0
  0
LINE
  5
210
  8
0
 10
137.07735
 20
84.090687000000003
 30
0.0
 11
138.92265
 21
84.090687000000003
 31
0.0
  0
LINE
  5
211
  8
0
 10
137.07735
 20
83.076589999999996
 30
0.0
 11
138.92265
 21
83.076589999999996
 31
0.0
  0
LINE
  5
212
  8
0
 10
137.07735
 20
81.197203999999999
 30
0.0
 11
138.92265
 21
81.197203999999999
 31
0.0
  0
LINE
  5
213
  8
0
 10
137.07735
 20
80.150356000000002
 30
0.0
 11
138.92265
 21
80.150356000000002
 31
0.0
  0
LINE
  5
214
  8
0
 10
137.07735
 20
78.21850400000001
 30
0.0
 11
138.92265
 21
78.21850400000001
 31
0.0
  0
LINE
  5
215
  8
0
 10
137.07735
 20
77.146872000000002
 30
0.0
 11
138.92265
 21
77.146872000000002
 31
0.0
  0
LINE
  5
216
  8
0
 10
137.07735
 20
75.177256
 30
0.0
 11
138.92265
 21
75.177256
 31
0.0
  0
LINE
  5
217
  8
0
 10
137.07735
 20
74.088995999999995
 30
0.0
 11
138.92265
 21
74.088995999999995
 31
0.0
  0
LINE
  5
218
  8
0
 10
137.07735
 20
72.096606000000008
 30
0.0
 11
138.92265
 21
72.096606000000008
 31
0.0
  0
LINE
  5
219
  8
0
 10
137.07735
 20
71.0
 30
0.0
 11
138.92265
 21
71.0
 31
0.0
  0
LINE
  5
21A
  8
0
 10
138.92265
 20
105.5
 30
0.0
 11
138.92265
 21
105.485913
 31
0.0
  0
LINE
  5
21B
  8
0
 10
137.07735
 20
105.5
 30
0.0
 11
137.07735
 21
105.485913
 31
0.0
  0
LINE
  5
21C
  8
0
 10
137.07735
 20
105.5
 30
0.0
 11
138.92265
 21
105.5
 31
0.0
  0
LINE
  5
21D
  8
0
 10
137.07735
 20
71.0
 30
0.0
 11
137.07735
 21
69.0
 31
0.0
  0
LINE
  5
21E
  8
0
 10
138.92265
 20
71.0
 30
0.0
 11
138.92265
 21
69.0
 31
0.0
  0
LINE
  5
21F
  8
0
 10
140.07735
 20
105.438034
 30
0.0
 11
140.07735
 21
105.263722
 31
0.0
  0
LINE
  5
220
  8
0
 10
141.92265
 20
105.438034
 30
0.0
 11
141.92265
 21
105.263722
 31
0.0
  0
LINE
  5
221
  8
0
 10
141.92265
 20
105.12045000000001
 30
0.0
 11
141.92265
 21
104.77315400000001
 31
0.0
  0
LINE
  5
222
  8
0
 10
140.07735
 20
105.12045000000001
 30
0.0
 11
140.07735
 21
104.77315400000001
 31
0.0
  0
LINE
  5
223
  8
0
 10
141.92265
 20
104.535579
 30
0.0
 11
141.92265
 21
104.01794
 31
0.0
  0
LINE
  5
224
  8
0
 10
140.07735
 20
104.535579
 30
0.0
 11
140.07735
 21
104.01794
 31
0.0
  0
LINE
  5
225
  8
0
 10
141.92265
 20
103.68787
 30
0.0
 11
141.92265
 21
103.00382999999999
 31
0.0
  0
LINE
  5
226
  8
0
 10
140.07735
 20
103.68787
 30
0.0
 11
140.07735
 21
103.00382999999999
 31
0.0
  0
LINE
  5
227
  8
0
 10
140.07735
 20
102.583777
 30
0.0
 11
140.07735
 21
101.738541
 31
0.0
  0
LINE
  5
228
  8
0
 10
141.92265
 20
102.583777
 30
0.0
 11
141.92265
 21
101.738541
 31
0.0
  0
LINE
  5
229
  8
0
 10
141.92265
 20
101.231702
 30
0.0
 11
141.92265
 21
100.231702
 31
0.0
  0
LINE
  5
22A
  8
0
 10
140.07735
 20
101.231702
 30
0.0
 11
140.07735
 21
100.231702
 31
0.0
  0
LINE
  5
22B
  8
0
 10
140.07735
 20
99.641933999999992
 30
0.0
 11
140.07735
 21
98.494781000000003
 31
0.0
  0
LINE
  5
22C
  8
0
 10
141.92265
 20
99.641933999999992
 30
0.0
 11
141.92265
 21
98.494781000000003
 31
0.0
  0
LINE
  5
22D
  8
0
 10
141.92265
 20
97.826573999999994
 30
0.0
 11
141.92265
 21
96.540998999999999
 31
0.0
  0
LINE
  5
22E
  8
0
 10
140.07735
 20
97.826573999999994
 30
0.0
 11
140.07735
 21
96.540998999999999
 31
0.0
  0
LINE
  5
22F
  8
0
 10
140.07735
 20
95.799436
 30
0.0
 11
140.07735
 21
94.385222999999996
 31
0.0
  0
LINE
  5
230
  8
0
 10
141.92265
 20
95.799436
 30
0.0
 11
141.92265
 21
94.385222999999996
 31
0.0
  0
LINE
  5
231
  8
0
 10
141.92265
 20
93.575948999999994
 30
0.0
 11
141.92265
 21
92.043860999999978
 31
0.0
  0
LINE
  5
232
  8
0
 10
140.07735
 20
93.575948999999994
 30
0.0
 11
140.07735
 21
92.043860999999978
 31
0.0
  0
LINE
  5
233
  8
0
 10
140.07735
 20
91.173034999999999
 30
0.0
 11
140.07735
 21
89.534731000000008
 31
0.0
  0
LINE
  5
234
  8
0
 10
141.92265
 20
91.173034999999999
 30
0.0
 11
141.92265
 21
89.534731000000008
 31
0.0
  0
LINE
  5
235
  8
0
 10
140.07735
 20
88.608981999999983
 30
0.0
 11
140.07735
 21
86.876930999999999
 31
0.0
  0
LINE
  5
236
  8
0
 10
141.92265
 20
88.608981999999983
 30
0.0
 11
141.92265
 21
86.876930999999999
 31
0.0
  0
LINE
  5
237
  8
0
 10
141.92265
 20
85.903303000000008
 30
0.0
 11
141.92265
 21
84.090687000000003
 31
0.0
  0
LINE
  5
238
  8
0
 10
140.07735
 20
85.903303000000008
 30
0.0
 11
140.07735
 21
84.090687000000003
 31
0.0
  0
LINE
  5
239
  8
0
 10
140.07735
 20
83.076589999999996
 30
0.0
 11
140.07735
 21
81.197203999999999
 31
0.0
  0
LINE
  5
23A
  8
0
 10
141.92265
 20
83.076589999999996
 30
0.0
 11
141.92265
 21
81.197203999999999
 31
0.0
  0
LINE
  5
23B
  8
0
 10
141.92265
 20
80.150356000000002
 30
0.0
 11
141.92265
 21
78.21850400000001
 31
0.0
  0
LINE
  5
23C
  8
0
 10
140.07735
 20
80.150356000000002
 30
0.0
 11
140.07735
 21
78.21850400000001
 31
0.0
  0
LINE
  5
23D
  8
0
 10
140.07735
 20
77.146872000000002
 30
0.0
 11
140.07735
 21
75.177256
 31
0.0
  0
LINE
  5
23E
  8
0
 10
141.92265
 20
77.146872000000002
 30
0.0
 11
141.92265
 21
75.177256
 31
0.0
  0
LINE
  5
23F
  8
0
 10
141.92265
 20
74.088995999999995
 30
0.0
 11
141.92265
 21
72.096606000000008
 31
0.0
  0
LINE
  5
240
  8
0
 10
140.07735
 20
74.088995999999995
 30
0.0
 11
140.07735
 21
72.096606000000008
 31
0.0
  0
LINE
  5
241
  8
0
 10
140.07735
 20
105.485913
 30
0.0
 11
141.92265
 21
105.485913
 31
0.0
  0
LINE
  5
242
  8
0
 10
140.07735
 20
105.438034
 30
0.0
 11
141.92265
 21
105.438034
 31
0.0
  0
LINE
  5
243
  8
0
 10
140.07735
 20
105.263722
 30
0.0
 11
141.92265
 21
105.263722
 31
0.0
  0
LINE
  5
244
  8
0
 10
140.07735
 20
105.12045000000001
 30
0.0
 11
141.92265
 21
105.12045000000001
 31
0.0
  0
LINE
  5
245
  8
0
 10
140.07735
 20
104.77315400000001
 30
0.0
 11
141.92265
 21
104.77315400000001
 31
0.0
  0
LINE
  5
246
  8
0
 10
140.07735
 20
104.535579
 30
0.0
 11
141.92265
 21
104.535579
 31
0.0
  0
LINE
  5
247
  8
0
 10
140.07735
 20
104.01794
 30
0.0
 11
141.92265
 21
104.01794
 31
0.0
  0
LINE
  5
248
  8
0
 10
140.07735
 20
103.68787
 30
0.0
 11
141.92265
 21
103.68787
 31
0.0
  0
LINE
  5
249
  8
0
 10
140.07735
 20
103.00382999999999
 30
0.0
 11
141.92265
 21
103.00382999999999
 31
0.0
  0
LINE
  5
24A
  8
0
 10
140.07735
 20
102.583777
 30
0.0
 11
141.92265
 21
102.583777
 31
0.0
  0
LINE
  5
24B
  8
0
 10
140.07735
 20
101.738541
 30
0.0
 11
141.92265
 21
101.738541
 31
0.0
  0
LINE
  5
24C
  8
0
 10
140.07735
 20
101.231702
 30
0.0
 11
141.92265
 21
101.231702
 31
0.0
  0
LINE
  5
24D
  8
0
 10
140.07735
 20
100.231702
 30
0.0
 11
141.92265
 21
100.231702
 31
0.0
  0
LINE
  5
24E
  8
0
 10
140.07735
 20
99.641933999999992
 30
0.0
 11
141.92265
 21
99.641933999999992
 31
0.0
  0
LINE
  5
24F
  8
0
 10
140.07735
 20
98.494781000000003
 30
0.0
 11
141.92265
 21
98.494781000000003
 31
0.0
  0
LINE
  5
250
  8
0
 10
140.07735
 20
97.826573999999994
 30
0.0
 11
141.92265
 21
97.826573999999994
 31
0.0
  0
LINE
  5
251
  8
0
 10
140.07735
 20
96.540998999999999
 30
0.0
 11
141.92265
 21
96.540998999999999
 31
0.0
  0
LINE
  5
252
  8
0
 10
140.07735
 20
95.799436
 30
0.0
 11
141.92265
 21
95.799436
 31
0.0
  0
LINE
  5
253
  8
0
 10
140.07735
 20
94.385222999999996
 30
0.0
 11
141.92265
 21
94.385222999999996
 31
0.0
  0
LINE
  5
254
  8
0
 10
140.07735
 20
93.575948999999994
 30
0.0
 11
141.92265
 21
93.575948999999994
 31
0.0
  0
LINE
  5
255
  8
0
 10
140.07735
 20
92.043860999999978
 30
0.0
 11
141.92265
 21
92.043860999999978
 31
0.0
  0
LINE
  5
256
  8
0
 10
140.07735
 20
91.173034999999999
 30
0.0
 11
141.92265
 21
91.173034999999999
 31
0.0
  0
LINE
  5
257
  8
0
 10
140.07735
 20
89.534731000000008
 30
0.0
 11
141.92265
 21
89.534731000000008
 31
0.0
  0
LINE
  5
258
  8
0
 10
140.07735
 20
88.608981999999983
 30
0.0
 11
141.92265
 21
88.608981999999983
 31
0.0
  0
LINE
  5
259
  8
0
 10
140.07735
 20
86.876930999999999
 30
0.0
 11
141.92265
 21
86.876930999999999
 31
0.0
  0
LINE
  5
25A
  8
0
 10
140.07735
 20
85.903303000000008
 30
0.0
 11
141.92265
 21
85.903303000000008
 31
0.0
  0
LINE
  5
25B
  8
0
 10
140.07735
 20
84.090687000000003
 30
0.0
 11
141.92265
 21
84.090687000000003
 31
0.0
  0
LINE
  5
25C
  8
0
 10
140.07735
 20
83.076589999999996
 30
0.0
 11
141.92265
 21
83.076589999999996
 31
0.0
  0
LINE
  5
25D
  8
0
 10
140.07735
 20
81.197203999999999
 30
0.0
 11
141.92265
 21
81.197203999999999
 31
0.0
  0
LINE
  5
25E
  8
0
 10
140.07735
 20
80.150356000000002
 30
0.0
 11
141.92265
 21
80.150356000000002
 31
0.0
  0
LINE
  5
25F
  8
0
 10
140.07735
 20
78.21850400000001
 30
0.0
 11
141.92265
 21
78.21850400000001
 31
0.0
  0
LINE
  5
260
  8
0
 10
140.07735
 20
77.146872000000002
 30
0.0
 11
141.92265
 21
77.146872000000002
 31
0.0
  0
LINE
  5
261
  8
0
 10
140.07735
 20
75.177256
 30
0.0
 11
141.92265
 21
75.177256
 31
0.0
  0
LINE
  5
262
  8
0
 10
140.07735
 20
74.088995999999995
 30
0.0
 11
141.92265
 21
74.088995999999995
 31
0.0
  0
LINE
  5
263
  8
0
 10
140.07735
 20
72.096606000000008
 30
0.0
 11
141.92265
 21
72.096606000000008
 31
0.0
  0
LINE
  5
264
  8
0
 10
141.92265
 20
105.5
 30
0.0
 11
141.92265
 21
105.485913
 31
0.0
  0
LINE
  5
265
  8
0
 10
140.07735
 20
105.5
 30
0.0
 11
140.07735
 21
105.485913
 31
0.0
  0
LINE
  5
266
  8
0
 10
140.07735
 20
105.5
 30
0.0
 11
141.92265
 21
105.5
 31
0.0
  0
LINE
  5
267
  8
0
 10
121.5
 20
104.5
 30
0.0
 11
122.07735
 21
105.5
 31
0.0
  0
LINE
  5
268
  8
0
 10
123.92265
 20
105.5
 30
0.0
 11
124.5
 21
104.5
 31
0.0
  0
LINE
  5
269
  8
0
 10
124.5
 20
104.5
 30
0.0
 11
125.07735
 21
105.5
 31
0.0
  0
LINE
  5
26A
  8
0
 10
126.92265
 20
105.5
 30
0.0
 11
127.5
 21
104.5
 31
0.0
  0
LINE
  5
26B
  8
0
 10
127.5
 20
104.5
 30
0.0
 11
128.07735
 21
105.5
 31
0.0
  0
LINE
  5
26C
  8
0
 10
129.92265
 20
105.5
 30
0.0
 11
130.5
 21
104.5
 31
0.0
  0
LINE
  5
26D
  8
0
 10
130.5
 20
104.5
 30
0.0
 11
131.07735
 21
105.5
 31
0.0
  0
LINE
  5
26E
  8
0
 10
132.92265
 20
105.5
 30
0.0
 11
133.5
 21
104.5
 31
0.0
  0
LINE
  5
26F
  8
0
 10
133.5
 20
104.5
 30
0.0
 11
134.07735
 21
105.5
 31
0.0
  0
LINE
  5
270
  8
0
 10
135.92265
 20
105.5
 30
0.0
 11
136.5
 21
104.5
 31
0.0
  0
LINE
  5
271
  8
0
 10
136.5
 20
104.5
 30
0.0
 11
137.07735
 21
105.5
 31
0.0
  0
LINE
  5
272
  8
0
 10
138.92265
 20
105.5
 30
0.0
 11
139.5
 21
104.5
 31
0.0
  0
LINE
  5
273
  8
0
 10
139.5
 20
104.5
 30
0.0
 11
140.07735
 21
105.5
 31
0.0
  0
LINE
  5
274
  8
0
 10
141.92265
 20
105.5
 30
0.0
 11
142.5
 21
104.5
 31
0.0
  0
LINE
  5
275
  8
0
 10
141.92265
 20
34.5
 30
0.0
 11
142.5
 21
35.5
 31
0.0
  0
LINE
  5
276
  8
0
 10
139.5
 20
35.5
 30
0.0
 11
140.07735
 21
34.5
 31
0.0
  0
LINE
  5
277
  8
0
 10
138.92265
 20
34.5
 30
0.0
 11
139.5
 21
35.5
 31
0.0
  0
LINE
  5
278
  8
0
 10
136.5
 20
35.5
 30
0.0
 11
137.07735
 21
34.5
 31
0.0
  0
LINE
  5
279
  8
0
 10
135.92265
 20
34.5
 30
0.0
 11
136.5
 21
35.5
 31
0.0
  0
LINE
  5
27A
  8
0
 10
133.5
 20
35.5
 30
0.0
 11
134.07735
 21
34.5
 31
0.0
  0
LINE
  5
27B
  8
0
 10
132.92265
 20
34.5
 30
0.0
 11
133.5
 21
35.5
 31
0.0
  0
LINE
  5
27C
  8
0
 10
130.5
 20
35.5
 30
0.0
 11
131.07735
 21
34.5
 31
0.0
  0
LINE
  5
27D
  8
0
 10
129.92265
 20
34.5
 30
0.0
 11
130.5
 21
35.5
 31
0.0
  0
LINE
  5
27E
  8
0
 10
127.5
 20
35.5
 30
0.0
 11
128.07735
 21
34.5
 31
0.0
  0
LINE
  5
27F
  8
0
 10
126.92265
 20
34.5
 30
0.0
 11
127.5
 21
35.5
 31
0.0
  0
LINE
  5
280
  8
0
 10
124.5
 20
35.5
 30
0.0
 11
125.07735
 21
34.5
 31
0.0
  0
LINE
  5
281
  8
0
 10
123.92265
 20
34.5
 30
0.0
 11
124.5
 21
35.5
 31
0.0
  0
LINE
  5
282
  8
0
 10
121.5
 20
35.5
 30
0.0
 11
122.07735
 21
34.5
 31
0.0
  0
LINE
  5
283
  8
0
 10
140.07735
 20
34.5
 30
0.0
 11
141.92265
 21
34.5
 31
0.0
  0
LINE
  5
284
  8
0
 10
140.07735
 20
34.5
 30
0.0
 11
140.07735
 21
34.514087000000004
 31
0.0
  0
LINE
  5
285
  8
0
 10
141.92265
 20
34.5
 30
0.0
 11
141.92265
 21
34.514087000000004
 31
0.0
  0
LINE
  5
286
  8
0
 10
140.07735
 20
55.909312999999997
 30
0.0
 11
141.92265
 21
55.909312999999997
 31
0.0
  0
LINE
  5
287
  8
0
 10
140.07735
 20
54.096696999999999
 30
0.0
 11
141.92265
 21
54.096696999999999
 31
0.0
  0
LINE
  5
288
  8
0
 10
140.07735
 20
53.123068999999987
 30
0.0
 11
141.92265
 21
53.123068999999987
 31
0.0
  0
LINE
  5
289
  8
0
 10
140.07735
 20
51.391018000000003
 30
0.0
 11
141.92265
 21
51.391018000000003
 31
0.0
  0
LINE
  5
28A
  8
0
 10
140.07735
 20
50.465268999999992
 30
0.0
 11
141.92265
 21
50.465268999999992
 31
0.0
  0
LINE
  5
28B
  8
0
 10
140.07735
 20
48.826965000000001
 30
0.0
 11
141.92265
 21
48.826965000000001
 31
0.0
  0
LINE
  5
28C
  8
0
 10
140.07735
 20
47.956139
 30
0.0
 11
141.92265
 21
47.956139
 31
0.0
  0
LINE
  5
28D
  8
0
 10
140.07735
 20
46.424050999999999
 30
0.0
 11
141.92265
 21
46.424050999999999
 31
0.0
  0
LINE
  5
28E
  8
0
 10
140.07735
 20
45.614776999999997
 30
0.0
 11
141.92265
 21
45.614776999999997
 31
0.0
  0
LINE
  5
28F
  8
0
 10
140.07735
 20
44.200563999999993
 30
0.0
 11
141.92265
 21
44.200563999999993
 31
0.0
  0
LINE
  5
290
  8
0
 10
140.07735
 20
43.459001000000001
 30
0.0
 11
141.92265
 21
43.459001000000001
 31
0.0
  0
LINE
  5
291
  8
0
 10
140.07735
 20
42.173425999999999
 30
0.0
 11
141.92265
 21
42.173425999999999
 31
0.0
  0
LINE
  5
292
  8
0
 10
140.07735
 20
41.505218999999997
 30
0.0
 11
141.92265
 21
41.505218999999997
 31
0.0
  0
LINE
  5
293
  8
0
 10
140.07735
 20
40.358065999999987
 30
0.0
 11
141.92265
 21
40.358065999999987
 31
0.0
  0
LINE
  5
294
  8
0
 10
140.07735
 20
39.768298000000001
 30
0.0
 11
141.92265
 21
39.768298000000001
 31
0.0
  0
LINE
  5
295
  8
0
 10
140.07735
 20
38.768298000000001
 30
0.0
 11
141.92265
 21
38.768298000000001
 31
0.0
  0
LINE
  5
296
  8
0
 10
140.07735
 20
38.261459000000002
 30
0.0
 11
141.92265
 21
38.261459000000002
 31
0.0
  0
LINE
  5
297
  8
0
 10
140.07735
 20
37.416222999999988
 30
0.0
 11
141.92265
 21
37.416222999999988
 31
0.0
  0
LINE
  5
298
  8
0
 10
140.07735
 20
36.996169999999999
 30
0.0
 11
141.92265
 21
36.996169999999999
 31
0.0
  0
LINE
  5
299
  8
0
 10
140.07735
 20
36.312130000000003
 30
0.0
 11
141.92265
 21
36.312130000000003
 31
0.0
  0
LINE
  5
29A
  8
0
 10
140.07735
 20
35.982059999999997
 30
0.0
 11
141.92265
 21
35.982059999999997
 31
0.0
  0
LINE
  5
29B
  8
0
 10
140.07735
 20
35.464421000000002
 30
0.0
 11
141.92265
 21
35.464421000000002
 31
0.0
  0
LINE
  5
29C
  8
0
 10
140.07735
 20
35.226846000000002
 30
0.0
 11
141.92265
 21
35.226846000000002
 31
0.0
  0
LINE
  5
29D
  8
0
 10
140.07735
 20
34.879550000000002
 30
0.0
 11
141.92265
 21
34.879550000000002
 31
0.0
  0
LINE
  5
29E
  8
0
 10
140.07735
 20
34.736278000000013
 30
0.0
 11
141.92265
 21
34.736278000000013
 31
0.0
  0
LINE
  5
29F
  8
0
 10
140.07735
 20
34.561965999999998
 30
0.0
 11
141.92265
 21
34.561965999999998
 31
0.0
  0
LINE
  5
2A0
  8
0
 10
140.07735
 20
34.514087000000004
 30
0.0
 11
141.92265
 21
34.514087000000004
 31
0.0
  0
LINE
  5
2A1
  8
0
 10
140.07735
 20
54.096696999999999
 30
0.0
 11
140.07735
 21
55.909312999999997
 31
0.0
  0
LINE
  5
2A2
  8
0
 10
141.92265
 20
54.096696999999999
 30
0.0
 11
141.92265
 21
55.909312999999997
 31
0.0
  0
LINE
  5
2A3
  8
0
 10
141.92265
 20
51.391018000000003
 30
0.0
 11
141.92265
 21
53.123068999999987
 31
0.0
  0
LINE
  5
2A4
  8
0
 10
140.07735
 20
51.391018000000003
 30
0.0
 11
140.07735
 21
53.123068999999987
 31
0.0
  0
LINE
  5
2A5
  8
0
 10
141.92265
 20
48.826965000000001
 30
0.0
 11
141.92265
 21
50.465268999999992
 31
0.0
  0
LINE
  5
2A6
  8
0
 10
140.07735
 20
48.826965000000001
 30
0.0
 11
140.07735
 21
50.465268999999992
 31
0.0
  0
LINE
  5
2A7
  8
0
 10
140.07735
 20
46.424050999999999
 30
0.0
 11
140.07735
 21
47.956139
 31
0.0
  0
LINE
  5
2A8
  8
0
 10
141.92265
 20
46.424050999999999
 30
0.0
 11
141.92265
 21
47.956139
 31
0.0
  0
LINE
  5
2A9
  8
0
 10
141.92265
 20
44.200563999999993
 30
0.0
 11
141.92265
 21
45.614776999999997
 31
0.0
  0
LINE
  5
2AA
  8
0
 10
140.07735
 20
44.200563999999993
 30
0.0
 11
140.07735
 21
45.614776999999997
 31
0.0
  0
LINE
  5
2AB
  8
0
 10
140.07735
 20
42.173425999999999
 30
0.0
 11
140.07735
 21
43.459001000000001
 31
0.0
  0
LINE
  5
2AC
  8
0
 10
141.92265
 20
42.173425999999999
 30
0.0
 11
141.92265
 21
43.459001000000001
 31
0.0
  0
LINE
  5
2AD
  8
0
 10
141.92265
 20
40.358065999999987
 30
0.0
 11
141.92265
 21
41.505218999999997
 31
0.0
  0
LINE
  5
2AE
  8
0
 10
140.07735
 20
40.358065999999987
 30
0.0
 11
140.07735
 21
41.505218999999997
 31
0.0
  0
LINE
  5
2AF
  8
0
 10
140.07735
 20
38.768298000000001
 30
0.0
 11
140.07735
 21
39.768298000000001
 31
0.0
  0
LINE
  5
2B0
  8
0
 10
141.92265
 20
38.768298000000001
 30
0.0
 11
141.92265
 21
39.768298000000001
 31
0.0
  0
LINE
  5
2B1
  8
0
 10
141.92265
 20
37.416222999999988
 30
0.0
 11
141.92265
 21
38.261459000000002
 31
0.0
  0
LINE
  5
2B2
  8
0
 10
140.07735
 20
37.416222999999988
 30
0.0
 11
140.07735
 21
38.261459000000002
 31
0.0
  0
LINE
  5
2B3
  8
0
 10
140.07735
 20
36.312130000000003
 30
0.0
 11
140.07735
 21
36.996169999999999
 31
0.0
  0
LINE
  5
2B4
  8
0
 10
141.92265
 20
36.312130000000003
 30
0.0
 11
141.92265
 21
36.996169999999999
 31
0.0
  0
LINE
  5
2B5
  8
0
 10
140.07735
 20
35.464421000000002
 30
0.0
 11
140.07735
 21
35.982059999999997
 31
0.0
  0
LINE
  5
2B6
  8
0
 10
141.92265
 20
35.464421000000002
 30
0.0
 11
141.92265
 21
35.982059999999997
 31
0.0
  0
LINE
  5
2B7
  8
0
 10
140.07735
 20
34.879550000000002
 30
0.0
 11
140.07735
 21
35.226846000000002
 31
0.0
  0
LINE
  5
2B8
  8
0
 10
141.92265
 20
34.879550000000002
 30
0.0
 11
141.92265
 21
35.226846000000002
 31
0.0
  0
LINE
  5
2B9
  8
0
 10
141.92265
 20
34.561965999999998
 30
0.0
 11
141.92265
 21
34.736278000000013
 31
0.0
  0
LINE
  5
2BA
  8
0
 10
140.07735
 20
34.561965999999998
 30
0.0
 11
140.07735
 21
34.736278000000013
 31
0.0
  0
LINE
  5
2BB
  8
0
 10
137.07735
 20
34.5
 30
0.0
 11
138.92265
 21
34.5
 31
0.0
  0
LINE
  5
2BC
  8
0
 10
137.07735
 20
34.5
 30
0.0
 11
137.07735
 21
34.514087000000004
 31
0.0
  0
LINE
  5
2BD
  8
0
 10
138.92265
 20
34.5
 30
0.0
 11
138.92265
 21
34.514087000000004
 31
0.0
  0
LINE
  5
2BE
  8
0
 10
137.07735
 20
69.0
 30
0.0
 11
138.92265
 21
69.0
 31
0.0
  0
LINE
  5
2BF
  8
0
 10
137.07735
 20
67.903393999999992
 30
0.0
 11
138.92265
 21
67.903393999999992
 31
0.0
  0
LINE
  5
2C0
  8
0
 10
137.07735
 20
65.911004000000005
 30
0.0
 11
138.92265
 21
65.911004000000005
 31
0.0
  0
LINE
  5
2C1
  8
0
 10
137.07735
 20
64.822744
 30
0.0
 11
138.92265
 21
64.822744
 31
0.0
  0
LINE
  5
2C2
  8
0
 10
137.07735
 20
62.853127999999998
 30
0.0
 11
138.92265
 21
62.853127999999998
 31
0.0
  0
LINE
  5
2C3
  8
0
 10
137.07735
 20
61.781495999999997
 30
0.0
 11
138.92265
 21
61.781495999999997
 31
0.0
  0
LINE
  5
2C4
  8
0
 10
137.07735
 20
59.849643999999991
 30
0.0
 11
138.92265
 21
59.849643999999991
 31
0.0
  0
LINE
  5
2C5
  8
0
 10
137.07735
 20
58.802795999999987
 30
0.0
 11
138.92265
 21
58.802795999999987
 31
0.0
  0
LINE
  5
2C6
  8
0
 10
137.07735
 20
56.92340999999999
 30
0.0
 11
138.92265
 21
56.92340999999999
 31
0.0
  0
LINE
  5
2C7
  8
0
 10
137.07735
 20
55.909312999999997
 30
0.0
 11
138.92265
 21
55.909312999999997
 31
0.0
  0
LINE
  5
2C8
  8
0
 10
137.07735
 20
54.096696999999999
 30
0.0
 11
138.92265
 21
54.096696999999999
 31
0.0
  0
LINE
  5
2C9
  8
0
 10
137.07735
 20
53.123068999999987
 30
0.0
 11
138.92265
 21
53.123068999999987
 31
0.0
  0
LINE
  5
2CA
  8
0
 10
137.07735
 20
51.391018000000003
 30
0.0
 11
138.92265
 21
51.391018000000003
 31
0.0
  0
LINE
  5
2CB
  8
0
 10
137.07735
 20
50.465268999999992
 30
0.0
 11
138.92265
 21
50.465268999999992
 31
0.0
  0
LINE
  5
2CC
  8
0
 10
137.07735
 20
48.826965000000001
 30
0.0
 11
138.92265
 21
48.826965000000001
 31
0.0
  0
LINE
  5
2CD
  8
0
 10
137.07735
 20
47.956139
 30
0.0
 11
138.92265
 21
47.956139
 31
0.0
  0
LINE
  5
2CE
  8
0
 10
137.07735
 20
46.424050999999999
 30
0.0
 11
138.92265
 21
46.424050999999999
 31
0.0
  0
LINE
  5
2CF
  8
0
 10
137.07735
 20
45.614776999999997
 30
0.0
 11
138.92265
 21
45.614776999999997
 31
0.0
  0
LINE
  5
2D0
  8
0
 10
137.07735
 20
44.200563999999993
 30
0.0
 11
138.92265
 21
44.200563999999993
 31
0.0
  0
LINE
  5
2D1
  8
0
 10
137.07735
 20
43.459001000000001
 30
0.0
 11
138.92265
 21
43.459001000000001
 31
0.0
  0
LINE
  5
2D2
  8
0
 10
137.07735
 20
42.173425999999999
 30
0.0
 11
138.92265
 21
42.173425999999999
 31
0.0
  0
LINE
  5
2D3
  8
0
 10
137.07735
 20
41.505218999999997
 30
0.0
 11
138.92265
 21
41.505218999999997
 31
0.0
  0
LINE
  5
2D4
  8
0
 10
137.07735
 20
40.358065999999987
 30
0.0
 11
138.92265
 21
40.358065999999987
 31
0.0
  0
LINE
  5
2D5
  8
0
 10
137.07735
 20
39.768298000000001
 30
0.0
 11
138.92265
 21
39.768298000000001
 31
0.0
  0
LINE
  5
2D6
  8
0
 10
137.07735
 20
38.768298000000001
 30
0.0
 11
138.92265
 21
38.768298000000001
 31
0.0
  0
LINE
  5
2D7
  8
0
 10
137.07735
 20
38.261459000000002
 30
0.0
 11
138.92265
 21
38.261459000000002
 31
0.0
  0
LINE
  5
2D8
  8
0
 10
137.07735
 20
37.416222999999988
 30
0.0
 11
138.92265
 21
37.416222999999988
 31
0.0
  0
LINE
  5
2D9
  8
0
 10
137.07735
 20
36.996169999999999
 30
0.0
 11
138.92265
 21
36.996169999999999
 31
0.0
  0
LINE
  5
2DA
  8
0
 10
137.07735
 20
36.312130000000003
 30
0.0
 11
138.92265
 21
36.312130000000003
 31
0.0
  0
LINE
  5
2DB
  8
0
 10
137.07735
 20
35.982059999999997
 30
0.0
 11
138.92265
 21
35.982059999999997
 31
0.0
  0
LINE
  5
2DC
  8
0
 10
137.07735
 20
35.464421000000002
 30
0.0
 11
138.92265
 21
35.464421000000002
 31
0.0
  0
LINE
  5
2DD
  8
0
 10
137.07735
 20
35.226846000000002
 30
0.0
 11
138.92265
 21
35.226846000000002
 31
0.0
  0
LINE
  5
2DE
  8
0
 10
137.07735
 20
34.879550000000002
 30
0.0
 11
138.92265
 21
34.879550000000002
 31
0.0
  0
LINE
  5
2DF
  8
0
 10
137.07735
 20
34.736278000000013
 30
0.0
 11
138.92265
 21
34.736278000000013
 31
0.0
  0
LINE
  5
2E0
  8
0
 10
137.07735
 20
34.561965999999998
 30
0.0
 11
138.92265
 21
34.561965999999998
 31
0.0
  0
LINE
  5
2E1
  8
0
 10
137.07735
 20
34.514087000000004
 30
0.0
 11
138.92265
 21
34.514087000000004
 31
0.0
  0
LINE
  5
2E2
  8
0
 10
137.07735
 20
65.911004000000005
 30
0.0
 11
137.07735
 21
67.903393999999992
 31
0.0
  0
LINE
  5
2E3
  8
0
 10
138.92265
 20
65.911004000000005
 30
0.0
 11
138.92265
 21
67.903393999999992
 31
0.0
  0
LINE
  5
2E4
  8
0
 10
138.92265
 20
62.853127999999998
 30
0.0
 11
138.92265
 21
64.822744
 31
0.0
  0
LINE
  5
2E5
  8
0
 10
137.07735
 20
62.853127999999998
 30
0.0
 11
137.07735
 21
64.822744
 31
0.0
  0
LINE
  5
2E6
  8
0
 10
137.07735
 20
59.849643999999991
 30
0.0
 11
137.07735
 21
61.781495999999997
 31
0.0
  0
LINE
  5
2E7
  8
0
 10
138.92265
 20
59.849643999999991
 30
0.0
 11
138.92265
 21
61.781495999999997
 31
0.0
  0
LINE
  5
2E8
  8
0
 10
138.92265
 20
56.92340999999999
 30
0.0
 11
138.92265
 21
58.802795999999987
 31
0.0
  0
LINE
  5
2E9
  8
0
 10
137.07735
 20
56.92340999999999
 30
0.0
 11
137.07735
 21
58.802795999999987
 31
0.0
  0
LINE
  5
2EA
  8
0
 10
137.07735
 20
54.096696999999999
 30
0.0
 11
137.07735
 21
55.909312999999997
 31
0.0
  0
LINE
  5
2EB
  8
0
 10
138.92265
 20
54.096696999999999
 30
0.0
 11
138.92265
 21
55.909312999999997
 31
0.0
  0
LINE
  5
2EC
  8
0
 10
138.92265
 20
51.391018000000003
 30
0.0
 11
138.92265
 21
53.123068999999987
 31
0.0
  0
LINE
  5
2ED
  8
0
 10
137.07735
 20
51.391018000000003
 30
0.0
 11
137.07735
 21
53.123068999999987
 31
0.0
  0
LINE
  5
2EE
  8
0
 10
138.92265
 20
48.826965000000001
 30
0.0
 11
138.92265
 21
50.465268999999992
 31
0.0
  0
LINE
  5
2EF
  8
0
 10
137.07735
 20
48.826965000000001
 30
0.0
 11
137.07735
 21
50.465268999999992
 31
0.0
  0
LINE
  5
2F0
  8
0
 10
137.07735
 20
46.424050999999999
 30
0.0
 11
137.07735
 21
47.956139
 31
0.0
  0
LINE
  5
2F1
  8
0
 10
138.92265
 20
46.424050999999999
 30
0.0
 11
138.92265
 21
47.956139
 31
0.0
  0
LINE
  5
2F2
  8
0
 10
138.92265
 20
44.200563999999993
 30
0.0
 11
138.92265
 21
45.614776999999997
 31
0.0
  0
LINE
  5
2F3
  8
0
 10
137.07735
 20
44.200563999999993
 30
0.0
 11
137.07735
 21
45.614776999999997
 31
0.0
  0
LINE
  5
2F4
  8
0
 10
137.07735
 20
42.173425999999999
 30
0.0
 11
137.07735
 21
43.459001000000001
 31
0.0
  0
LINE
  5
2F5
  8
0
 10
138.92265
 20
42.173425999999999
 30
0.0
 11
138.92265
 21
43.459001000000001
 31
0.0
  0
LINE
  5
2F6
  8
0
 10
138.92265
 20
40.358065999999987
 30
0.0
 11
138.92265
 21
41.505218999999997
 31
0.0
  0
LINE
  5
2F7
  8
0
 10
137.07735
 20
40.358065999999987
 30
0.0
 11
137.07735
 21
41.505218999999997
 31
0.0
  0
LINE
  5
2F8
  8
0
 10
137.07735
 20
38.768298000000001
 30
0.0
 11
137.07735
 21
39.768298000000001
 31
0.0
  0
LINE
  5
2F9
  8
0
 10
138.92265
 20
38.768298000000001
 30
0.0
 11
138.92265
 21
39.768298000000001
 31
0.0
  0
LINE
  5
2FA
  8
0
 10
138.92265
 20
37.416222999999988
 30
0.0
 11
138.92265
 21
38.261459000000002
 31
0.0
  0
LINE
  5
2FB
  8
0
 10
137.07735
 20
37.416222999999988
 30
0.0
 11
137.07735
 21
38.261459000000002
 31
0.0
  0
LINE
  5
2FC
  8
0
 10
137.07735
 20
36.312130000000003
 30
0.0
 11
137.07735
 21
36.996169999999999
 31
0.0
  0
LINE
  5
2FD
  8
0
 10
138.92265
 20
36.312130000000003
 30
0.0
 11
138.92265
 21
36.996169999999999
 31
0.0
  0
LINE
  5
2FE
  8
0
 10
137.07735
 20
35.464421000000002
 30
0.0
 11
137.07735
 21
35.982059999999997
 31
0.0
  0
LINE
  5
2FF
  8
0
 10
138.92265
 20
35.464421000000002
 30
0.0
 11
138.92265
 21
35.982059999999997
 31
0.0
  0
LINE
  5
300
  8
0
 10
137.07735
 20
34.879550000000002
 30
0.0
 11
137.07735
 21
35.226846000000002
 31
0.0
  0
LINE
  5
301
  8
0
 10
138.92265
 20
34.879550000000002
 30
0.0
 11
138.92265
 21
35.226846000000002
 31
0.0
  0
LINE
  5
302
  8
0
 10
138.92265
 20
34.561965999999998
 30
0.0
 11
138.92265
 21
34.736278000000013
 31
0.0
  0
LINE
  5
303
  8
0
 10
137.07735
 20
34.561965999999998
 30
0.0
 11
137.07735
 21
34.736278000000013
 31
0.0
  0
LINE
  5
304
  8
0
 10
134.07735
 20
34.5
 30
0.0
 11
135.92265
 21
34.5
 31
0.0
  0
LINE
  5
305
  8
0
 10
134.07735
 20
34.5
 30
0.0
 11
134.07735
 21
34.514087000000004
 31
0.0
  0
LINE
  5
306
  8
0
 10
135.92265
 20
34.5
 30
0.0
 11
135.92265
 21
34.514087000000004
 31
0.0
  0
LINE
  5
307
  8
0
 10
134.07735
 20
69.0
 30
0.0
 11
135.92265
 21
69.0
 31
0.0
  0
LINE
  5
308
  8
0
 10
134.07735
 20
67.903393999999992
 30
0.0
 11
135.92265
 21
67.903393999999992
 31
0.0
  0
LINE
  5
309
  8
0
 10
134.07735
 20
65.911004000000005
 30
0.0
 11
135.92265
 21
65.911004000000005
 31
0.0
  0
LINE
  5
30A
  8
0
 10
134.07735
 20
64.822744
 30
0.0
 11
135.92265
 21
64.822744
 31
0.0
  0
LINE
  5
30B
  8
0
 10
134.07735
 20
62.853127999999998
 30
0.0
 11
135.92265
 21
62.853127999999998
 31
0.0
  0
LINE
  5
30C
  8
0
 10
134.07735
 20
61.781495999999997
 30
0.0
 11
135.92265
 21
61.781495999999997
 31
0.0
  0
LINE
  5
30D
  8
0
 10
134.07735
 20
59.849643999999991
 30
0.0
 11
135.92265
 21
59.849643999999991
 31
0.0
  0
LINE
  5
30E
  8
0
 10
134.07735
 20
58.802795999999987
 30
0.0
 11
135.92265
 21
58.802795999999987
 31
0.0
  0
LINE
  5
30F
  8
0
 10
134.07735
 20
56.92340999999999
 30
0.0
 11
135.92265
 21
56.92340999999999
 31
0.0
  0
LINE
  5
310
  8
0
 10
134.07735
 20
55.909312999999997
 30
0.0
 11
135.92265
 21
55.909312999999997
 31
0.0
  0
LINE
  5
311
  8
0
 10
134.07735
 20
54.096696999999999
 30
0.0
 11
135.92265
 21
54.096696999999999
 31
0.0
  0
LINE
  5
312
  8
0
 10
134.07735
 20
53.123068999999987
 30
0.0
 11
135.92265
 21
53.123068999999987
 31
0.0
  0
LINE
  5
313
  8
0
 10
134.07735
 20
51.391018000000003
 30
0.0
 11
135.92265
 21
51.391018000000003
 31
0.0
  0
LINE
  5
314
  8
0
 10
134.07735
 20
50.465268999999992
 30
0.0
 11
135.92265
 21
50.465268999999992
 31
0.0
  0
LINE
  5
315
  8
0
 10
134.07735
 20
48.826965000000001
 30
0.0
 11
135.92265
 21
48.826965000000001
 31
0.0
  0
LINE
  5
316
  8
0
 10
134.07735
 20
47.956139
 30
0.0
 11
135.92265
 21
47.956139
 31
0.0
  0
LINE
  5
317
  8
0
 10
134.07735
 20
46.424050999999999
 30
0.0
 11
135.92265
 21
46.424050999999999
 31
0.0
  0
LINE
  5
318
  8
0
 10
134.07735
 20
45.614776999999997
 30
0.0
 11
135.92265
 21
45.614776999999997
 31
0.0
  0
LINE
  5
319
  8
0
 10
134.07735
 20
44.200563999999993
 30
0.0
 11
135.92265
 21
44.200563999999993
 31
0.0
  0
LINE
  5
31A
  8
0
 10
134.07735
 20
43.459001000000001
 30
0.0
 11
135.92265
 21
43.459001000000001
 31
0.0
  0
LINE
  5
31B
  8
0
 10
134.07735
 20
42.173425999999999
 30
0.0
 11
135.92265
 21
42.173425999999999
 31
0.0
  0
LINE
  5
31C
  8
0
 10
134.07735
 20
41.505218999999997
 30
0.0
 11
135.92265
 21
41.505218999999997
 31
0.0
  0
LINE
  5
31D
  8
0
 10
134.07735
 20
40.358065999999987
 30
0.0
 11
135.92265
 21
40.358065999999987
 31
0.0
  0
LINE
  5
31E
  8
0
 10
134.07735
 20
39.768298000000001
 30
0.0
 11
135.92265
 21
39.768298000000001
 31
0.0
  0
LINE
  5
31F
  8
0
 10
134.07735
 20
38.768298000000001
 30
0.0
 11
135.92265
 21
38.768298000000001
 31
0.0
  0
LINE
  5
320
  8
0
 10
134.07735
 20
38.261459000000002
 30
0.0
 11
135.92265
 21
38.261459000000002
 31
0.0
  0
LINE
  5
321
  8
0
 10
134.07735
 20
37.416222999999988
 30
0.0
 11
135.92265
 21
37.416222999999988
 31
0.0
  0
LINE
  5
322
  8
0
 10
134.07735
 20
36.996169999999999
 30
0.0
 11
135.92265
 21
36.996169999999999
 31
0.0
  0
LINE
  5
323
  8
0
 10
134.07735
 20
36.312130000000003
 30
0.0
 11
135.92265
 21
36.312130000000003
 31
0.0
  0
LINE
  5
324
  8
0
 10
134.07735
 20
35.982059999999997
 30
0.0
 11
135.92265
 21
35.982059999999997
 31
0.0
  0
LINE
  5
325
  8
0
 10
134.07735
 20
35.464421000000002
 30
0.0
 11
135.92265
 21
35.464421000000002
 31
0.0
  0
LINE
  5
326
  8
0
 10
134.07735
 20
35.226846000000002
 30
0.0
 11
135.92265
 21
35.226846000000002
 31
0.0
  0
LINE
  5
327
  8
0
 10
134.07735
 20
34.879550000000002
 30
0.0
 11
135.92265
 21
34.879550000000002
 31
0.0
  0
LINE
  5
328
  8
0
 10
134.07735
 20
34.736278000000013
 30
0.0
 11
135.92265
 21
34.736278000000013
 31
0.0
  0
LINE
  5
329
  8
0
 10
134.07735
 20
34.561965999999998
 30
0.0
 11
135.92265
 21
34.561965999999998
 31
0.0
  0
LINE
  5
32A
  8
0
 10
134.07735
 20
34.514087000000004
 30
0.0
 11
135.92265
 21
34.514087000000004
 31
0.0
  0
LINE
  5
32B
  8
0
 10
134.07735
 20
65.911004000000005
 30
0.0
 11
134.07735
 21
67.903393999999992
 31
0.0
  0
LINE
  5
32C
  8
0
 10
135.92265
 20
65.911004000000005
 30
0.0
 11
135.92265
 21
67.903393999999992
 31
0.0
  0
LINE
  5
32D
  8
0
 10
135.92265
 20
62.853127999999998
 30
0.0
 11
135.92265
 21
64.822744
 31
0.0
  0
LINE
  5
32E
  8
0
 10
134.07735
 20
62.853127999999998
 30
0.0
 11
134.07735
 21
64.822744
 31
0.0
  0
LINE
  5
32F
  8
0
 10
134.07735
 20
59.849643999999991
 30
0.0
 11
134.07735
 21
61.781495999999997
 31
0.0
  0
LINE
  5
330
  8
0
 10
135.92265
 20
59.849643999999991
 30
0.0
 11
135.92265
 21
61.781495999999997
 31
0.0
  0
LINE
  5
331
  8
0
 10
135.92265
 20
56.92340999999999
 30
0.0
 11
135.92265
 21
58.802795999999987
 31
0.0
  0
LINE
  5
332
  8
0
 10
134.07735
 20
56.92340999999999
 30
0.0
 11
134.07735
 21
58.802795999999987
 31
0.0
  0
LINE
  5
333
  8
0
 10
134.07735
 20
54.096696999999999
 30
0.0
 11
134.07735
 21
55.909312999999997
 31
0.0
  0
LINE
  5
334
  8
0
 10
135.92265
 20
54.096696999999999
 30
0.0
 11
135.92265
 21
55.909312999999997
 31
0.0
  0
LINE
  5
335
  8
0
 10
135.92265
 20
51.391018000000003
 30
0.0
 11
135.92265
 21
53.123068999999987
 31
0.0
  0
LINE
  5
336
  8
0
 10
134.07735
 20
51.391018000000003
 30
0.0
 11
134.07735
 21
53.123068999999987
 31
0.0
  0
LINE
  5
337
  8
0
 10
135.92265
 20
48.826965000000001
 30
0.0
 11
135.92265
 21
50.465268999999992
 31
0.0
  0
LINE
  5
338
  8
0
 10
134.07735
 20
48.826965000000001
 30
0.0
 11
134.07735
 21
50.465268999999992
 31
0.0
  0
LINE
  5
339
  8
0
 10
134.07735
 20
46.424050999999999
 30
0.0
 11
134.07735
 21
47.956139
 31
0.0
  0
LINE
  5
33A
  8
0
 10
135.92265
 20
46.424050999999999
 30
0.0
 11
135.92265
 21
47.956139
 31
0.0
  0
LINE
  5
33B
  8
0
 10
135.92265
 20
44.200563999999993
 30
0.0
 11
135.92265
 21
45.614776999999997
 31
0.0
  0
LINE
  5
33C
  8
0
 10
134.07735
 20
44.200563999999993
 30
0.0
 11
134.07735
 21
45.614776999999997
 31
0.0
  0
LINE
  5
33D
  8
0
 10
134.07735
 20
42.173425999999999
 30
0.0
 11
134.07735
 21
43.459001000000001
 31
0.0
  0
LINE
  5
33E
  8
0
 10
135.92265
 20
42.173425999999999
 30
0.0
 11
135.92265
 21
43.459001000000001
 31
0.0
  0
LINE
  5
33F
  8
0
 10
135.92265
 20
40.358065999999987
 30
0.0
 11
135.92265
 21
41.505218999999997
 31
0.0
  0
LINE
  5
340
  8
0
 10
134.07735
 20
40.358065999999987
 30
0.0
 11
134.07735
 21
41.505218999999997
 31
0.0
  0
LINE
  5
341
  8
0
 10
134.07735
 20
38.768298000000001
 30
0.0
 11
134.07735
 21
39.768298000000001
 31
0.0
  0
LINE
  5
342
  8
0
 10
135.92265
 20
38.768298000000001
 30
0.0
 11
135.92265
 21
39.768298000000001
 31
0.0
  0
LINE
  5
343
  8
0
 10
135.92265
 20
37.416222999999988
 30
0.0
 11
135.92265
 21
38.261459000000002
 31
0.0
  0
LINE
  5
344
  8
0
 10
134.07735
 20
37.416222999999988
 30
0.0
 11
134.07735
 21
38.261459000000002
 31
0.0
  0
LINE
  5
345
  8
0
 10
134.07735
 20
36.312130000000003
 30
0.0
 11
134.07735
 21
36.996169999999999
 31
0.0
  0
LINE
  5
346
  8
0
 10
135.92265
 20
36.312130000000003
 30
0.0
 11
135.92265
 21
36.996169999999999
 31
0.0
  0
LINE
  5
347
  8
0
 10
134.07735
 20
35.464421000000002
 30
0.0
 11
134.07735
 21
35.982059999999997
 31
0.0
  0
LINE
  5
348
  8
0
 10
135.92265
 20
35.464421000000002
 30
0.0
 11
135.92265
 21
35.982059999999997
 31
0.0
  0
LINE
  5
349
  8
0
 10
134.07735
 20
34.879550000000002
 30
0.0
 11
134.07735
 21
35.226846000000002
 31
0.0
  0
LINE
  5
34A
  8
0
 10
135.92265
 20
34.879550000000002
 30
0.0
 11
135.92265
 21
35.226846000000002
 31
0.0
  0
LINE
  5
34B
  8
0
 10
135.92265
 20
34.561965999999998
 30
0.0
 11
135.92265
 21
34.736278000000013
 31
0.0
  0
LINE
  5
34C
  8
0
 10
134.07735
 20
34.561965999999998
 30
0.0
 11
134.07735
 21
34.736278000000013
 31
0.0
  0
LINE
  5
34D
  8
0
 10
131.07735
 20
34.5
 30
0.0
 11
132.92265
 21
34.5
 31
0.0
  0
LINE
  5
34E
  8
0
 10
131.07735
 20
34.5
 30
0.0
 11
131.07735
 21
34.514087000000004
 31
0.0
  0
LINE
  5
34F
  8
0
 10
132.92265
 20
34.5
 30
0.0
 11
132.92265
 21
34.514087000000004
 31
0.0
  0
LINE
  5
350
  8
0
 10
131.07735
 20
69.0
 30
0.0
 11
132.92265
 21
69.0
 31
0.0
  0
LINE
  5
351
  8
0
 10
131.07735
 20
67.903393999999992
 30
0.0
 11
132.92265
 21
67.903393999999992
 31
0.0
  0
LINE
  5
352
  8
0
 10
131.07735
 20
65.911004000000005
 30
0.0
 11
132.92265
 21
65.911004000000005
 31
0.0
  0
LINE
  5
353
  8
0
 10
131.07735
 20
64.822744
 30
0.0
 11
132.92265
 21
64.822744
 31
0.0
  0
LINE
  5
354
  8
0
 10
131.07735
 20
62.853127999999998
 30
0.0
 11
132.92265
 21
62.853127999999998
 31
0.0
  0
LINE
  5
355
  8
0
 10
131.07735
 20
61.781495999999997
 30
0.0
 11
132.92265
 21
61.781495999999997
 31
0.0
  0
LINE
  5
356
  8
0
 10
131.07735
 20
59.849643999999991
 30
0.0
 11
132.92265
 21
59.849643999999991
 31
0.0
  0
LINE
  5
357
  8
0
 10
131.07735
 20
58.802795999999987
 30
0.0
 11
132.92265
 21
58.802795999999987
 31
0.0
  0
LINE
  5
358
  8
0
 10
131.07735
 20
56.92340999999999
 30
0.0
 11
132.92265
 21
56.92340999999999
 31
0.0
  0
LINE
  5
359
  8
0
 10
131.07735
 20
55.909312999999997
 30
0.0
 11
132.92265
 21
55.909312999999997
 31
0.0
  0
LINE
  5
35A
  8
0
 10
131.07735
 20
54.096696999999999
 30
0.0
 11
132.92265
 21
54.096696999999999
 31
0.0
  0
LINE
  5
35B
  8
0
 10
131.07735
 20
53.123068999999987
 30
0.0
 11
132.92265
 21
53.123068999999987
 31
0.0
  0
LINE
  5
35C
  8
0
 10
131.07735
 20
51.391018000000003
 30
0.0
 11
132.92265
 21
51.391018000000003
 31
0.0
  0
LINE
  5
35D
  8
0
 10
131.07735
 20
50.465268999999992
 30
0.0
 11
132.92265
 21
50.465268999999992
 31
0.0
  0
LINE
  5
35E
  8
0
 10
131.07735
 20
48.826965000000001
 30
0.0
 11
132.92265
 21
48.826965000000001
 31
0.0
  0
LINE
  5
35F
  8
0
 10
131.07735
 20
47.956139
 30
0.0
 11
132.92265
 21
47.956139
 31
0.0
  0
LINE
  5
360
  8
0
 10
131.07735
 20
46.424050999999999
 30
0.0
 11
132.92265
 21
46.424050999999999
 31
0.0
  0
LINE
  5
361
  8
0
 10
131.07735
 20
45.614776999999997
 30
0.0
 11
132.92265
 21
45.614776999999997
 31
0.0
  0
LINE
  5
362
  8
0
 10
131.07735
 20
44.200563999999993
 30
0.0
 11
132.92265
 21
44.200563999999993
 31
0.0
  0
LINE
  5
363
  8
0
 10
131.07735
 20
43.459001000000001
 30
0.0
 11
132.92265
 21
43.459001000000001
 31
0.0
  0
LINE
  5
364
  8
0
 10
131.07735
 20
42.173425999999999
 30
0.0
 11
132.92265
 21
42.173425999999999
 31
0.0
  0
LINE
  5
365
  8
0
 10
131.07735
 20
41.505218999999997
 30
0.0
 11
132.92265
 21
41.505218999999997
 31
0.0
  0
LINE
  5
366
  8
0
 10
131.07735
 20
40.358065999999987
 30
0.0
 11
132.92265
 21
40.358065999999987
 31
0.0
  0
LINE
  5
367
  8
0
 10
131.07735
 20
39.768298000000001
 30
0.0
 11
132.92265
 21
39.768298000000001
 31
0.0
  0
LINE
  5
368
  8
0
 10
131.07735
 20
38.768298000000001
 30
0.0
 11
132.92265
 21
38.768298000000001
 31
0.0
  0
LINE
  5
369
  8
0
 10
131.07735
 20
38.261459000000002
 30
0.0
 11
132.92265
 21
38.261459000000002
 31
0.0
  0
LINE
  5
36A
  8
0
 10
131.07735
 20
37.416222999999988
 30
0.0
 11
132.92265
 21
37.416222999999988
 31
0.0
  0
LINE
  5
36B
  8
0
 10
131.07735
 20
36.996169999999999
 30
0.0
 11
132.92265
 21
36.996169999999999
 31
0.0
  0
LINE
  5
36C
  8
0
 10
131.07735
 20
36.312130000000003
 30
0.0
 11
132.92265
 21
36.312130000000003
 31
0.0
  0
LINE
  5
36D
  8
0
 10
131.07735
 20
35.982059999999997
 30
0.0
 11
132.92265
 21
35.982059999999997
 31
0.0
  0
LINE
  5
36E
  8
0
 10
131.07735
 20
35.464421000000002
 30
0.0
 11
132.92265
 21
35.464421000000002
 31
0.0
  0
LINE
  5
36F
  8
0
 10
131.07735
 20
35.226846000000002
 30
0.0
 11
132.92265
 21
35.226846000000002
 31
0.0
  0
LINE
  5
370
  8
0
 10
131.07735
 20
34.879550000000002
 30
0.0
 11
132.92265
 21
34.879550000000002
 31
0.0
  0
LINE
  5
371
  8
0
 10
131.07735
 20
34.736278000000013
 30
0.0
 11
132.92265
 21
34.736278000000013
 31
0.0
  0
LINE
  5
372
  8
0
 10
131.07735
 20
34.561965999999998
 30
0.0
 11
132.92265
 21
34.561965999999998
 31
0.0
  0
LINE
  5
373
  8
0
 10
131.07735
 20
34.514087000000004
 30
0.0
 11
132.92265
 21
34.514087000000004
 31
0.0
  0
LINE
  5
374
  8
0
 10
131.07735
 20
65.911004000000005
 30
0.0
 11
131.07735
 21
67.903393999999992
 31
0.0
  0
LINE
  5
375
  8
0
 10
132.92265
 20
65.911004000000005
 30
0.0
 11
132.92265
 21
67.903393999999992
 31
0.0
  0
LINE
  5
376
  8
0
 10
132.92265
 20
62.853127999999998
 30
0.0
 11
132.92265
 21
64.822744
 31
0.0
  0
LINE
  5
377
  8
0
 10
131.07735
 20
62.853127999999998
 30
0.0
 11
131.07735
 21
64.822744
 31
0.0
  0
LINE
  5
378
  8
0
 10
131.07735
 20
59.849643999999991
 30
0.0
 11
131.07735
 21
61.781495999999997
 31
0.0
  0
LINE
  5
379
  8
0
 10
132.92265
 20
59.849643999999991
 30
0.0
 11
132.92265
 21
61.781495999999997
 31
0.0
  0
LINE
  5
37A
  8
0
 10
132.92265
 20
56.92340999999999
 30
0.0
 11
132.92265
 21
58.802795999999987
 31
0.0
  0
LINE
  5
37B
  8
0
 10
131.07735
 20
56.92340999999999
 30
0.0
 11
131.07735
 21
58.802795999999987
 31
0.0
  0
LINE
  5
37C
  8
0
 10
131.07735
 20
54.096696999999999
 30
0.0
 11
131.07735
 21
55.909312999999997
 31
0.0
  0
LINE
  5
37D
  8
0
 10
132.92265
 20
54.096696999999999
 30
0.0
 11
132.92265
 21
55.909312999999997
 31
0.0
  0
LINE
  5
37E
  8
0
 10
132.92265
 20
51.391018000000003
 30
0.0
 11
132.92265
 21
53.123068999999987
 31
0.0
  0
LINE
  5
37F
  8
0
 10
131.07735
 20
51.391018000000003
 30
0.0
 11
131.07735
 21
53.123068999999987
 31
0.0
  0
LINE
  5
380
  8
0
 10
132.92265
 20
48.826965000000001
 30
0.0
 11
132.92265
 21
50.465268999999992
 31
0.0
  0
LINE
  5
381
  8
0
 10
131.07735
 20
48.826965000000001
 30
0.0
 11
131.07735
 21
50.465268999999992
 31
0.0
  0
LINE
  5
382
  8
0
 10
131.07735
 20
46.424050999999999
 30
0.0
 11
131.07735
 21
47.956139
 31
0.0
  0
LINE
  5
383
  8
0
 10
132.92265
 20
46.424050999999999
 30
0.0
 11
132.92265
 21
47.956139
 31
0.0
  0
LINE
  5
384
  8
0
 10
132.92265
 20
44.200563999999993
 30
0.0
 11
132.92265
 21
45.614776999999997
 31
0.0
  0
LINE
  5
385
  8
0
 10
131.07735
 20
44.200563999999993
 30
0.0
 11
131.07735
 21
45.614776999999997
 31
0.0
  0
LINE
  5
386
  8
0
 10
131.07735
 20
42.173425999999999
 30
0.0
 11
131.07735
 21
43.459001000000001
 31
0.0
  0
LINE
  5
387
  8
0
 10
132.92265
 20
42.173425999999999
 30
0.0
 11
132.92265
 21
43.459001000000001
 31
0.0
  0
LINE
  5
388
  8
0
 10
132.92265
 20
40.358065999999987
 30
0.0
 11
132.92265
 21
41.505218999999997
 31
0.0
  0
LINE
  5
389
  8
0
 10
131.07735
 20
40.358065999999987
 30
0.0
 11
131.07735
 21
41.505218999999997
 31
0.0
  0
LINE
  5
38A
  8
0
 10
131.07735
 20
38.768298000000001
 30
0.0
 11
131.07735
 21
39.768298000000001
 31
0.0
  0
LINE
  5
38B
  8
0
 10
132.92265
 20
38.768298000000001
 30
0.0
 11
132.92265
 21
39.768298000000001
 31
0.0
  0
LINE
  5
38C
  8
0
 10
132.92265
 20
37.416222999999988
 30
0.0
 11
132.92265
 21
38.261459000000002
 31
0.0
  0
LINE
  5
38D
  8
0
 10
131.07735
 20
37.416222999999988
 30
0.0
 11
131.07735
 21
38.261459000000002
 31
0.0
  0
LINE
  5
38E
  8
0
 10
131.07735
 20
36.312130000000003
 30
0.0
 11
131.07735
 21
36.996169999999999
 31
0.0
  0
LINE
  5
38F
  8
0
 10
132.92265
 20
36.312130000000003
 30
0.0
 11
132.92265
 21
36.996169999999999
 31
0.0
  0
LINE
  5
390
  8
0
 10
131.07735
 20
35.464421000000002
 30
0.0
 11
131.07735
 21
35.982059999999997
 31
0.0
  0
LINE
  5
391
  8
0
 10
132.92265
 20
35.464421000000002
 30
0.0
 11
132.92265
 21
35.982059999999997
 31
0.0
  0
LINE
  5
392
  8
0
 10
131.07735
 20
34.879550000000002
 30
0.0
 11
131.07735
 21
35.226846000000002
 31
0.0
  0
LINE
  5
393
  8
0
 10
132.92265
 20
34.879550000000002
 30
0.0
 11
132.92265
 21
35.226846000000002
 31
0.0
  0
LINE
  5
394
  8
0
 10
132.92265
 20
34.561965999999998
 30
0.0
 11
132.92265
 21
34.736278000000013
 31
0.0
  0
LINE
  5
395
  8
0
 10
131.07735
 20
34.561965999999998
 30
0.0
 11
131.07735
 21
34.736278000000013
 31
0.0
  0
LINE
  5
396
  8
0
 10
128.07735
 20
34.5
 30
0.0
 11
129.92265
 21
34.5
 31
0.0
  0
LINE
  5
397
  8
0
 10
128.07735
 20
34.5
 30
0.0
 11
128.07735
 21
34.514087000000004
 31
0.0
  0
LINE
  5
398
  8
0
 10
129.92265
 20
34.5
 30
0.0
 11
129.92265
 21
34.514087000000004
 31
0.0
  0
LINE
  5
399
  8
0
 10
128.07735
 20
69.0
 30
0.0
 11
129.92265
 21
69.0
 31
0.0
  0
LINE
  5
39A
  8
0
 10
128.07735
 20
67.903393999999992
 30
0.0
 11
129.92265
 21
67.903393999999992
 31
0.0
  0
LINE
  5
39B
  8
0
 10
128.07735
 20
65.911004000000005
 30
0.0
 11
129.92265
 21
65.911004000000005
 31
0.0
  0
LINE
  5
39C
  8
0
 10
128.07735
 20
64.822744
 30
0.0
 11
129.92265
 21
64.822744
 31
0.0
  0
LINE
  5
39D
  8
0
 10
128.07735
 20
62.853127999999998
 30
0.0
 11
129.92265
 21
62.853127999999998
 31
0.0
  0
LINE
  5
39E
  8
0
 10
128.07735
 20
61.781495999999997
 30
0.0
 11
129.92265
 21
61.781495999999997
 31
0.0
  0
LINE
  5
39F
  8
0
 10
128.07735
 20
59.849643999999991
 30
0.0
 11
129.92265
 21
59.849643999999991
 31
0.0
  0
LINE
  5
3A0
  8
0
 10
128.07735
 20
58.802795999999987
 30
0.0
 11
129.92265
 21
58.802795999999987
 31
0.0
  0
LINE
  5
3A1
  8
0
 10
128.07735
 20
56.92340999999999
 30
0.0
 11
129.92265
 21
56.92340999999999
 31
0.0
  0
LINE
  5
3A2
  8
0
 10
128.07735
 20
55.909312999999997
 30
0.0
 11
129.92265
 21
55.909312999999997
 31
0.0
  0
LINE
  5
3A3
  8
0
 10
128.07735
 20
54.096696999999999
 30
0.0
 11
129.92265
 21
54.096696999999999
 31
0.0
  0
LINE
  5
3A4
  8
0
 10
128.07735
 20
53.123068999999987
 30
0.0
 11
129.92265
 21
53.123068999999987
 31
0.0
  0
LINE
  5
3A5
  8
0
 10
128.07735
 20
51.391018000000003
 30
0.0
 11
129.92265
 21
51.391018000000003
 31
0.0
  0
LINE
  5
3A6
  8
0
 10
128.07735
 20
50.465268999999992
 30
0.0
 11
129.92265
 21
50.465268999999992
 31
0.0
  0
LINE
  5
3A7
  8
0
 10
128.07735
 20
48.826965000000001
 30
0.0
 11
129.92265
 21
48.826965000000001
 31
0.0
  0
LINE
  5
3A8
  8
0
 10
128.07735
 20
47.956139
 30
0.0
 11
129.92265
 21
47.956139
 31
0.0
  0
LINE
  5
3A9
  8
0
 10
128.07735
 20
46.424050999999999
 30
0.0
 11
129.92265
 21
46.424050999999999
 31
0.0
  0
LINE
  5
3AA
  8
0
 10
128.07735
 20
45.614776999999997
 30
0.0
 11
129.92265
 21
45.614776999999997
 31
0.0
  0
LINE
  5
3AB
  8
0
 10
128.07735
 20
44.200563999999993
 30
0.0
 11
129.92265
 21
44.200563999999993
 31
0.0
  0
LINE
  5
3AC
  8
0
 10
128.07735
 20
43.459001000000001
 30
0.0
 11
129.92265
 21
43.459001000000001
 31
0.0
  0
LINE
  5
3AD
  8
0
 10
128.07735
 20
42.173425999999999
 30
0.0
 11
129.92265
 21
42.173425999999999
 31
0.0
  0
LINE
  5
3AE
  8
0
 10
128.07735
 20
41.505218999999997
 30
0.0
 11
129.92265
 21
41.505218999999997
 31
0.0
  0
LINE
  5
3AF
  8
0
 10
128.07735
 20
40.358065999999987
 30
0.0
 11
129.92265
 21
40.358065999999987
 31
0.0
  0
LINE
  5
3B0
  8
0
 10
128.07735
 20
39.768298000000001
 30
0.0
 11
129.92265
 21
39.768298000000001
 31
0.0
  0
LINE
  5
3B1
  8
0
 10
128.07735
 20
38.768298000000001
 30
0.0
 11
129.92265
 21
38.768298000000001
 31
0.0
  0
LINE
  5
3B2
  8
0
 10
128.07735
 20
38.261459000000002
 30
0.0
 11
129.92265
 21
38.261459000000002
 31
0.0
  0
LINE
  5
3B3
  8
0
 10
128.07735
 20
37.416222999999988
 30
0.0
 11
129.92265
 21
37.416222999999988
 31
0.0
  0
LINE
  5
3B4
  8
0
 10
128.07735
 20
36.996169999999999
 30
0.0
 11
129.92265
 21
36.996169999999999
 31
0.0
  0
LINE
  5
3B5
  8
0
 10
128.07735
 20
36.312130000000003
 30
0.0
 11
129.92265
 21
36.312130000000003
 31
0.0
  0
LINE
  5
3B6
  8
0
 10
128.07735
 20
35.982059999999997
 30
0.0
 11
129.92265
 21
35.982059999999997
 31
0.0
  0
LINE
  5
3B7
  8
0
 10
128.07735
 20
35.464421000000002
 30
0.0
 11
129.92265
 21
35.464421000000002
 31
0.0
  0
LINE
  5
3B8
  8
0
 10
128.07735
 20
35.226846000000002
 30
0.0
 11
129.92265
 21
35.226846000000002
 31
0.0
  0
LINE
  5
3B9
  8
0
 10
128.07735
 20
34.879550000000002
 30
0.0
 11
129.92265
 21
34.879550000000002
 31
0.0
  0
LINE
  5
3BA
  8
0
 10
128.07735
 20
34.736278000000013
 30
0.0
 11
129.92265
 21
34.736278000000013
 31
0.0
  0
LINE
  5
3BB
  8
0
 10
128.07735
 20
34.561965999999998
 30
0.0
 11
129.92265
 21
34.561965999999998
 31
0.0
  0
LINE
  5
3BC
  8
0
 10
128.07735
 20
34.514087000000004
 30
0.0
 11
129.92265
 21
34.514087000000004
 31
0.0
  0
LINE
  5
3BD
  8
0
 10
128.07735
 20
65.911004000000005
 30
0.0
 11
128.07735
 21
67.903393999999992
 31
0.0
  0
LINE
  5
3BE
  8
0
 10
129.92265
 20
65.911004000000005
 30
0.0
 11
129.92265
 21
67.903393999999992
 31
0.0
  0
LINE
  5
3BF
  8
0
 10
129.92265
 20
62.853127999999998
 30
0.0
 11
129.92265
 21
64.822744
 31
0.0
  0
LINE
  5
3C0
  8
0
 10
128.07735
 20
62.853127999999998
 30
0.0
 11
128.07735
 21
64.822744
 31
0.0
  0
LINE
  5
3C1
  8
0
 10
128.07735
 20
59.849643999999991
 30
0.0
 11
128.07735
 21
61.781495999999997
 31
0.0
  0
LINE
  5
3C2
  8
0
 10
129.92265
 20
59.849643999999991
 30
0.0
 11
129.92265
 21
61.781495999999997
 31
0.0
  0
LINE
  5
3C3
  8
0
 10
129.92265
 20
56.92340999999999
 30
0.0
 11
129.92265
 21
58.802795999999987
 31
0.0
  0
LINE
  5
3C4
  8
0
 10
128.07735
 20
56.92340999999999
 30
0.0
 11
128.07735
 21
58.802795999999987
 31
0.0
  0
LINE
  5
3C5
  8
0
 10
128.07735
 20
54.096696999999999
 30
0.0
 11
128.07735
 21
55.909312999999997
 31
0.0
  0
LINE
  5
3C6
  8
0
 10
129.92265
 20
54.096696999999999
 30
0.0
 11
129.92265
 21
55.909312999999997
 31
0.0
  0
LINE
  5
3C7
  8
0
 10
129.92265
 20
51.391018000000003
 30
0.0
 11
129.92265
 21
53.123068999999987
 31
0.0
  0
LINE
  5
3C8
  8
0
 10
128.07735
 20
51.391018000000003
 30
0.0
 11
128.07735
 21
53.123068999999987
 31
0.0
  0
LINE
  5
3C9
  8
0
 10
129.92265
 20
48.826965000000001
 30
0.0
 11
129.92265
 21
50.465268999999992
 31
0.0
  0
LINE
  5
3CA
  8
0
 10
128.07735
 20
48.826965000000001
 30
0.0
 11
128.07735
 21
50.465268999999992
 31
0.0
  0
LINE
  5
3CB
  8
0
 10
128.07735
 20
46.424050999999999
 30
0.0
 11
128.07735
 21
47.956139
 31
0.0
  0
LINE
  5
3CC
  8
0
 10
129.92265
 20
46.424050999999999
 30
0.0
 11
129.92265
 21
47.956139
 31
0.0
  0
LINE
  5
3CD
  8
0
 10
129.92265
 20
44.200563999999993
 30
0.0
 11
129.92265
 21
45.614776999999997
 31
0.0
  0
LINE
  5
3CE
  8
0
 10
128.07735
 20
44.200563999999993
 30
0.0
 11
128.07735
 21
45.614776999999997
 31
0.0
  0
LINE
  5
3CF
  8
0
 10
128.07735
 20
42.173425999999999
 30
0.0
 11
128.07735
 21
43.459001000000001
 31
0.0
  0
LINE
  5
3D0
  8
0
 10
129.92265
 20
42.173425999999999
 30
0.0
 11
129.92265
 21
43.459001000000001
 31
0.0
  0
LINE
  5
3D1
  8
0
 10
129.92265
 20
40.358065999999987
 30
0.0
 11
129.92265
 21
41.505218999999997
 31
0.0
  0
LINE
  5
3D2
  8
0
 10
128.07735
 20
40.358065999999987
 30
0.0
 11
128.07735
 21
41.505218999999997
 31
0.0
  0
LINE
  5
3D3
  8
0
 10
128.07735
 20
38.768298000000001
 30
0.0
 11
128.07735
 21
39.768298000000001
 31
0.0
  0
LINE
  5
3D4
  8
0
 10
129.92265
 20
38.768298000000001
 30
0.0
 11
129.92265
 21
39.768298000000001
 31
0.0
  0
LINE
  5
3D5
  8
0
 10
129.92265
 20
37.416222999999988
 30
0.0
 11
129.92265
 21
38.261459000000002
 31
0.0
  0
LINE
  5
3D6
  8
0
 10
128.07735
 20
37.416222999999988
 30
0.0
 11
128.07735
 21
38.261459000000002
 31
0.0
  0
LINE
  5
3D7
  8
0
 10
128.07735
 20
36.312130000000003
 30
0.0
 11
128.07735
 21
36.996169999999999
 31
0.0
  0
LINE
  5
3D8
  8
0
 10
129.92265
 20
36.312130000000003
 30
0.0
 11
129.92265
 21
36.996169999999999
 31
0.0
  0
LINE
  5
3D9
  8
0
 10
128.07735
 20
35.464421000000002
 30
0.0
 11
128.07735
 21
35.982059999999997
 31
0.0
  0
LINE
  5
3DA
  8
0
 10
129.92265
 20
35.464421000000002
 30
0.0
 11
129.92265
 21
35.982059999999997
 31
0.0
  0
LINE
  5
3DB
  8
0
 10
128.07735
 20
34.879550000000002
 30
0.0
 11
128.07735
 21
35.226846000000002
 31
0.0
  0
LINE
  5
3DC
  8
0
 10
129.92265
 20
34.879550000000002
 30
0.0
 11
129.92265
 21
35.226846000000002
 31
0.0
  0
LINE
  5
3DD
  8
0
 10
129.92265
 20
34.561965999999998
 30
0.0
 11
129.92265
 21
34.736278000000013
 31
0.0
  0
LINE
  5
3DE
  8
0
 10
128.07735
 20
34.561965999999998
 30
0.0
 11
128.07735
 21
34.736278000000013
 31
0.0
  0
LINE
  5
3DF
  8
0
 10
125.07735
 20
34.5
 30
0.0
 11
126.92265
 21
34.5
 31
0.0
  0
LINE
  5
3E0
  8
0
 10
125.07735
 20
34.5
 30
0.0
 11
125.07735
 21
34.514087000000004
 31
0.0
  0
LINE
  5
3E1
  8
0
 10
126.92265
 20
34.5
 30
0.0
 11
126.92265
 21
34.514087000000004
 31
0.0
  0
LINE
  5
3E2
  8
0
 10
125.07735
 20
69.0
 30
0.0
 11
126.92265
 21
69.0
 31
0.0
  0
LINE
  5
3E3
  8
0
 10
125.07735
 20
67.903393999999992
 30
0.0
 11
126.92265
 21
67.903393999999992
 31
0.0
  0
LINE
  5
3E4
  8
0
 10
125.07735
 20
65.911004000000005
 30
0.0
 11
126.92265
 21
65.911004000000005
 31
0.0
  0
LINE
  5
3E5
  8
0
 10
125.07735
 20
64.822744
 30
0.0
 11
126.92265
 21
64.822744
 31
0.0
  0
LINE
  5
3E6
  8
0
 10
125.07735
 20
62.853127999999998
 30
0.0
 11
126.92265
 21
62.853127999999998
 31
0.0
  0
LINE
  5
3E7
  8
0
 10
125.07735
 20
61.781495999999997
 30
0.0
 11
126.92265
 21
61.781495999999997
 31
0.0
  0
LINE
  5
3E8
  8
0
 10
125.07735
 20
59.849643999999991
 30
0.0
 11
126.92265
 21
59.849643999999991
 31
0.0
  0
LINE
  5
3E9
  8
0
 10
125.07735
 20
58.802795999999987
 30
0.0
 11
126.92265
 21
58.802795999999987
 31
0.0
  0
LINE
  5
3EA
  8
0
 10
125.07735
 20
56.92340999999999
 30
0.0
 11
126.92265
 21
56.92340999999999
 31
0.0
  0
LINE
  5
3EB
  8
0
 10
125.07735
 20
55.909312999999997
 30
0.0
 11
126.92265
 21
55.909312999999997
 31
0.0
  0
LINE
  5
3EC
  8
0
 10
125.07735
 20
54.096696999999999
 30
0.0
 11
126.92265
 21
54.096696999999999
 31
0.0
  0
LINE
  5
3ED
  8
0
 10
125.07735
 20
53.123068999999987
 30
0.0
 11
126.92265
 21
53.123068999999987
 31
0.0
  0
LINE
  5
3EE
  8
0
 10
125.07735
 20
51.391018000000003
 30
0.0
 11
126.92265
 21
51.391018000000003
 31
0.0
  0
LINE
  5
3EF
  8
0
 10
125.07735
 20
50.465268999999992
 30
0.0
 11
126.92265
 21
50.465268999999992
 31
0.0
  0
LINE
  5
3F0
  8
0
 10
125.07735
 20
48.826965000000001
 30
0.0
 11
126.92265
 21
48.826965000000001
 31
0.0
  0
LINE
  5
3F1
  8
0
 10
125.07735
 20
47.956139
 30
0.0
 11
126.92265
 21
47.956139
 31
0.0
  0
LINE
  5
3F2
  8
0
 10
125.07735
 20
46.424050999999999
 30
0.0
 11
126.92265
 21
46.424050999999999
 31
0.0
  0
LINE
  5
3F3
  8
0
 10
125.07735
 20
45.614776999999997
 30
0.0
 11
126.92265
 21
45.614776999999997
 31
0.0
  0
LINE
  5
3F4
  8
0
 10
125.07735
 20
44.200563999999993
 30
0.0
 11
126.92265
 21
44.200563999999993
 31
0.0
  0
LINE
  5
3F5
  8
0
 10
125.07735
 20
43.459001000000001
 30
0.0
 11
126.92265
 21
43.459001000000001
 31
0.0
  0
LINE
  5
3F6
  8
0
 10
125.07735
 20
42.173425999999999
 30
0.0
 11
126.92265
 21
42.173425999999999
 31
0.0
  0
LINE
  5
3F7
  8
0
 10
125.07735
 20
41.505218999999997
 30
0.0
 11
126.92265
 21
41.505218999999997
 31
0.0
  0
LINE
  5
3F8
  8
0
 10
125.07735
 20
40.358065999999987
 30
0.0
 11
126.92265
 21
40.358065999999987
 31
0.0
  0
LINE
  5
3F9
  8
0
 10
125.07735
 20
39.768298000000001
 30
0.0
 11
126.92265
 21
39.768298000000001
 31
0.0
  0
LINE
  5
3FA
  8
0
 10
125.07735
 20
38.768298000000001
 30
0.0
 11
126.92265
 21
38.768298000000001
 31
0.0
  0
LINE
  5
3FB
  8
0
 10
125.07735
 20
38.261459000000002
 30
0.0
 11
126.92265
 21
38.261459000000002
 31
0.0
  0
LINE
  5
3FC
  8
0
 10
125.07735
 20
37.416222999999988
 30
0.0
 11
126.92265
 21
37.416222999999988
 31
0.0
  0
LINE
  5
3FD
  8
0
 10
125.07735
 20
36.996169999999999
 30
0.0
 11
126.92265
 21
36.996169999999999
 31
0.0
  0
LINE
  5
3FE
  8
0
 10
125.07735
 20
36.312130000000003
 30
0.0
 11
126.92265
 21
36.312130000000003
 31
0.0
  0
LINE
  5
3FF
  8
0
 10
125.07735
 20
35.982059999999997
 30
0.0
 11
126.92265
 21
35.982059999999997
 31
0.0
  0
LINE
  5
400
  8
0
 10
125.07735
 20
35.464421000000002
 30
0.0
 11
126.92265
 21
35.464421000000002
 31
0.0
  0
LINE
  5
401
  8
0
 10
125.07735
 20
35.226846000000002
 30
0.0
 11
126.92265
 21
35.226846000000002
 31
0.0
  0
LINE
  5
402
  8
0
 10
125.07735
 20
34.879550000000002
 30
0.0
 11
126.92265
 21
34.879550000000002
 31
0.0
  0
LINE
  5
403
  8
0
 10
125.07735
 20
34.736278000000013
 30
0.0
 11
126.92265
 21
34.736278000000013
 31
0.0
  0
LINE
  5
404
  8
0
 10
125.07735
 20
34.561965999999998
 30
0.0
 11
126.92265
 21
34.561965999999998
 31
0.0
  0
LINE
  5
405
  8
0
 10
125.07735
 20
34.514087000000004
 30
0.0
 11
126.92265
 21
34.514087000000004
 31
0.0
  0
LINE
  5
406
  8
0
 10
125.07735
 20
65.911004000000005
 30
0.0
 11
125.07735
 21
67.903393999999992
 31
0.0
  0
LINE
  5
407
  8
0
 10
126.92265
 20
65.911004000000005
 30
0.0
 11
126.92265
 21
67.903393999999992
 31
0.0
  0
LINE
  5
408
  8
0
 10
126.92265
 20
62.853127999999998
 30
0.0
 11
126.92265
 21
64.822744
 31
0.0
  0
LINE
  5
409
  8
0
 10
125.07735
 20
62.853127999999998
 30
0.0
 11
125.07735
 21
64.822744
 31
0.0
  0
LINE
  5
40A
  8
0
 10
125.07735
 20
59.849643999999991
 30
0.0
 11
125.07735
 21
61.781495999999997
 31
0.0
  0
LINE
  5
40B
  8
0
 10
126.92265
 20
59.849643999999991
 30
0.0
 11
126.92265
 21
61.781495999999997
 31
0.0
  0
LINE
  5
40C
  8
0
 10
126.92265
 20
56.92340999999999
 30
0.0
 11
126.92265
 21
58.802795999999987
 31
0.0
  0
LINE
  5
40D
  8
0
 10
125.07735
 20
56.92340999999999
 30
0.0
 11
125.07735
 21
58.802795999999987
 31
0.0
  0
LINE
  5
40E
  8
0
 10
125.07735
 20
54.096696999999999
 30
0.0
 11
125.07735
 21
55.909312999999997
 31
0.0
  0
LINE
  5
40F
  8
0
 10
126.92265
 20
54.096696999999999
 30
0.0
 11
126.92265
 21
55.909312999999997
 31
0.0
  0
LINE
  5
410
  8
0
 10
126.92265
 20
51.391018000000003
 30
0.0
 11
126.92265
 21
53.123068999999987
 31
0.0
  0
LINE
  5
411
  8
0
 10
125.07735
 20
51.391018000000003
 30
0.0
 11
125.07735
 21
53.123068999999987
 31
0.0
  0
LINE
  5
412
  8
0
 10
126.92265
 20
48.826965000000001
 30
0.0
 11
126.92265
 21
50.465268999999992
 31
0.0
  0
LINE
  5
413
  8
0
 10
125.07735
 20
48.826965000000001
 30
0.0
 11
125.07735
 21
50.465268999999992
 31
0.0
  0
LINE
  5
414
  8
0
 10
125.07735
 20
46.424050999999999
 30
0.0
 11
125.07735
 21
47.956139
 31
0.0
  0
LINE
  5
415
  8
0
 10
126.92265
 20
46.424050999999999
 30
0.0
 11
126.92265
 21
47.956139
 31
0.0
  0
LINE
  5
416
  8
0
 10
126.92265
 20
44.200563999999993
 30
0.0
 11
126.92265
 21
45.614776999999997
 31
0.0
  0
LINE
  5
417
  8
0
 10
125.07735
 20
44.200563999999993
 30
0.0
 11
125.07735
 21
45.614776999999997
 31
0.0
  0
LINE
  5
418
  8
0
 10
125.07735
 20
42.173425999999999
 30
0.0
 11
125.07735
 21
43.459001000000001
 31
0.0
  0
LINE
  5
419
  8
0
 10
126.92265
 20
42.173425999999999
 30
0.0
 11
126.92265
 21
43.459001000000001
 31
0.0
  0
LINE
  5
41A
  8
0
 10
126.92265
 20
40.358065999999987
 30
0.0
 11
126.92265
 21
41.505218999999997
 31
0.0
  0
LINE
  5
41B
  8
0
 10
125.07735
 20
40.358065999999987
 30
0.0
 11
125.07735
 21
41.505218999999997
 31
0.0
  0
LINE
  5
41C
  8
0
 10
125.07735
 20
38.768298000000001
 30
0.0
 11
125.07735
 21
39.768298000000001
 31
0.0
  0
LINE
  5
41D
  8
0
 10
126.92265
 20
38.768298000000001
 30
0.0
 11
126.92265
 21
39.768298000000001
 31
0.0
  0
LINE
  5
41E
  8
0
 10
126.92265
 20
37.416222999999988
 30
0.0
 11
126.92265
 21
38.261459000000002
 31
0.0
  0
LINE
  5
41F
  8
0
 10
125.07735
 20
37.416222999999988
 30
0.0
 11
125.07735
 21
38.261459000000002
 31
0.0
  0
LINE
  5
420
  8
0
 10
125.07735
 20
36.312130000000003
 30
0.0
 11
125.07735
 21
36.996169999999999
 31
0.0
  0
LINE
  5
421
  8
0
 10
126.92265
 20
36.312130000000003
 30
0.0
 11
126.92265
 21
36.996169999999999
 31
0.0
  0
LINE
  5
422
  8
0
 10
125.07735
 20
35.464421000000002
 30
0.0
 11
125.07735
 21
35.982059999999997
 31
0.0
  0
LINE
  5
423
  8
0
 10
126.92265
 20
35.464421000000002
 30
0.0
 11
126.92265
 21
35.982059999999997
 31
0.0
  0
LINE
  5
424
  8
0
 10
125.07735
 20
34.879550000000002
 30
0.0
 11
125.07735
 21
35.226846000000002
 31
0.0
  0
LINE
  5
425
  8
0
 10
126.92265
 20
34.879550000000002
 30
0.0
 11
126.92265
 21
35.226846000000002
 31
0.0
  0
LINE
  5
426
  8
0
 10
126.92265
 20
34.561965999999998
 30
0.0
 11
126.92265
 21
34.736278000000013
 31
0.0
  0
LINE
  5
427
  8
0
 10
125.07735
 20
34.561965999999998
 30
0.0
 11
125.07735
 21
34.736278000000013
 31
0.0
  0
LINE
  5
428
  8
0
 10
122.07735
 20
34.561965999999998
 30
0.0
 11
122.07735
 21
34.736278000000013
 31
0.0
  0
LINE
  5
429
  8
0
 10
123.92265
 20
34.561965999999998
 30
0.0
 11
123.92265
 21
34.736278000000013
 31
0.0
  0
LINE
  5
42A
  8
0
 10
123.92265
 20
34.879550000000002
 30
0.0
 11
123.92265
 21
35.226846000000002
 31
0.0
  0
LINE
  5
42B
  8
0
 10
122.07735
 20
34.879550000000002
 30
0.0
 11
122.07735
 21
35.226846000000002
 31
0.0
  0
LINE
  5
42C
  8
0
 10
123.92265
 20
35.464421000000002
 30
0.0
 11
123.92265
 21
35.982059999999997
 31
0.0
  0
LINE
  5
42D
  8
0
 10
122.07735
 20
35.464421000000002
 30
0.0
 11
122.07735
 21
35.982059999999997
 31
0.0
  0
LINE
  5
42E
  8
0
 10
123.92265
 20
36.312130000000003
 30
0.0
 11
123.92265
 21
36.996169999999999
 31
0.0
  0
LINE
  5
42F
  8
0
 10
122.07735
 20
36.312130000000003
 30
0.0
 11
122.07735
 21
36.996169999999999
 31
0.0
  0
LINE
  5
430
  8
0
 10
122.07735
 20
37.416222999999988
 30
0.0
 11
122.07735
 21
38.261459000000002
 31
0.0
  0
LINE
  5
431
  8
0
 10
123.92265
 20
37.416222999999988
 30
0.0
 11
123.92265
 21
38.261459000000002
 31
0.0
  0
LINE
  5
432
  8
0
 10
123.92265
 20
38.768298000000001
 30
0.0
 11
123.92265
 21
39.768298000000001
 31
0.0
  0
LINE
  5
433
  8
0
 10
122.07735
 20
38.768298000000001
 30
0.0
 11
122.07735
 21
39.768298000000001
 31
0.0
  0
LINE
  5
434
  8
0
 10
122.07735
 20
40.358065999999987
 30
0.0
 11
122.07735
 21
41.505218999999997
 31
0.0
  0
LINE
  5
435
  8
0
 10
123.92265
 20
40.358065999999987
 30
0.0
 11
123.92265
 21
41.505218999999997
 31
0.0
  0
LINE
  5
436
  8
0
 10
123.92265
 20
42.173425999999999
 30
0.0
 11
123.92265
 21
43.459001000000001
 31
0.0
  0
LINE
  5
437
  8
0
 10
122.07735
 20
42.173425999999999
 30
0.0
 11
122.07735
 21
43.459001000000001
 31
0.0
  0
LINE
  5
438
  8
0
 10
122.07735
 20
44.200563999999993
 30
0.0
 11
122.07735
 21
45.614776999999997
 31
0.0
  0
LINE
  5
439
  8
0
 10
123.92265
 20
44.200563999999993
 30
0.0
 11
123.92265
 21
45.614776999999997
 31
0.0
  0
LINE
  5
43A
  8
0
 10
123.92265
 20
46.424050999999999
 30
0.0
 11
123.92265
 21
47.956139
 31
0.0
  0
LINE
  5
43B
  8
0
 10
122.07735
 20
46.424050999999999
 30
0.0
 11
122.07735
 21
47.956139
 31
0.0
  0
LINE
  5
43C
  8
0
 10
122.07735
 20
48.826965000000001
 30
0.0
 11
122.07735
 21
50.465268999999992
 31
0.0
  0
LINE
  5
43D
  8
0
 10
123.92265
 20
48.826965000000001
 30
0.0
 11
123.92265
 21
50.465268999999992
 31
0.0
  0
LINE
  5
43E
  8
0
 10
122.07735
 20
51.391018000000003
 30
0.0
 11
122.07735
 21
53.123068999999987
 31
0.0
  0
LINE
  5
43F
  8
0
 10
123.92265
 20
51.391018000000003
 30
0.0
 11
123.92265
 21
53.123068999999987
 31
0.0
  0
LINE
  5
440
  8
0
 10
123.92265
 20
54.096696999999999
 30
0.0
 11
123.92265
 21
55.909312999999997
 31
0.0
  0
LINE
  5
441
  8
0
 10
122.07735
 20
54.096696999999999
 30
0.0
 11
122.07735
 21
55.909312999999997
 31
0.0
  0
LINE
  5
442
  8
0
 10
122.07735
 20
56.92340999999999
 30
0.0
 11
122.07735
 21
58.802795999999987
 31
0.0
  0
LINE
  5
443
  8
0
 10
123.92265
 20
56.92340999999999
 30
0.0
 11
123.92265
 21
58.802795999999987
 31
0.0
  0
LINE
  5
444
  8
0
 10
123.92265
 20
59.849643999999991
 30
0.0
 11
123.92265
 21
61.781495999999997
 31
0.0
  0
LINE
  5
445
  8
0
 10
122.07735
 20
59.849643999999991
 30
0.0
 11
122.07735
 21
61.781495999999997
 31
0.0
  0
LINE
  5
446
  8
0
 10
122.07735
 20
62.853127999999998
 30
0.0
 11
122.07735
 21
64.822744
 31
0.0
  0
LINE
  5
447
  8
0
 10
123.92265
 20
62.853127999999998
 30
0.0
 11
123.92265
 21
64.822744
 31
0.0
  0
LINE
  5
448
  8
0
 10
123.92265
 20
65.911004000000005
 30
0.0
 11
123.92265
 21
67.903393999999992
 31
0.0
  0
LINE
  5
449
  8
0
 10
122.07735
 20
65.911004000000005
 30
0.0
 11
122.07735
 21
67.903393999999992
 31
0.0
  0
LINE
  5
44A
  8
0
 10
122.07735
 20
34.514087000000004
 30
0.0
 11
123.92265
 21
34.514087000000004
 31
0.0
  0
LINE
  5
44B
  8
0
 10
122.07735
 20
34.561965999999998
 30
0.0
 11
123.92265
 21
34.561965999999998
 31
0.0
  0
LINE
  5
44C
  8
0
 10
122.07735
 20
34.736278000000013
 30
0.0
 11
123.92265
 21
34.736278000000013
 31
0.0
  0
LINE
  5
44D
  8
0
 10
122.07735
 20
34.879550000000002
 30
0.0
 11
123.92265
 21
34.879550000000002
 31
0.0
  0
LINE
  5
44E
  8
0
 10
122.07735
 20
35.226846000000002
 30
0.0
 11
123.92265
 21
35.226846000000002
 31
0.0
  0
LINE
  5
44F
  8
0
 10
122.07735
 20
35.464421000000002
 30
0.0
 11
123.92265
 21
35.464421000000002
 31
0.0
  0
LINE
  5
450
  8
0
 10
122.07735
 20
35.982059999999997
 30
0.0
 11
123.92265
 21
35.982059999999997
 31
0.0
  0
LINE
  5
451
  8
0
 10
122.07735
 20
36.312130000000003
 30
0.0
 11
123.92265
 21
36.312130000000003
 31
0.0
  0
LINE
  5
452
  8
0
 10
122.07735
 20
36.996169999999999
 30
0.0
 11
123.92265
 21
36.996169999999999
 31
0.0
  0
LINE
  5
453
  8
0
 10
122.07735
 20
37.416222999999988
 30
0.0
 11
123.92265
 21
37.416222999999988
 31
0.0
  0
LINE
  5
454
  8
0
 10
122.07735
 20
38.261459000000002
 30
0.0
 11
123.92265
 21
38.261459000000002
 31
0.0
  0
LINE
  5
455
  8
0
 10
122.07735
 20
38.768298000000001
 30
0.0
 11
123.92265
 21
38.768298000000001
 31
0.0
  0
LINE
  5
456
  8
0
 10
122.07735
 20
39.768298000000001
 30
0.0
 11
123.92265
 21
39.768298000000001
 31
0.0
  0
LINE
  5
457
  8
0
 10
122.07735
 20
40.358065999999987
 30
0.0
 11
123.92265
 21
40.358065999999987
 31
0.0
  0
LINE
  5
458
  8
0
 10
122.07735
 20
41.505218999999997
 30
0.0
 11
123.92265
 21
41.505218999999997
 31
0.0
  0
LINE
  5
459
  8
0
 10
122.07735
 20
42.173425999999999
 30
0.0
 11
123.92265
 21
42.173425999999999
 31
0.0
  0
LINE
  5
45A
  8
0
 10
122.07735
 20
43.459001000000001
 30
0.0
 11
123.92265
 21
43.459001000000001
 31
0.0
  0
LINE
  5
45B
  8
0
 10
122.07735
 20
44.200563999999993
 30
0.0
 11
123.92265
 21
44.200563999999993
 31
0.0
  0
LINE
  5
45C
  8
0
 10
122.07735
 20
45.614776999999997
 30
0.0
 11
123.92265
 21
45.614776999999997
 31
0.0
  0
LINE
  5
45D
  8
0
 10
122.07735
 20
46.424050999999999
 30
0.0
 11
123.92265
 21
46.424050999999999
 31
0.0
  0
LINE
  5
45E
  8
0
 10
122.07735
 20
47.956139
 30
0.0
 11
123.92265
 21
47.956139
 31
0.0
  0
LINE
  5
45F
  8
0
 10
122.07735
 20
48.826965000000001
 30
0.0
 11
123.92265
 21
48.826965000000001
 31
0.0
  0
LINE
  5
460
  8
0
 10
122.07735
 20
50.465268999999992
 30
0.0
 11
123.92265
 21
50.465268999999992
 31
0.0
  0
LINE
  5
461
  8
0
 10
122.07735
 20
51.391018000000003
 30
0.0
 11
123.92265
 21
51.391018000000003
 31
0.0
  0
LINE
  5
462
  8
0
 10
122.07735
 20
53.123068999999987
 30
0.0
 11
123.92265
 21
53.123068999999987
 31
0.0
  0
LINE
  5
463
  8
0
 10
122.07735
 20
54.096696999999999
 30
0.0
 11
123.92265
 21
54.096696999999999
 31
0.0
  0
LINE
  5
464
  8
0
 10
122.07735
 20
55.909312999999997
 30
0.0
 11
123.92265
 21
55.909312999999997
 31
0.0
  0
LINE
  5
465
  8
0
 10
122.07735
 20
56.92340999999999
 30
0.0
 11
123.92265
 21
56.92340999999999
 31
0.0
  0
LINE
  5
466
  8
0
 10
122.07735
 20
58.802795999999987
 30
0.0
 11
123.92265
 21
58.802795999999987
 31
0.0
  0
LINE
  5
467
  8
0
 10
122.07735
 20
59.849643999999991
 30
0.0
 11
123.92265
 21
59.849643999999991
 31
0.0
  0
LINE
  5
468
  8
0
 10
122.07735
 20
61.781495999999997
 30
0.0
 11
123.92265
 21
61.781495999999997
 31
0.0
  0
LINE
  5
469
  8
0
 10
122.07735
 20
62.853127999999998
 30
0.0
 11
123.92265
 21
62.853127999999998
 31
0.0
  0
LINE
  5
46A
  8
0
 10
122.07735
 20
64.822744
 30
0.0
 11
123.92265
 21
64.822744
 31
0.0
  0
LINE
  5
46B
  8
0
 10
122.07735
 20
65.911004000000005
 30
0.0
 11
123.92265
 21
65.911004000000005
 31
0.0
  0
LINE
  5
46C
  8
0
 10
122.07735
 20
67.903393999999992
 30
0.0
 11
123.92265
 21
67.903393999999992
 31
0.0
  0
LINE
  5
46D
  8
0
 10
122.07735
 20
69.0
 30
0.0
 11
123.92265
 21
69.0
 31
0.0
  0
LINE
  5
46E
  8
0
 10
123.92265
 20
34.5
 30
0.0
 11
123.92265
 21
34.514087000000004
 31
0.0
  0
LINE
  5
46F
  8
0
 10
122.07735
 20
34.5
 30
0.0
 11
122.07735
 21
34.514087000000004
 31
0.0
  0
LINE
  5
470
  8
0
 10
122.07735
 20
34.5
 30
0.0
 11
123.92265
 21
34.5
 31
0.0
  0
LINE
  5
471
  8
0
 10
163.5
 20
84.0
 30
0.0
 11
163.5
 21
56.0
 31
0.0
  0
LINE
  5
472
  8
0
 10
164.69999999999999
 20
59.0
 30
0.0
 11
165.0
 21
59.0
 31
0.0
  0
LINE
  5
473
  8
2
 10
145.0
 20
59.0
 30
0.0
 11
164.69999999999999
 21
59.0
 31
0.0
  0
LINE
  5
474
  8
2
 10
145.0
 20
81.0
 30
0.0
 11
164.69999999999999
 21
81.0
 31
0.0
  0
LINE
  5
475
  8
0
 10
164.69999999999999
 20
81.0
 30
0.0
 11
165.0
 21
81.0
 31
0.0
  0
LINE
  5
476
  8
2
 10
143.0
 20
74.5
 30
0.0
 11
144.0
 21
74.5
 31
0.0
  0
LINE
  5
477
  8
2
 10
144.0
 20
75.0
 30
0.0
 11
143.0
 21
76.0
 31
0.0
  0
LINE
  5
478
  8
2
 10
143.0
 20
80.25
 30
0.0
 11
145.0
 21
80.25
 31
0.0
  0
LINE
  5
479
  8
2
 10
145.0
 20
80.25
 30
0.0
 11
145.0
 21
81.0
 31
0.0
  0
LINE
  5
47A
  8
2
 10
164.0
 20
75.0
 30
0.0
 11
165.0
 21
76.0
 31
0.0
  0
LINE
  5
47B
  8
2
 10
144.0
 20
75.0
 30
0.0
 11
164.0
 21
75.0
 31
0.0
  0
LINE
  5
47C
  8
2
 10
144.0
 20
74.041452000000007
 30
0.0
 11
145.42965799999999
 21
74.041452000000007
 31
0.0
  0
LINE
  5
47D
  8
2
 10
144.0
 20
72.020725999999996
 30
0.0
 11
145.42965799999999
 21
72.020725999999996
 31
0.0
  0
ARC
  5
47E
  8
2
 10
143.95318900000001
 20
73.031088999999994
 30
0.0
 40
1.789075999999999
 50
325.61575299999998
 51
25.615753000000002
  0
LINE
  5
47F
  8
2
 10
145.80000000000001
 20
71.621000000000009
 30
0.0
 11
146.57900000000001
 21
71.621000000000009
 31
0.0
  0
LINE
  5
480
  8
2
 10
147.0
 20
71.200000000000003
 30
0.0
 11
146.19999999999999
 21
72.0
 31
0.0
  0
LINE
  5
481
  8
2
 10
145.80000000000001
 20
72.0
 30
0.0
 11
146.19999999999999
 21
72.0
 31
0.0
  0
LINE
  5
482
  8
2
 10
145.80000000000001
 20
73.400000000000006
 30
0.0
 11
145.42965799999999
 21
74.041452000000007
 31
0.0
  0
LINE
  5
488
  8
0
 10
140.07735
 20
56.92340999999999
 30
0.0
 11
140.07735
 21
58.802795999999987
 31
0.0
  0
LINE
  5
489
  8
0
 10
141.92265
 20
56.92340999999999
 30
0.0
 11
141.92265
 21
58.802795999999987
 31
0.0
  0
LINE
  5
48A
  8
0
 10
141.92265
 20
59.849643999999991
 30
0.0
 11
141.92265
 21
61.781495999999997
 31
0.0
  0
LINE
  5
48B
  8
0
 10
140.07735
 20
59.849643999999991
 30
0.0
 11
140.07735
 21
61.781495999999997
 31
0.0
  0
LINE
  5
48C
  8
0
 10
140.07735
 20
62.853127999999998
 30
0.0
 11
140.07735
 21
64.822744
 31
0.0
  0
LINE
  5
48D
  8
0
 10
141.92265
 20
62.853127999999998
 30
0.0
 11
141.92265
 21
64.822744
 31
0.0
  0
LINE
  5
48E
  8
0
 10
141.92265
 20
65.911004000000005
 30
0.0
 11
141.92265
 21
67.903393999999992
 31
0.0
  0
LINE
  5
48F
  8
0
 10
140.07735
 20
65.911004000000005
 30
0.0
 11
140.07735
 21
67.903393999999992
 31
0.0
  0
LINE
  5
490
  8
0
 10
140.07735
 20
56.92340999999999
 30
0.0
 11
141.92265
 21
56.92340999999999
 31
0.0
  0
LINE
  5
491
  8
0
 10
140.07735
 20
58.802795999999987
 30
0.0
 11
141.92265
 21
58.802795999999987
 31
0.0
  0
LINE
  5
492
  8
0
 10
140.07735
 20
59.849643999999991
 30
0.0
 11
141.92265
 21
59.849643999999991
 31
0.0
  0
LINE
  5
493
  8
0
 10
140.07735
 20
61.781495999999997
 30
0.0
 11
141.92265
 21
61.781495999999997
 31
0.0
  0
LINE
  5
494
  8
0
 10
140.07735
 20
62.853127999999998
 30
0.0
 11
141.92265
 21
62.853127999999998
 31
0.0
  0
LINE
  5
495
  8
0
 10
140.07735
 20
64.822744
 30
0.0
 11
141.92265
 21
64.822744
 31
0.0
  0
LINE
  5
496
  8
0
 10
140.07735
 20
65.911004000000005
 30
0.0
 11
141.92265
 21
65.911004000000005
 31
0.0
  0
LINE
  5
497
  8
0
 10
140.07735
 20
67.903393999999992
 30
0.0
 11
141.92265
 21
67.903393999999992
 31
0.0
  0
LINE
  5
498
  8
0
 10
140.07735
 20
69.0
 30
0.0
 11
141.92265
 21
69.0
 31
0.0
  0
LINE
  5
499
  8
0
 10
141.92265
 20
71.0
 30
0.0
 11
141.92265
 21
69.0
 31
0.0
  0
LINE
  5
49A
  8
0
 10
140.07735
 20
71.0
 30
0.0
 11
140.07735
 21
69.0
 31
0.0
  0
LINE
  5
49B
  8
0
 10
140.07735
 20
71.0
 30
0.0
 11
141.92265
 21
71.0
 31
0.0
  0
LINE
  5
4A5
  8
0
 10
157.75
 20
69.278311999999985
 30
0.0
 11
157.75
 21
70.721688
 31
0.0
  0
LINE
  5
4A6
  8
0
 10
157.75
 20
70.721688
 30
0.0
 11
159.0
 21
71.443376000000001
 31
0.0
  0
LINE
  5
4A7
  8
0
 10
159.0
 20
71.443376000000001
 30
0.0
 11
160.25
 21
70.721688
 31
0.0
  0
LINE
  5
4A8
  8
0
 10
160.25
 20
70.721688
 30
0.0
 11
160.25
 21
69.278311999999985
 31
0.0
  0
LINE
  5
4A9
  8
0
 10
160.25
 20
69.278311999999985
 30
0.0
 11
159.0
 21
68.556623999999985
 31
0.0
  0
LINE
  5
4AA
  8
0
 10
159.0
 20
68.556623999999985
 30
0.0
 11
157.75
 21
69.278311999999985
 31
0.0
  0
CIRCLE
  5
4AB
  8
3
 10
159.0
 20
70.0
 30
0.0
 40
2.0669999999999988
  0
CIRCLE
  5
4AC
  8
0
 10
159.0
 20
70.0
 30
0.0
 40
2.5
  0
LINE
  5
4AD
  8
1
 10
159.0
 20
77.5
 30
0.0
 11
159.0
 21
62.5
 31
0.0
  0
ARC
  5
4AE
  8
0
 10
55.0
 20
70.0
 30
0.0
 40
35.5
 50
88.385820999999993
 51
91.614179000000007
  0
LINE
  5
4AF
  8
1
 10
93.0
 20
70.0
 30
0.0
 11
17.0
 21
70.0
 31
0.0
  0
LINE
  5
4B0
  8
1
 10
55.0
 20
108.0
 30
0.0
 11
55.0
 21
32.0
 31
0.0
  0
CIRCLE
  5
4B1
  8
0
 10
55.0
 20
70.0
 30
0.0
 40
34.100000000000001
  0
LINE
  5
4B2
  8
0
 10
56.504868999999992
 20
104.467164
 30
0.0
 11
56.0
 21
105.485913
 31
0.0
  0
LINE
  5
4B3
  8
0
 10
53.495131000000008
 20
104.467164
 30
0.0
 11
54.0
 21
105.485913
 31
0.0
  0
LINE
  5
4B4
  8
0
 10
50.496845999999998
 20
104.204848
 30
0.0
 11
50.911003999999998
 21
105.263722
 31
0.0
  0
LINE
  5
4B5
  8
0
 10
53.495131000000008
 20
104.467164
 30
0.0
 11
52.903393999999992
 21
105.438034
 31
0.0
  0
ARC
  5
4B6
  8
0
 10
55.0
 20
70.0
 30
0.0
 40
35.5
 50
93.385820999999993
 51
96.614179000000007
  0
LINE
  5
4B7
  8
0
 10
47.532832999999997
 20
103.68221200000001
 30
0.0
 11
47.853127999999998
 21
104.77315400000001
 31
0.0
  0
LINE
  5
4B8
  8
0
 10
50.496845999999998
 20
104.204848
 30
0.0
 11
49.822744
 21
105.12045000000001
 31
0.0
  0
ARC
  5
4B9
  8
0
 10
55.0
 20
70.0
 30
0.0
 40
35.5
 50
98.385820999999993
 51
101.61417899999999
  0
LINE
  5
4BA
  8
0
 10
44.62565
 20
102.903235
 30
0.0
 11
44.849643999999991
 21
104.01794
 31
0.0
  0
LINE
  5
4BB
  8
0
 10
47.532832999999997
 20
103.68221200000001
 30
0.0
 11
46.781495999999997
 21
104.535579
 31
0.0
  0
ARC
  5
4BC
  8
0
 10
55.0
 20
70.0
 30
0.0
 40
35.5
 50
103.38582100000001
 51
106.61417899999999
  0
LINE
  5
4BD
  8
0
 10
41.79742199999999
 20
101.87384400000001
 30
0.0
 11
41.92340999999999
 21
103.00382999999999
 31
0.0
  0
LINE
  5
4BE
  8
0
 10
44.62565
 20
102.903235
 30
0.0
 11
43.802796000000001
 21
103.68787
 31
0.0
  0
ARC
  5
4BF
  8
0
 10
55.0
 20
70.0
 30
0.0
 40
35.5
 50
108.38582100000001
 51
111.61417899999999
  0
LINE
  5
4C0
  8
0
 10
39.069673000000002
 20
100.601874
 30
0.0
 11
39.096696999999999
 21
101.738541
 31
0.0
  0
LINE
  5
4C1
  8
0
 10
41.79742199999999
 20
101.87384400000001
 30
0.0
 11
40.909312999999997
 21
102.583777
 31
0.0
  0
ARC
  5
4C2
  8
0
 10
55.0
 20
70.0
 30
0.0
 40
35.5
 50
113.38582100000001
 51
116.61417899999999
  0
LINE
  5
4C3
  8
0
 10
36.463163999999999
 20
99.09700500000001
 30
0.0
 11
36.39101800000001
 21
100.231702
 31
0.0
  0
LINE
  5
4C4
  8
0
 10
39.069673000000002
 20
100.601874
 30
0.0
 11
38.123069000000001
 21
101.231702
 31
0.0
  0
ARC
  5
4C5
  8
0
 10
55.0
 20
70.0
 30
0.0
 40
35.5
 50
118.38582100000001
 51
121.61417899999999
  0
LINE
  5
4C6
  8
0
 10
33.997731000000002
 20
97.370689999999996
 30
0.0
 11
33.826965000000001
 21
98.494781000000003
 31
0.0
  0
LINE
  5
4C7
  8
0
 10
36.463163999999999
 20
99.09700500000001
 30
0.0
 11
35.465268999999999
 21
99.641933999999992
 31
0.0
  0
ARC
  5
4C8
  8
0
 10
55.0
 20
70.0
 30
0.0
 40
35.5
 50
123.38582100000001
 51
126.61417899999999
  0
LINE
  5
4C9
  8
0
 10
31.692138
 20
95.436068000000006
 30
0.0
 11
31.424050999999999
 21
96.540998999999999
 31
0.0
  0
LINE
  5
4CA
  8
0
 10
33.997731000000002
 20
97.370689999999996
 30
0.0
 11
32.956139
 21
97.826573999999994
 31
0.0
  0
ARC
  5
4CB
  8
0
 10
55.0
 20
70.0
 30
0.0
 40
35.5
 50
128.38582099999999
 51
131.61417900000001
  0
LINE
  5
4CC
  8
0
 10
29.563932000000001
 20
93.307862
 30
0.0
 11
29.200564
 21
94.385222999999996
 31
0.0
  0
LINE
  5
4CD
  8
0
 10
31.692138
 20
95.436068000000006
 30
0.0
 11
30.614777
 21
95.799436
 31
0.0
  0
ARC
  5
4CE
  8
0
 10
55.0
 20
70.0
 30
0.0
 40
35.5
 50
133.38582099999999
 51
136.61417900000001
  0
LINE
  5
4CF
  8
0
 10
27.62931
 20
91.002268999999998
 30
0.0
 11
27.173425999999999
 21
92.043860999999978
 31
0.0
  0
LINE
  5
4D0
  8
0
 10
29.563932000000001
 20
93.307862
 30
0.0
 11
28.459001000000001
 21
93.575948999999994
 31
0.0
  0
ARC
  5
4D1
  8
0
 10
55.0
 20
70.0
 30
0.0
 40
35.5
 50
138.38582099999999
 51
141.61417900000001
  0
LINE
  5
4D2
  8
0
 10
25.902995000000001
 20
88.536835999999994
 30
0.0
 11
25.358066000000001
 21
89.534731000000008
 31
0.0
  0
LINE
  5
4D3
  8
0
 10
27.62931
 20
91.002268999999998
 30
0.0
 11
26.505219
 21
91.173034999999999
 31
0.0
  0
ARC
  5
4D4
  8
0
 10
55.0
 20
70.0
 30
0.0
 40
35.5
 50
143.38582099999999
 51
146.61417900000001
  0
LINE
  5
4D5
  8
0
 10
24.398126000000001
 20
85.930327000000005
 30
0.0
 11
23.768298000000001
 21
86.876930999999999
 31
0.0
  0
LINE
  5
4D6
  8
0
 10
25.902995000000001
 20
88.536835999999994
 30
0.0
 11
24.768298000000001
 21
88.608981999999983
 31
0.0
  0
ARC
  5
4D7
  8
0
 10
55.0
 20
70.0
 30
0.0
 40
35.5
 50
148.38582099999999
 51
151.61417900000001
  0
LINE
  5
4D8
  8
0
 10
23.126156000000002
 20
83.202578000000003
 30
0.0
 11
22.416222999999999
 21
84.090687000000003
 31
0.0
  0
LINE
  5
4D9
  8
0
 10
24.398126000000001
 20
85.930327000000005
 30
0.0
 11
23.261458999999999
 21
85.903303000000008
 31
0.0
  0
ARC
  5
4DA
  8
0
 10
55.0
 20
70.0
 30
0.0
 40
35.5
 50
153.38582099999999
 51
156.61417900000001
  0
LINE
  5
4DB
  8
0
 10
22.096765000000001
 20
80.374350000000007
 30
0.0
 11
21.31213
 21
81.197203999999999
 31
0.0
  0
LINE
  5
4DC
  8
0
 10
23.126156000000002
 20
83.202578000000003
 30
0.0
 11
21.996169999999999
 21
83.076589999999996
 31
0.0
  0
ARC
  5
4DD
  8
0
 10
55.0
 20
70.0
 30
0.0
 40
35.5
 50
158.38582099999999
 51
161.61417900000001
  0
LINE
  5
4DE
  8
0
 10
21.317788
 20
77.467167000000003
 30
0.0
 11
20.464421000000002
 21
78.21850400000001
 31
0.0
  0
LINE
  5
4DF
  8
0
 10
22.096765000000001
 20
80.374350000000007
 30
0.0
 11
20.982060000000001
 21
80.150356000000002
 31
0.0
  0
ARC
  5
4E0
  8
0
 10
55.0
 20
70.0
 30
0.0
 40
35.5
 50
163.38582099999999
 51
166.61417900000001
  0
LINE
  5
4E1
  8
0
 10
20.795152000000002
 20
74.503153999999995
 30
0.0
 11
19.879549999999998
 21
75.177256
 31
0.0
  0
LINE
  5
4E2
  8
0
 10
21.317788
 20
77.467167000000003
 30
0.0
 11
20.226845999999998
 21
77.146872000000002
 31
0.0
  0
ARC
  5
4E3
  8
0
 10
55.0
 20
70.0
 30
0.0
 40
35.5
 50
168.38582099999999
 51
171.61417900000001
  0
LINE
  5
4E4
  8
0
 10
20.532836
 20
71.504868999999999
 30
0.0
 11
19.561966000000002
 21
72.096606000000008
 31
0.0
  0
LINE
  5
4E5
  8
0
 10
20.795152000000002
 20
74.503153999999995
 30
0.0
 11
19.736277999999999
 21
74.088995999999995
 31
0.0
  0
ARC
  5
4E6
  8
0
 10
55.0
 20
70.0
 30
0.0
 40
35.5
 50
173.38582099999999
 51
176.61417900000001
  0
LINE
  5
4E7
  8
0
 10
20.532836
 20
68.495131000000001
 30
0.0
 11
19.514087
 21
69.0
 31
0.0
  0
LINE
  5
4E8
  8
0
 10
20.532836
 20
71.504868999999999
 30
0.0
 11
19.514087
 21
71.0
 31
0.0
  0
ARC
  5
4E9
  8
0
 10
55.0
 20
70.0
 30
0.0
 40
35.5
 50
178.38582099999999
 51
181.61417900000001
  0
LINE
  5
4EA
  8
0
 10
20.795152000000002
 20
65.496845999999991
 30
0.0
 11
19.736277999999999
 21
65.911004000000005
 31
0.0
  0
LINE
  5
4EB
  8
0
 10
20.532836
 20
68.495131000000001
 30
0.0
 11
19.561966000000002
 21
67.903393999999992
 31
0.0
  0
ARC
  5
4EC
  8
0
 10
55.0
 20
70.0
 30
0.0
 40
35.5
 50
183.38582099999999
 51
186.61417900000001
  0
LINE
  5
4ED
  8
0
 10
21.317788
 20
62.532832999999989
 30
0.0
 11
20.226845999999998
 21
62.853127999999998
 31
0.0
  0
LINE
  5
4EE
  8
0
 10
20.795152000000002
 20
65.496845999999991
 30
0.0
 11
19.879549999999998
 21
64.822744
 31
0.0
  0
ARC
  5
4EF
  8
0
 10
55.0
 20
70.0
 30
0.0
 40
35.5
 50
188.38582099999991
 51
191.61417900000001
  0
LINE
  5
4F0
  8
0
 10
22.096765000000001
 20
59.62565
 30
0.0
 11
20.982060000000001
 21
59.849643999999991
 31
0.0
  0
LINE
  5
4F1
  8
0
 10
21.317788
 20
62.532832999999989
 30
0.0
 11
20.464421000000002
 21
61.781495999999997
 31
0.0
  0
ARC
  5
4F2
  8
0
 10
55.0
 20
70.0
 30
0.0
 40
35.5
 50
193.38582099999999
 51
196.61417900000001
  0
LINE
  5
4F3
  8
0
 10
23.126156000000002
 20
56.79742199999999
 30
0.0
 11
21.996169999999999
 21
56.92340999999999
 31
0.0
  0
LINE
  5
4F4
  8
0
 10
22.096765000000001
 20
59.62565
 30
0.0
 11
21.31213
 21
58.802795999999987
 31
0.0
  0
ARC
  5
4F5
  8
0
 10
55.0
 20
70.0
 30
0.0
 40
35.5
 50
198.38582099999999
 51
201.61417900000001
  0
LINE
  5
4F6
  8
0
 10
24.398126000000001
 20
54.069673000000002
 30
0.0
 11
23.261458999999999
 21
54.096696999999999
 31
0.0
  0
LINE
  5
4F7
  8
0
 10
23.126156000000002
 20
56.79742199999999
 30
0.0
 11
22.416222999999999
 21
55.909312999999997
 31
0.0
  0
ARC
  5
4F8
  8
0
 10
55.0
 20
70.0
 30
0.0
 40
35.5
 50
203.38582099999999
 51
206.61417900000001
  0
LINE
  5
4F9
  8
0
 10
25.902995000000001
 20
51.463163999999992
 30
0.0
 11
24.768298000000001
 21
51.391018000000003
 31
0.0
  0
LINE
  5
4FA
  8
0
 10
24.398126000000001
 20
54.069673000000002
 30
0.0
 11
23.768298000000001
 21
53.123068999999987
 31
0.0
  0
ARC
  5
4FB
  8
0
 10
55.0
 20
70.0
 30
0.0
 40
35.5
 50
208.38582099999999
 51
211.61417900000001
  0
LINE
  5
4FC
  8
0
 10
27.62931
 20
48.997731000000002
 30
0.0
 11
26.505219
 21
48.826965000000001
 31
0.0
  0
LINE
  5
4FD
  8
0
 10
25.902995000000001
 20
51.463163999999992
 30
0.0
 11
25.358066000000001
 21
50.465268999999992
 31
0.0
  0
ARC
  5
4FE
  8
0
 10
55.0
 20
70.0
 30
0.0
 40
35.5
 50
213.38582099999999
 51
216.61417900000001
  0
LINE
  5
4FF
  8
0
 10
29.563932000000001
 20
46.692138
 30
0.0
 11
28.459001000000001
 21
46.424050999999999
 31
0.0
  0
LINE
  5
500
  8
0
 10
27.62931
 20
48.997731000000002
 30
0.0
 11
27.173425999999999
 21
47.956139
 31
0.0
  0
ARC
  5
501
  8
0
 10
55.0
 20
70.0
 30
0.0
 40
35.5
 50
218.38582099999999
 51
221.61417900000001
  0
LINE
  5
502
  8
0
 10
31.692138
 20
44.563931999999987
 30
0.0
 11
30.614777
 21
44.200563999999993
 31
0.0
  0
LINE
  5
503
  8
0
 10
29.563932000000001
 20
46.692138
 30
0.0
 11
29.200564
 21
45.614776999999997
 31
0.0
  0
ARC
  5
504
  8
0
 10
55.0
 20
70.0
 30
0.0
 40
35.5
 50
223.38582099999999
 51
226.61417900000001
  0
LINE
  5
505
  8
0
 10
33.997731000000002
 20
42.629309999999997
 30
0.0
 11
32.956139
 21
42.173425999999999
 31
0.0
  0
LINE
  5
506
  8
0
 10
31.692138
 20
44.563931999999987
 30
0.0
 11
31.424050999999999
 21
43.459001000000001
 31
0.0
  0
ARC
  5
507
  8
0
 10
55.0
 20
70.0
 30
0.0
 40
35.5
 50
228.38582099999999
 51
231.61417900000001
  0
LINE
  5
508
  8
0
 10
36.463163999999999
 20
40.902994999999997
 30
0.0
 11
35.465268999999999
 21
40.358065999999987
 31
0.0
  0
LINE
  5
509
  8
0
 10
33.997731000000002
 20
42.629309999999997
 30
0.0
 11
33.826965000000001
 21
41.505218999999997
 31
0.0
  0
ARC
  5
50A
  8
0
 10
55.0
 20
70.0
 30
0.0
 40
35.5
 50
233.38582099999999
 51
236.61417900000001
  0
LINE
  5
50B
  8
0
 10
39.069673000000002
 20
39.398125999999998
 30
0.0
 11
38.123069000000001
 21
38.768298000000001
 31
0.0
  0
LINE
  5
50C
  8
0
 10
36.463163999999999
 20
40.902994999999997
 30
0.0
 11
36.39101800000001
 21
39.768298000000001
 31
0.0
  0
ARC
  5
50D
  8
0
 10
55.0
 20
70.0
 30
0.0
 40
35.5
 50
238.38582099999999
 51
241.61417900000001
  0
LINE
  5
50E
  8
0
 10
41.79742199999999
 20
38.126156000000002
 30
0.0
 11
40.909312999999997
 21
37.416222999999988
 31
0.0
  0
LINE
  5
50F
  8
0
 10
39.069673000000002
 20
39.398125999999998
 30
0.0
 11
39.096696999999999
 21
38.261459000000002
 31
0.0
  0
ARC
  5
510
  8
0
 10
55.0
 20
70.0
 30
0.0
 40
35.5
 50
243.38582099999999
 51
246.61417900000001
  0
LINE
  5
511
  8
0
 10
44.62565
 20
37.096764999999998
 30
0.0
 11
43.802796000000001
 21
36.312130000000003
 31
0.0
  0
LINE
  5
512
  8
0
 10
41.79742199999999
 20
38.126156000000002
 30
0.0
 11
41.92340999999999
 21
36.996169999999999
 31
0.0
  0
ARC
  5
513
  8
0
 10
55.0
 20
70.0
 30
0.0
 40
35.5
 50
248.38582099999999
 51
251.61417900000001
  0
LINE
  5
514
  8
0
 10
47.532832999999997
 20
36.317788
 30
0.0
 11
46.781495999999997
 21
35.464421000000002
 31
0.0
  0
LINE
  5
515
  8
0
 10
44.62565
 20
37.096764999999998
 30
0.0
 11
44.849643999999991
 21
35.982059999999997
 31
0.0
  0
ARC
  5
516
  8
0
 10
55.0
 20
70.0
 30
0.0
 40
35.5
 50
253.38582099999999
 51
256.61417899999998
  0
LINE
  5
517
  8
0
 10
50.496845999999998
 20
35.795152000000002
 30
0.0
 11
49.822744
 21
34.879550000000002
 31
0.0
  0
LINE
  5
518
  8
0
 10
47.532832999999997
 20
36.317788
 30
0.0
 11
47.853127999999998
 21
35.226846000000002
 31
0.0
  0
ARC
  5
519
  8
0
 10
55.0
 20
70.0
 30
0.0
 40
35.5
 50
258.38582100000002
 51
261.61417899999998
  0
LINE
  5
51A
  8
0
 10
53.495131000000008
 20
35.532836000000003
 30
0.0
 11
52.903393999999992
 21
34.561965999999998
 31
0.0
  0
LINE
  5
51B
  8
0
 10
50.496845999999998
 20
35.795152000000002
 30
0.0
 11
50.911003999999998
 21
34.736278000000013
 31
0.0
  0
ARC
  5
51C
  8
0
 10
55.0
 20
70.0
 30
0.0
 40
35.5
 50
263.38582100000002
 51
266.61417899999998
  0
LINE
  5
51D
  8
0
 10
56.504868999999992
 20
35.532836000000003
 30
0.0
 11
56.0
 21
34.514087000000004
 31
0.0
  0
LINE
  5
51E
  8
0
 10
53.495131000000008
 20
35.532836000000003
 30
0.0
 11
54.0
 21
34.514087000000004
 31
0.0
  0
ARC
  5
51F
  8
0
 10
55.0
 20
70.0
 30
0.0
 40
35.5
 50
268.38582100000002
 51
271.61417899999998
  0
LINE
  5
520
  8
0
 10
59.503154000000002
 20
35.795152000000002
 30
0.0
 11
59.088995999999987
 21
34.736278000000013
 31
0.0
  0
LINE
  5
521
  8
0
 10
56.504868999999992
 20
35.532836000000003
 30
0.0
 11
57.096606000000008
 21
34.561965999999998
 31
0.0
  0
ARC
  5
522
  8
0
 10
55.0
 20
70.0
 30
0.0
 40
35.5
 50
273.38582100000002
 51
276.61417899999998
  0
LINE
  5
523
  8
0
 10
62.467167000000003
 20
36.317788
 30
0.0
 11
62.146872000000002
 21
35.226846000000002
 31
0.0
  0
LINE
  5
524
  8
0
 10
59.503154000000002
 20
35.795152000000002
 30
0.0
 11
60.177256000000007
 21
34.879550000000002
 31
0.0
  0
ARC
  5
525
  8
0
 10
55.0
 20
70.0
 30
0.0
 40
35.5
 50
278.38582100000002
 51
281.61417899999998
  0
LINE
  5
526
  8
0
 10
65.374350000000007
 20
37.096764999999998
 30
0.0
 11
65.150356000000002
 21
35.982059999999997
 31
0.0
  0
LINE
  5
527
  8
0
 10
62.467167000000003
 20
36.317788
 30
0.0
 11
63.218504000000003
 21
35.464421000000002
 31
0.0
  0
ARC
  5
528
  8
0
 10
55.0
 20
70.0
 30
0.0
 40
35.5
 50
283.38582100000002
 51
286.61417899999998
  0
LINE
  5
529
  8
0
 10
68.202578000000003
 20
38.126156000000002
 30
0.0
 11
68.076589999999996
 21
36.996169999999999
 31
0.0
  0
LINE
  5
52A
  8
0
 10
65.374350000000007
 20
37.096764999999998
 30
0.0
 11
66.197203999999999
 21
36.312130000000003
 31
0.0
  0
ARC
  5
52B
  8
0
 10
55.0
 20
70.0
 30
0.0
 40
35.5
 50
288.38582100000002
 51
291.61417899999998
  0
LINE
  5
52C
  8
0
 10
70.930327000000005
 20
39.398125999999998
 30
0.0
 11
70.903303000000008
 21
38.261459000000002
 31
0.0
  0
LINE
  5
52D
  8
0
 10
68.202578000000003
 20
38.126156000000002
 30
0.0
 11
69.090687000000003
 21
37.416222999999988
 31
0.0
  0
ARC
  5
52E
  8
0
 10
55.0
 20
70.0
 30
0.0
 40
35.5
 50
293.38582100000002
 51
296.61417899999998
  0
LINE
  5
52F
  8
0
 10
73.536835999999994
 20
40.902994999999997
 30
0.0
 11
73.608981999999997
 21
39.768298000000001
 31
0.0
  0
LINE
  5
530
  8
0
 10
70.930327000000005
 20
39.398125999999998
 30
0.0
 11
71.876930999999999
 21
38.768298000000001
 31
0.0
  0
ARC
  5
531
  8
0
 10
55.0
 20
70.0
 30
0.0
 40
35.5
 50
298.38582100000002
 51
301.61417899999998
  0
LINE
  5
532
  8
0
 10
76.002268999999998
 20
42.629309999999997
 30
0.0
 11
76.173034999999999
 21
41.505218999999997
 31
0.0
  0
LINE
  5
533
  8
0
 10
73.536835999999994
 20
40.902994999999997
 30
0.0
 11
74.534730999999994
 21
40.358065999999987
 31
0.0
  0
ARC
  5
534
  8
0
 10
55.0
 20
70.0
 30
0.0
 40
35.5
 50
303.38582100000002
 51
306.61417899999998
  0
LINE
  5
535
  8
0
 10
78.307862
 20
44.563931999999987
 30
0.0
 11
78.575948999999994
 21
43.459001000000001
 31
0.0
  0
LINE
  5
536
  8
0
 10
76.002268999999998
 20
42.629309999999997
 30
0.0
 11
77.043860999999993
 21
42.173425999999999
 31
0.0
  0
ARC
  5
537
  8
0
 10
55.0
 20
70.0
 30
0.0
 40
35.5
 50
308.38582100000002
 51
311.61417899999998
  0
LINE
  5
538
  8
0
 10
80.436068000000006
 20
46.692138
 30
0.0
 11
80.799436
 21
45.614776999999997
 31
0.0
  0
LINE
  5
539
  8
0
 10
78.307862
 20
44.563931999999987
 30
0.0
 11
79.385222999999996
 21
44.200563999999993
 31
0.0
  0
ARC
  5
53A
  8
0
 10
55.0
 20
70.0
 30
0.0
 40
35.5
 50
313.38582100000002
 51
316.61417899999998
  0
LINE
  5
53B
  8
0
 10
82.370689999999996
 20
48.997731000000002
 30
0.0
 11
82.826573999999994
 21
47.956139
 31
0.0
  0
LINE
  5
53C
  8
0
 10
80.436068000000006
 20
46.692138
 30
0.0
 11
81.540998999999999
 21
46.424050999999999
 31
0.0
  0
ARC
  5
53D
  8
0
 10
55.0
 20
70.0
 30
0.0
 40
35.5
 50
318.38582100000002
 51
321.61417899999998
  0
LINE
  5
53E
  8
0
 10
84.09700500000001
 20
51.463163999999992
 30
0.0
 11
84.641933999999992
 21
50.465268999999992
 31
0.0
  0
LINE
  5
53F
  8
0
 10
82.370689999999996
 20
48.997731000000002
 30
0.0
 11
83.494781000000003
 21
48.826965000000001
 31
0.0
  0
ARC
  5
540
  8
0
 10
55.0
 20
70.0
 30
0.0
 40
35.5
 50
323.38582100000002
 51
326.61417899999998
  0
LINE
  5
541
  8
0
 10
85.601873999999995
 20
54.069673000000002
 30
0.0
 11
86.231701999999999
 21
53.123068999999987
 31
0.0
  0
LINE
  5
542
  8
0
 10
84.09700500000001
 20
51.463163999999992
 30
0.0
 11
85.231701999999999
 21
51.391018000000003
 31
0.0
  0
ARC
  5
543
  8
0
 10
55.0
 20
70.0
 30
0.0
 40
35.5
 50
328.38582100000002
 51
331.61417899999998
  0
LINE
  5
544
  8
0
 10
86.873843999999991
 20
56.79742199999999
 30
0.0
 11
87.583776999999998
 21
55.909312999999997
 31
0.0
  0
LINE
  5
545
  8
0
 10
85.601873999999995
 20
54.069673000000002
 30
0.0
 11
86.738540999999984
 21
54.096696999999999
 31
0.0
  0
ARC
  5
546
  8
0
 10
55.0
 20
70.0
 30
0.0
 40
35.5
 50
333.38582100000002
 51
336.61417899999998
  0
LINE
  5
547
  8
0
 10
87.903234999999995
 20
59.62565
 30
0.0
 11
88.68786999999999
 21
58.802795999999987
 31
0.0
  0
LINE
  5
548
  8
0
 10
86.873843999999991
 20
56.79742199999999
 30
0.0
 11
88.003830000000008
 21
56.92340999999999
 31
0.0
  0
ARC
  5
549
  8
0
 10
55.0
 20
70.0
 30
0.0
 40
35.5
 50
338.38582100000002
 51
341.61417899999998
  0
LINE
  5
54A
  8
0
 10
88.682211999999979
 20
62.532832999999989
 30
0.0
 11
89.535578999999984
 21
61.781495999999997
 31
0.0
  0
LINE
  5
54B
  8
0
 10
87.903234999999995
 20
59.62565
 30
0.0
 11
89.017939999999996
 21
59.849643999999991
 31
0.0
  0
ARC
  5
54C
  8
0
 10
55.0
 20
70.0
 30
0.0
 40
35.5
 50
343.38582100000002
 51
346.61417899999998
  0
LINE
  5
54D
  8
0
 10
89.204847999999998
 20
65.496845999999991
 30
0.0
 11
90.120450000000005
 21
64.822744
 31
0.0
  0
LINE
  5
54E
  8
0
 10
88.682211999999979
 20
62.532832999999989
 30
0.0
 11
89.773154000000005
 21
62.853127999999998
 31
0.0
  0
ARC
  5
54F
  8
0
 10
55.0
 20
70.0
 30
0.0
 40
35.5
 50
348.38582100000002
 51
351.61417899999998
  0
LINE
  5
550
  8
0
 10
89.467163999999997
 20
68.495131000000001
 30
0.0
 11
90.438033999999988
 21
67.903393999999992
 31
0.0
  0
LINE
  5
551
  8
0
 10
89.204847999999998
 20
65.496845999999991
 30
0.0
 11
90.263722000000001
 21
65.911004000000005
 31
0.0
  0
ARC
  5
552
  8
0
 10
55.0
 20
70.0
 30
0.0
 40
35.5
 50
353.38582100000002
 51
356.61417899999998
  0
LINE
  5
553
  8
0
 10
89.467163999999997
 20
71.504868999999999
 30
0.0
 11
90.485912999999996
 21
71.0
 31
0.0
  0
LINE
  5
554
  8
0
 10
89.467163999999997
 20
68.495131000000001
 30
0.0
 11
90.485912999999996
 21
69.0
 31
0.0
  0
ARC
  5
555
  8
0
 10
55.0
 20
70.0
 30
0.0
 40
35.5
 50
358.38582100000002
 51
1.614179
  0
LINE
  5
556
  8
0
 10
89.204847999999998
 20
74.503153999999995
 30
0.0
 11
90.263722000000001
 21
74.088995999999995
 31
0.0
  0
LINE
  5
557
  8
0
 10
89.467163999999997
 20
71.504868999999999
 30
0.0
 11
90.438033999999988
 21
72.096606000000008
 31
0.0
  0
ARC
  5
558
  8
0
 10
55.0
 20
70.0
 30
0.0
 40
35.5
 50
3.3858209999999991
 51
6.6141789999999991
  0
LINE
  5
559
  8
0
 10
88.682211999999979
 20
77.467167000000003
 30
0.0
 11
89.773154000000005
 21
77.146872000000002
 31
0.0
  0
LINE
  5
55A
  8
0
 10
89.204847999999998
 20
74.503153999999995
 30
0.0
 11
90.120450000000005
 21
75.177256
 31
0.0
  0
ARC
  5
55B
  8
0
 10
55.0
 20
70.0
 30
0.0
 40
35.5
 50
8.3858209999999982
 51
11.614179
  0
LINE
  5
55C
  8
0
 10
87.903234999999995
 20
80.374350000000007
 30
0.0
 11
89.017939999999996
 21
80.150356000000002
 31
0.0
  0
LINE
  5
55D
  8
0
 10
88.682211999999979
 20
77.467167000000003
 30
0.0
 11
89.535578999999984
 21
78.21850400000001
 31
0.0
  0
ARC
  5
55E
  8
0
 10
55.0
 20
70.0
 30
0.0
 40
35.5
 50
13.385821
 51
16.614179
  0
LINE
  5
55F
  8
0
 10
86.873843999999991
 20
83.202578000000003
 30
0.0
 11
88.003830000000008
 21
83.076589999999996
 31
0.0
  0
LINE
  5
560
  8
0
 10
87.903234999999995
 20
80.374350000000007
 30
0.0
 11
88.68786999999999
 21
81.197203999999999
 31
0.0
  0
ARC
  5
561
  8
0
 10
55.0
 20
70.0
 30
0.0
 40
35.5
 50
18.385821
 51
21.614179
  0
LINE
  5
562
  8
0
 10
85.601873999999995
 20
85.930327000000005
 30
0.0
 11
86.738540999999984
 21
85.903303000000008
 31
0.0
  0
LINE
  5
563
  8
0
 10
86.873843999999991
 20
83.202578000000003
 30
0.0
 11
87.583776999999998
 21
84.090687000000003
 31
0.0
  0
ARC
  5
564
  8
0
 10
55.0
 20
70.0
 30
0.0
 40
35.5
 50
23.385821
 51
26.614179
  0
LINE
  5
565
  8
0
 10
84.09700500000001
 20
88.536835999999994
 30
0.0
 11
85.231701999999999
 21
88.608981999999983
 31
0.0
  0
LINE
  5
566
  8
0
 10
85.601873999999995
 20
85.930327000000005
 30
0.0
 11
86.231701999999999
 21
86.876930999999999
 31
0.0
  0
ARC
  5
567
  8
0
 10
55.0
 20
70.0
 30
0.0
 40
35.5
 50
28.385821
 51
31.614179
  0
LINE
  5
568
  8
0
 10
82.370689999999996
 20
91.002268999999998
 30
0.0
 11
83.494781000000003
 21
91.173034999999999
 31
0.0
  0
LINE
  5
569
  8
0
 10
84.09700500000001
 20
88.536835999999994
 30
0.0
 11
84.641933999999992
 21
89.534731000000008
 31
0.0
  0
ARC
  5
56A
  8
0
 10
55.0
 20
70.0
 30
0.0
 40
35.5
 50
33.385821
 51
36.614179
  0
LINE
  5
56B
  8
0
 10
80.436068000000006
 20
93.307862
 30
0.0
 11
81.540998999999999
 21
93.575948999999994
 31
0.0
  0
LINE
  5
56C
  8
0
 10
82.370689999999996
 20
91.002268999999998
 30
0.0
 11
82.826573999999994
 21
92.043860999999978
 31
0.0
  0
ARC
  5
56D
  8
0
 10
55.0
 20
70.0
 30
0.0
 40
35.5
 50
38.385821
 51
41.614179
  0
LINE
  5
56E
  8
0
 10
78.307862
 20
95.436068000000006
 30
0.0
 11
79.385222999999996
 21
95.799436
 31
0.0
  0
LINE
  5
56F
  8
0
 10
80.436068000000006
 20
93.307862
 30
0.0
 11
80.799436
 21
94.385222999999996
 31
0.0
  0
ARC
  5
570
  8
0
 10
55.0
 20
70.0
 30
0.0
 40
35.5
 50
43.385820999999993
 51
46.614179
  0
LINE
  5
571
  8
0
 10
76.002268999999998
 20
97.370689999999996
 30
0.0
 11
77.043860999999993
 21
97.826573999999994
 31
0.0
  0
LINE
  5
572
  8
0
 10
78.307862
 20
95.436068000000006
 30
0.0
 11
78.575948999999994
 21
96.540998999999999
 31
0.0
  0
ARC
  5
573
  8
0
 10
55.0
 20
70.0
 30
0.0
 40
35.5
 50
48.385820999999993
 51
51.614179
  0
LINE
  5
574
  8
0
 10
73.536835999999994
 20
99.09700500000001
 30
0.0
 11
74.534730999999994
 21
99.641933999999992
 31
0.0
  0
LINE
  5
575
  8
0
 10
76.002268999999998
 20
97.370689999999996
 30
0.0
 11
76.173034999999999
 21
98.494781000000003
 31
0.0
  0
ARC
  5
576
  8
0
 10
55.0
 20
70.0
 30
0.0
 40
35.5
 50
53.385820999999993
 51
56.614179
  0
LINE
  5
577
  8
0
 10
70.930327000000005
 20
100.601874
 30
0.0
 11
71.876930999999999
 21
101.231702
 31
0.0
  0
LINE
  5
578
  8
0
 10
73.536835999999994
 20
99.09700500000001
 30
0.0
 11
73.608981999999997
 21
100.231702
 31
0.0
  0
ARC
  5
579
  8
0
 10
55.0
 20
70.0
 30
0.0
 40
35.5
 50
58.385820999999993
 51
61.614179
  0
LINE
  5
57A
  8
0
 10
68.202578000000003
 20
101.87384400000001
 30
0.0
 11
69.090687000000003
 21
102.583777
 31
0.0
  0
LINE
  5
57B
  8
0
 10
70.930327000000005
 20
100.601874
 30
0.0
 11
70.903303000000008
 21
101.738541
 31
0.0
  0
ARC
  5
57C
  8
0
 10
55.0
 20
70.0
 30
0.0
 40
35.5
 50
63.385820999999993
 51
66.614178999999993
  0
LINE
  5
57D
  8
0
 10
65.374350000000007
 20
102.903235
 30
0.0
 11
66.197203999999999
 21
103.68787
 31
0.0
  0
LINE
  5
57E
  8
0
 10
68.202578000000003
 20
101.87384400000001
 30
0.0
 11
68.076589999999996
 21
103.00382999999999
 31
0.0
  0
ARC
  5
57F
  8
0
 10
55.0
 20
70.0
 30
0.0
 40
35.5
 50
68.385820999999993
 51
71.614178999999993
  0
LINE
  5
580
  8
0
 10
62.467167000000003
 20
103.68221200000001
 30
0.0
 11
63.218504000000003
 21
104.535579
 31
0.0
  0
LINE
  5
581
  8
0
 10
65.374350000000007
 20
102.903235
 30
0.0
 11
65.150356000000002
 21
104.01794
 31
0.0
  0
ARC
  5
582
  8
0
 10
55.0
 20
70.0
 30
0.0
 40
35.5
 50
73.385820999999993
 51
76.614178999999993
  0
LINE
  5
583
  8
0
 10
59.503154000000002
 20
104.204848
 30
0.0
 11
60.177256000000007
 21
105.12045000000001
 31
0.0
  0
LINE
  5
584
  8
0
 10
62.467167000000003
 20
103.68221200000001
 30
0.0
 11
62.146872000000002
 21
104.77315400000001
 31
0.0
  0
ARC
  5
585
  8
0
 10
55.0
 20
70.0
 30
0.0
 40
35.5
 50
78.385820999999993
 51
81.614179000000007
  0
LINE
  5
586
  8
0
 10
56.504868999999992
 20
104.467164
 30
0.0
 11
57.096606000000008
 21
105.438034
 31
0.0
  0
LINE
  5
587
  8
0
 10
59.503154000000002
 20
104.204848
 30
0.0
 11
59.088995999999987
 21
105.263722
 31
0.0
  0
ARC
  5
588
  8
0
 10
55.0
 20
70.0
 30
0.0
 40
35.5
 50
83.385820999999993
 51
86.614179000000007
  0
LINE
  5
589
  8
3
 10
44.424847
 20
93.752181999999991
 30
0.0
 11
42.797901000000003
 21
97.406363999999996
 31
0.0
  0
LINE
  5
58A
  8
0
 10
55.0
 20
92.5
 30
0.0
 11
55.0
 21
100.0
 31
0.0
  0
LINE
  5
58B
  8
0
 10
41.774832000000004
 20
88.202881999999974
 30
0.0
 11
37.366441999999999
 21
94.270510000000002
 31
0.0
  0
LINE
  5
58C
  8
0
 10
33.601228000000013
 20
76.952881999999988
 30
0.0
 11
26.468305000000001
 21
79.270510000000002
 31
0.0
  0
LINE
  5
58D
  8
0
 10
33.601228000000013
 20
63.047117999999998
 30
0.0
 11
26.468305000000001
 21
60.729490000000013
 31
0.0
  0
LINE
  5
58E
  8
0
 10
41.774832000000004
 20
51.79711799999999
 30
0.0
 11
37.366441999999999
 21
45.729489999999998
 31
0.0
  0
LINE
  5
58F
  8
0
 10
55.0
 20
47.5
 30
0.0
 11
55.0
 21
40.0
 31
0.0
  0
LINE
  5
590
  8
0
 10
68.225168000000011
 20
51.79711799999999
 30
0.0
 11
72.633557999999994
 21
45.729489999999998
 31
0.0
  0
LINE
  5
591
  8
0
 10
76.398771999999994
 20
63.047117999999998
 30
0.0
 11
83.531694999999985
 21
60.729490000000013
 31
0.0
  0
LINE
  5
592
  8
0
 10
76.398771999999994
 20
76.952881999999988
 30
0.0
 11
83.531694999999985
 21
79.270510000000002
 31
0.0
  0
LINE
  5
593
  8
0
 10
68.225168000000011
 20
88.202881999999974
 30
0.0
 11
72.633557999999994
 21
94.270510000000002
 31
0.0
  0
TEXT
  5
594
  8
0
 10
53.095238095238102
 20
86.75
 30
0.0
 40
4.0
  1
0
 72
     4
 11
55.0
 21
88.75
 31
0.0
  0
TEXT
  5
595
  8
0
 10
42.07426509523809
 20
83.169068999999993
 30
0.0
 40
4.0
  1
3
 72
     4
 11
43.979027000000002
 21
85.169068999999993
 31
0.0
  0
TEXT
  5
596
  8
0
 10
35.16769
 20
73.794068999999993
 30
0.0
 40
4.0
  1
6
 72
     4
 11
37.16769
 21
75.794068999999993
 31
0.0
  0
TEXT
  5
597
  8
0
 10
35.35816619047619
 20
62.205931000000007
 30
0.0
 40
4.0
  1
9
 72
     4
 11
37.16769
 21
64.205931000000007
 31
0.0
  0
TEXT
  5
598
  8
0
 10
40.907598428571433
 20
52.830931000000007
 30
0.0
 40
4.0
  1
12
 41
0.75
  7
07500
 72
     4
 11
43.979027000000002
 21
54.830931000000007
 31
0.0
  0
TEXT
  5
599
  8
0
 10
62.949544428571429
 20
52.830931000000007
 30
0.0
 40
4.0
  1
18
 41
0.75
  7
07500
 72
     4
 11
66.020972999999998
 21
54.830931000000007
 31
0.0
  0
TEXT
  5
59A
  8
0
 10
70.403738571428562
 20
62.205931000000007
 30
0.0
 40
4.0
  1
21
 41
0.75
  7
07500
 72
     4
 11
72.832309999999993
 21
64.205931000000007
 31
0.0
  0
TEXT
  5
59B
  8
0
 10
69.903738571428562
 20
73.794068999999993
 30
0.0
 40
4.0
  1
24
 41
0.75
  7
07500
 72
     4
 11
72.832309999999993
 21
75.794068999999993
 31
0.0
  0
TEXT
  5
59C
  8
0
 10
63.163830142857137
 20
83.169068999999993
 30
0.0
 40
4.0
  1
27
 41
0.75
  7
07500
 72
     4
 11
66.020972999999998
 21
85.169068999999993
 31
0.0
  0
TEXT
  5
59D
  8
0
 10
51.928571428571431
 20
49.25
 30
0.0
 40
4.0
  1
15
 41
0.75
  7
07500
 72
     4
 11
55.0
 21
51.25
 31
0.0
  0
CIRCLE
  5
59E
  8
0
 10
76.5
 20
58.0
 30
0.0
 40
1.5
  0
CIRCLE
  5
59F
  8
0
 10
33.5
 20
58.0
 30
0.0
 40
1.5
  0
LINE
  5
5A0
  8
0
 10
33.75
 20
59.5
 30
0.0
 11
33.75
 21
56.520980000000002
 31
0.0
  0
LINE
  5
5A1
  8
0
 10
33.25
 20
59.5
 30
0.0
 11
33.25
 21
56.520980000000002
 31
0.0
  0
LINE
  5
5A2
  8
0
 10
76.25
 20
59.5
 30
0.0
 11
76.25
 21
56.520980000000002
 31
0.0
  0
LINE
  5
5A3
  8
0
 10
76.75
 20
59.5
 30
0.0
 11
76.75
 21
56.520980000000002
 31
0.0
  0
CIRCLE
  5
5A4
  8
0
 10
55.0
 20
70.0
 30
0.0
 40
1.0
  0
POLYLINE
  5
5A5
  8
0
 66
     1
 10
0.0
 20
0.0
 30
0.0
 70
     1
 40
1.0
 41
1.0
  0
VERTEX
  5
5A6
  8
0
 10
55.5
 20
70.0
 30
0.0
 42
-1.0
  0
VERTEX
  5
5A7
  8
0
 10
54.5
 20
70.0
 30
0.0
 42
-1.0
  0
SEQEND
  5
5A8
  8
0
  0
LINE
  5
5A9
  8
3
 10
59.678013
 20
92.008320999999995
 30
0.0
 11
61.237351000000011
 21
99.344428000000008
 31
0.0
  0
LINE
  5
5AA
  8
3
 10
64.151573999999997
 20
90.554772999999983
 30
0.0
 11
67.202099000000004
 21
97.406363999999996
 31
0.0
  0
LINE
  5
5AB
  8
3
 10
50.321987
 20
92.008320999999995
 30
0.0
 11
48.762648999999989
 21
99.344428000000008
 31
0.0
  0
LINE
  5
5AC
  8
3
 10
35.514428000000002
 20
81.25
 30
0.0
 11
29.019238000000001
 21
85.0
 31
0.0
  0
LINE
  5
5AD
  8
3
 10
38.279240999999999
 20
85.055439000000007
 30
0.0
 11
32.705655
 21
90.073918000000006
 31
0.0
  0
LINE
  5
5AE
  8
3
 10
32.623257000000002
 20
67.648110000000003
 30
0.0
 11
25.164342999999999
 21
66.864145999999991
 31
0.0
  0
LINE
  5
5AF
  8
3
 10
32.623257000000002
 20
72.351889999999997
 30
0.0
 11
25.164342999999999
 21
73.135853999999995
 31
0.0
  0
LINE
  5
5B0
  8
3
 10
38.279240999999999
 20
54.944561
 30
0.0
 11
32.705655
 21
49.926082000000001
 31
0.0
  0
LINE
  5
5B1
  8
3
 10
35.514428000000002
 20
58.75
 30
0.0
 11
34.94041
 21
58.418590999999999
 31
0.0
  0
LINE
  5
5B2
  8
3
 10
50.321987
 20
47.991678999999991
 30
0.0
 11
48.762648999999989
 21
40.655571999999992
 31
0.0
  0
LINE
  5
5B3
  8
3
 10
45.848426000000003
 20
49.445227000000003
 30
0.0
 11
42.797901000000003
 21
42.593635999999989
 31
0.0
  0
LINE
  5
5B4
  8
3
 10
64.151573999999997
 20
49.445227000000003
 30
0.0
 11
67.202099000000004
 21
42.593635999999989
 31
0.0
  0
LINE
  5
5B5
  8
3
 10
59.678013
 20
47.991678999999991
 30
0.0
 11
61.237351000000011
 21
40.655571999999992
 31
0.0
  0
LINE
  5
5B6
  8
3
 10
74.485571999999991
 20
58.75
 30
0.0
 11
75.05959
 21
58.418590999999999
 31
0.0
  0
LINE
  5
5B7
  8
3
 10
71.720759000000001
 20
54.944561
 30
0.0
 11
77.294344999999993
 21
49.926082000000001
 31
0.0
  0
LINE
  5
5B8
  8
3
 10
77.376743000000005
 20
72.351889999999997
 30
0.0
 11
84.835656999999983
 21
73.135853999999995
 31
0.0
  0
LINE
  5
5B9
  8
3
 10
77.376743000000005
 20
67.648110000000003
 30
0.0
 11
84.835656999999983
 21
66.864145999999991
 31
0.0
  0
LINE
  5
5BA
  8
3
 10
71.720759000000001
 20
85.055439000000007
 30
0.0
 11
77.294344999999993
 21
90.073918000000006
 31
0.0
  0
LINE
  5
5BB
  8
3
 10
74.485571999999991
 20
81.25
 30
0.0
 11
80.980761999999984
 21
85.0
 31
0.0
  0
LINE
  5
5BC
  8
3
 10
32.417285
 20
56.961863000000001
 30
0.0
 11
29.019238000000001
 21
55.0
 31
0.0
  0
LINE
  5
5BD
  8
3
 10
77.582715000000007
 20
56.961863000000001
 30
0.0
 11
80.980761999999984
 21
55.0
 31
0.0
  0
TEXT
  5
5BE
  8
0
 10
51.912500000000001
 20
57.5
 30
0.0
 40
1.5
  1
CLAYTON
 41
0.65
  7
06500
 72
     1
 11
55.0
 21
57.5
 31
0.0
  0
LINE
  5
5BF
  8
0
 10
52.948718000000007
 20
62.935896999999997
 30
0.0
 11
53.687179
 21
62.935896999999997
 31
0.0
  0
LINE
  5
5C0
  8
0
 10
59.0
 20
60.064103000000003
 30
0.0
 11
58.179487000000002
 21
60.064103000000003
 31
0.0
  0
LINE
  5
5C1
  8
0
 10
57.871794999999999
 20
62.320512999999998
 30
0.0
 11
57.379486999999997
 21
62.320512999999998
 31
0.0
  0
ARC
  5
5C2
  8
0
 10
52.128205000000001
 20
61.192307999999997
 30
0.0
 40
1.128204999999999
 50
90.0
 51
270.0
  0
LINE
  5
5C3
  8
0
 10
52.866667000000007
 20
61.582050999999993
 30
0.0
 11
52.866667000000007
 21
62.320512999999998
 31
0.0
  0
ARC
  5
5C4
  8
0
 10
52.128205000000001
 20
61.192307999999997
 30
0.0
 40
0.3897439999999999
 50
90.0
 51
140.83328900000001
  0
LINE
  5
5C5
  8
0
 10
52.784615000000002
 20
60.946154000000007
 30
0.0
 11
52.784615000000002
 21
61.438462000000001
 31
0.0
  0
LINE
  5
5C6
  8
0
 10
51.826031999999991
 20
61.438462000000001
 30
0.0
 11
52.784615000000002
 21
61.438462000000001
 31
0.0
  0
LINE
  5
5C7
  8
0
 10
51.826031999999991
 20
60.946154000000007
 30
0.0
 11
52.784615000000002
 21
60.946154000000007
 31
0.0
  0
LINE
  5
5C8
  8
0
 10
52.128205000000001
 20
61.582050999999993
 30
0.0
 11
52.866667000000007
 21
61.582050999999993
 31
0.0
  0
LINE
  5
5C9
  8
0
 10
52.128205000000001
 20
60.802563999999997
 30
0.0
 11
52.948718000000007
 21
60.802563999999997
 31
0.0
  0
ARC
  5
5CA
  8
0
 10
52.128205000000001
 20
61.192307999999997
 30
0.0
 40
0.3897439999999999
 50
219.16671099999999
 51
270.0
  0
LINE
  5
5CB
  8
0
 10
52.579487
 20
60.064103000000003
 30
0.0
 11
52.128205000000001
 21
60.064103000000003
 31
0.0
  0
LINE
  5
5CC
  8
0
 10
52.948718000000007
 20
61.192307999999997
 30
0.0
 11
52.948718000000007
 21
62.935896999999997
 31
0.0
  0
LINE
  5
5CD
  8
0
 10
53.687179
 20
61.192307999999997
 30
0.0
 11
53.687179
 21
62.935896999999997
 31
0.0
  0
ARC
  5
5CE
  8
0
 10
54.998481999999989
 20
61.113413000000001
 30
0.0
 40
2.051282
 50
177.79580000000001
 51
210.766392
  0
ARC
  5
5CF
  8
0
 10
55.120794999999987
 20
61.111395000000002
 30
0.0
 40
1.4358969999999991
 50
176.76967999999999
 51
226.83313899999999
  0
LINE
  5
5D0
  8
0
 10
52.866667000000007
 20
62.320512999999998
 30
0.0
 11
52.128205000000001
 21
62.320512999999998
 31
0.0
  0
LINE
  5
5D1
  8
0
 10
55.635897
 20
62.320512999999998
 30
0.0
 11
54.897435999999999
 21
62.320512999999998
 31
0.0
  0
LINE
  5
5D2
  8
0
 10
55.266666999999998
 20
60.064103000000003
 30
0.0
 11
54.897435999999999
 21
60.064103000000003
 31
0.0
  0
ARC
  5
5D3
  8
0
 10
54.897435999999999
 20
61.192307999999997
 30
0.0
 40
0.3897439999999999
 50
219.16671099999999
 51
270.0
  0
LINE
  5
5D4
  8
0
 10
54.897435999999999
 20
60.802563999999997
 30
0.0
 11
55.984614999999998
 21
60.802563999999997
 31
0.0
  0
LINE
  5
5D5
  8
0
 10
54.897435999999999
 20
61.582050999999993
 30
0.0
 11
55.635897
 21
61.582050999999993
 31
0.0
  0
LINE
  5
5D6
  8
0
 10
54.595263000000003
 20
60.946154000000007
 30
0.0
 11
55.553846
 21
60.946154000000007
 31
0.0
  0
LINE
  5
5D7
  8
0
 10
54.595263000000003
 20
61.438462000000001
 30
0.0
 11
55.553846
 21
61.438462000000001
 31
0.0
  0
LINE
  5
5D8
  8
0
 10
55.553846
 20
60.946154000000007
 30
0.0
 11
55.553846
 21
61.438462000000001
 31
0.0
  0
ARC
  5
5D9
  8
0
 10
54.897435999999999
 20
61.192307999999997
 30
0.0
 40
0.3897439999999999
 50
90.0
 51
140.83328900000001
  0
LINE
  5
5DA
  8
0
 10
55.635897
 20
61.582050999999993
 30
0.0
 11
55.635897
 21
62.320512999999998
 31
0.0
  0
ARC
  5
5DB
  8
0
 10
54.897435999999999
 20
61.192307999999997
 30
0.0
 40
1.128204999999999
 50
90.0
 51
270.0
  0
LINE
  5
5DC
  8
0
 10
56.887179000000003
 20
61.582050999999993
 30
0.0
 11
56.887179000000003
 21
62.320512999999998
 31
0.0
  0
LINE
  5
5DD
  8
0
 10
56.456409999999998
 20
61.582050999999993
 30
0.0
 11
56.887179000000003
 21
61.582050999999993
 31
0.0
  0
ARC
  5
5DE
  8
0
 10
56.456409999999998
 20
61.582050999999993
 30
0.0
 40
0.738462
 50
90.0
 51
234.90036799999999
  0
ARC
  5
5DF
  8
0
 10
55.984614999999998
 20
60.802563999999997
 30
0.0
 40
0.738462
 50
270.0
 51
54.900368000000007
  0
LINE
  5
5E0
  8
0
 10
56.374358999999991
 20
61.473868999999993
 30
0.0
 11
56.374358999999991
 21
61.5
 31
0.0
  0
ARC
  5
5E1
  8
0
 10
56.456409999999998
 20
61.5
 30
0.0
 40
0.082051
 50
90.0
 51
180.0
  0
ARC
  5
5E2
  8
0
 10
56.456409999999998
 20
61.473868999999993
 30
0.0
 40
0.082051
 50
180.0
 51
234.90036799999999
  0
ARC
  5
5E3
  8
0
 10
55.984614999999998
 20
60.884615000000011
 30
0.0
 40
0.082051
 50
270.0
 51
0.0
  0
ARC
  5
5E4
  8
0
 10
55.984614999999998
 20
60.910745999999989
 30
0.0
 40
0.082051
 50
0.0
 51
54.900368000000007
  0
LINE
  5
5E5
  8
0
 10
53.235896999999987
 20
60.064103000000003
 30
0.0
 11
54.138461999999997
 21
60.064103000000003
 31
0.0
  0
LINE
  5
5E6
  8
0
 10
55.635897
 20
60.802563999999997
 30
0.0
 11
55.635897
 21
60.064103000000003
 31
0.0
  0
ARC
  5
5E7
  8
0
 10
56.373787
 20
60.443733000000002
 30
0.0
 40
0.8205129999999998
 50
154.06662
 51
177.860893
  0
ARC
  5
5E8
  8
0
 10
53.686607999999993
 20
60.443733000000002
 30
0.0
 40
0.8205129999999998
 50
154.06662
 51
177.860893
  0
LINE
  5
5E9
  8
0
 10
56.887179000000003
 20
61.582050999999993
 30
0.0
 11
57.830768999999997
 21
61.582050999999993
 31
0.0
  0
LINE
  5
5EA
  8
0
 10
58.876922999999998
 20
61.397435999999999
 30
0.0
 11
58.876922999999998
 21
60.392307999999993
 31
0.0
  0
ARC
  5
5EB
  8
0
 10
57.883381999999997
 20
61.324354999999997
 30
0.0
 40
0.996225
 50
4.2068469999999989
 51
90.666449999999983
  0
ARC
  5
5EC
  8
0
 10
56.149290000000001
 20
61.940882999999992
 30
0.0
 40
0.8205129999999998
 50
334.06662
 51
357.86089300000009
  0
ARC
  5
5ED
  8
0
 10
57.379486999999997
 20
61.910255999999997
 30
0.0
 40
0.4102560000000001
 50
90.0
 51
180.0
  0
LINE
  5
5EE
  8
0
 10
56.887179000000003
 20
62.320512999999998
 30
0.0
 11
56.456409999999998
 21
62.320512999999998
 31
0.0
  0
ARC
  5
5EF
  8
0
 10
59.285780000000003
 20
60.358449999999998
 30
0.0
 40
0.4102560000000001
 50
175.26603700000001
 51
225.84605300000001
  0
ARC
  5
5F0
  8
0
 10
57.646154000000003
 20
60.905127999999998
 30
0.0
 40
0.8410260000000001
 50
140.64330100000001
 51
303.57748700000002
  0
LINE
  5
5F1
  8
0
 10
56.995862000000002
 20
61.438462000000001
 30
0.0
 11
58.142536999999997
 21
61.438462000000001
 31
0.0
  0
LINE
  5
5F2
  8
0
 10
57.632950999999998
 20
60.946154000000007
 30
0.0
 11
58.173400999999998
 21
60.946154000000007
 31
0.0
  0
LINE
  5
5F3
  8
0
 10
55.984614999999998
 20
60.064103000000003
 30
0.0
 11
55.635897
 21
60.064103000000003
 31
0.0
  0
LINE
  5
5F4
  8
0
 10
56.066667000000002
 20
60.910745999999989
 30
0.0
 11
56.066667000000002
 21
60.884615000000011
 31
0.0
  0
ARC
  5
5F5
  8
0
 10
58.507657000000002
 20
60.310304000000002
 30
0.0
 40
0.4102560000000001
 50
194.9543699999999
 51
216.878174
  0
ARC
  5
5F6
  8
0
 10
57.830768999999997
 20
61.171794999999989
 30
0.0
 40
0.4102560000000001
 50
235.43967799999999
 51
326.63298700000001
  0
ARC
  5
5F7
  8
0
 10
57.830768999999997
 20
61.171794999999989
 30
0.0
 40
0.4102560000000001
 50
40.541601999999997
 51
90.0
  0
ARC
  5
5F8
  8
0
 10
57.632950999999998
 20
60.884615000000011
 30
0.0
 40
0.061538
 50
90.0
 51
235.43967799999999
  0
LINE
  5
5F9
  8
0
 10
52.866667000000007
 20
60.474358999999993
 30
0.0
 11
52.866667000000007
 21
60.351281999999991
 31
0.0
  0
ARC
  5
5FA
  8
0
 10
52.579487
 20
60.351281999999991
 30
0.0
 40
0.287179
 50
270.0
 51
0.0
  0
LINE
  5
5FB
  8
0
 10
55.553846
 20
60.474358999999993
 30
0.0
 11
55.553846
 21
60.351281999999991
 31
0.0
  0
ARC
  5
5FC
  8
0
 10
55.266666999999998
 20
60.351281999999991
 30
0.0
 40
0.287179
 50
270.0
 51
0.0
  0
CIRCLE
  5
5FD
  8
0
 10
55.0
 20
70.0
 30
0.0
 40
30.0
  0
LINE
  5
5FE
  8
0
 10
58.802956000000009
 20
66.876784999999998
 30
0.0
 11
59.128119999999988
 21
66.812740000000005
 31
0.0
  0
LINE
  5
5FF
  8
0
 10
59.182781000000013
 20
67.413363000000004
 30
0.0
 11
59.635663000000001
 21
72.389692999999994
 31
0.0
  0
LINE
  5
600
  8
0
 10
51.706139
 20
72.286931999999993
 30
0.0
 11
32.592601000000002
 21
72.039232999999996
 31
0.0
  0
LINE
  5
601
  8
0
 10
53.489746999999987
 20
67.028856000000005
 30
0.0
 11
58.218546999999987
 21
69.134253000000001
 31
0.0
  0
LINE
  5
602
  8
0
 10
53.425228000000011
 20
67.219056999999992
 30
0.0
 11
58.120370999999999
 21
69.30946999999999
 31
0.0
  0
LINE
  5
603
  8
0
 10
52.199370000000002
 20
70.832887999999997
 30
0.0
 11
56.255031000000002
 21
72.638584999999992
 31
0.0
  0
LINE
  5
604
  8
0
 10
52.134850999999991
 20
71.023089999999996
 30
0.0
 11
56.156855000000007
 21
72.813800999999984
 31
0.0
  0
LINE
  5
605
  8
0
 10
59.128119999999988
 20
66.812740000000005
 30
0.0
 11
59.147927000000003
 21
67.030376000000004
 31
0.0
  0
LINE
  5
606
  8
0
 10
32.592601000000002
 20
72.039232999999996
 30
0.0
 11
53.164622000000001
 21
67.987324000000001
 31
0.0
  0
LINE
  5
607
  8
0
 10
59.635663000000001
 20
72.389692999999994
 30
0.0
 11
56.417853000000001
 21
72.347992000000005
 31
0.0
  0
LINE
  5
608
  8
0
 10
54.231714000000011
 20
64.841537000000002
 30
0.0
 11
59.347569
 21
67.119263000000004
 31
0.0
  0
POLYLINE
  5
609
  8
0
 66
     1
 10
0.0
 20
0.0
 30
0.0
 70
     1
 40
1.0
 41
1.0
  0
VERTEX
  5
60A
  8
0
 10
55.5
 20
70.0
 30
0.0
 42
-1.0
  0
VERTEX
  5
60B
  8
0
 10
54.5
 20
70.0
 30
0.0
 42
-1.0
  0
SEQEND
  5
60C
  8
0
  0
CIRCLE
  5
60D
  8
0
 10
55.0
 20
70.0
 30
0.0
 40
1.0
  0
LINE
  5
60E
  8
0
 10
44.424847
 20
93.752181999999991
 30
0.0
 11
54.231714000000011
 21
64.841537000000002
 31
0.0
  0
LINE
  5
60F
  8
0
 10
59.347569
 20
67.119263000000004
 30
0.0
 11
44.424847
 21
93.752181999999991
 31
0.0
  0
SOLID
  5
610
  8
0
 10
59.635663000000001
 20
72.389692999999994
 30
0.0
 11
59.182781000000013
 21
67.413363000000004
 31
0.0
 12
56.417853000000001
 22
72.347992000000005
 32
0.0
 13
56.417853000000001
 23
72.347992000000005
 33
0.0
  0
SOLID
  5
611
  8
0
 10
59.147927000000003
 20
67.030376000000004
 30
0.0
 11
59.128119999999988
 21
66.812740000000005
 31
0.0
 12
58.802956000000009
 22
66.876784999999998
 32
0.0
 13
58.802956000000009
 23
66.876784999999998
 33
0.0
  0
SOLID
  5
612
  8
0
 10
51.706139
 20
72.286931999999993
 30
0.0
 11
53.164622000000001
 21
67.987324000000001
 31
0.0
 12
32.592601000000002
 22
72.039232999999996
 32
0.0
 13
32.592601000000002
 23
72.039232999999996
 33
0.0
  0
TEXT
  5
74E
  8
0
 62
     3
 10
0.0
 20
0.0
 30
0.0
 40
10.0
  1
DGK70L-1/30
  7
STANDARD1
  0
ENDSEC
  0
EOF
