  0
SECTION
  2
HEADER
  9
$ACADVER
  1
AC1009
  9
$INSBASE
 10
0.0
 20
0.0
 30
0.0
  9
$EXTMIN
 10
0.0
 20
-2.960436562073669
 30
0.0
  9
$EXTMAX
 10
157.5
 20
98.0
 30
0.0
  9
$LIMMIN
 10
0.0
 20
0.0
  9
$LIMMAX
 10
187.5
 20
135.0
  9
$ORTHOMODE
 70
     1
  9
$REGENMODE
 70
     1
  9
$FILLMODE
 70
     1
  9
$QTEXTMODE
 70
     0
  9
$MIRRTEXT
 70
     0
  9
$DRAGMODE
 70
     2
  9
$LTSCALE
 40
5.0
  9
$OSMODE
 70
    37
  9
$ATTMODE
 70
     1
  9
$TEXTSIZE
 40
1.0
  9
$TRACEWID
 40
0.05
  9
$TEXTSTYLE
  7
06500
  9
$CLAYER
  8
0
  9
$CELTYPE
  6
BYLAYER
  9
$CECOLOR
 62
   256
  9
$DIMSCALE
 40
0.5
  9
$DIMASZ
 40
3.0
  9
$DIMEXO
 40
2.0
  9
$DIMDLI
 40
0.38
  9
$DIMRND
 40
0.0
  9
$DIMDLE
 40
0.0
  9
$DIMEXE
 40
2.0
  9
$DIMTP
 40
0.0
  9
$DIMTM
 40
0.0
  9
$DIMTXT
 40
3.2000000000000002
  9
$DIMCEN
 40
0.0
  9
$DIMTSZ
 40
0.0
  9
$DIMTOL
 70
     0
  9
$DIMLIM
 70
     0
  9
$DIMTIH
 70
     0
  9
$DIMTOH
 70
     0
  9
$DIMSE1
 70
     0
  9
$DIMSE2
 70
     0
  9
$DIMTAD
 70
     1
  9
$DIMZIN
 70
     0
  9
$DIMBLK
  1

  9
$DIMASO
 70
     0
  9
$DIMSHO
 70
     0
  9
$DIMPOST
  1

  9
$DIMAPOST
  1

  9
$DIMALT
 70
     0
  9
$DIMALTD
 70
     2
  9
$DIMALTF
 40
25.399999999999999
  9
$DIMLFAC
 40
1.0
  9
$DIMTOFL
 70
     0
  9
$DIMTVP
 40
1.6000000000000001
  9
$DIMTIX
 70
     1
  9
$DIMSOXD
 70
     0
  9
$DIMSAH
 70
     0
  9
$DIMBLK1
  1

  9
$DIMBLK2
  1

  9
$DIMSTYLE
  2
STANDARD
  9
$DIMCLRD
 70
     0
  9
$DIMCLRE
 70
     0
  9
$DIMCLRT
 70
     0
  9
$DIMTFAC
 40
1.0
  9
$DIMGAP
 40
0.09
  9
$LUNITS
 70
     2
  9
$LUPREC
 70
     1
  9
$SKETCHINC
 40
0.1
  9
$FILLETRAD
 40
0.0
  9
$AUNITS
 70
     0
  9
$AUPREC
 70
     0
  9
$MENU
  1
E:\r13\win\SUPPORT\ACAD
  9
$ELEVATION
 40
0.0
  9
$PELEVATION
 40
0.0
  9
$THICKNESS
 40
0.0
  9
$LIMCHECK
 70
     0
  9
$BLIPMODE
 70
     0
  9
$CHAMFERA
 40
0.0
  9
$CHAMFERB
 40
0.0
  9
$SKPOLY
 70
     0
  9
$TDCREATE
 40
2449839.792557871
  9
$TDUPDATE
 40
2457900.60965632
  9
$TDINDWG
 40
0.0219507292
  9
$TDUSRTIMER
 40
0.0219507292
  9
$USRTIMER
 70
     1
  9
$ANGBASE
 50
0.0
  9
$ANGDIR
 70
     0
  9
$PDMODE
 70
     0
  9
$PDSIZE
 40
0.0
  9
$PLINEWID
 40
0.0
  9
$COORDS
 70
     1
  9
$SPLFRAME
 70
     0
  9
$SPLINETYPE
 70
     6
  9
$SPLINESEGS
 70
     8
  9
$ATTDIA
 70
     0
  9
$ATTREQ
 70
     1
  9
$HANDLING
 70
     1
  9
$HANDSEED
  5
920
  9
$SURFTAB1
 70
     6
  9
$SURFTAB2
 70
     6
  9
$SURFTYPE
 70
     6
  9
$SURFU
 70
     6
  9
$SURFV
 70
     6
  9
$UCSNAME
  2

  9
$UCSORG
 10
0.0
 20
0.0
 30
0.0
  9
$UCSXDIR
 10
1.0
 20
0.0
 30
0.0
  9
$UCSYDIR
 10
0.0
 20
1.0
 30
0.0
  9
$PUCSNAME
  2

  9
$PUCSORG
 10
0.0
 20
0.0
 30
0.0
  9
$PUCSXDIR
 10
1.0
 20
0.0
 30
0.0
  9
$PUCSYDIR
 10
0.0
 20
1.0
 30
0.0
  9
$USERI1
 70
     0
  9
$USERI2
 70
     1
  9
$USERI3
 70
     0
  9
$USERI4
 70
     0
  9
$USERI5
 70
     0
  9
$USERR1
 40
0.0
  9
$USERR2
 40
0.0
  9
$USERR3
 40
0.0
  9
$USERR4
 40
0.0
  9
$USERR5
 40
0.0
  9
$WORLDVIEW
 70
     1
  9
$SHADEDGE
 70
     3
  9
$SHADEDIF
 70
    70
  9
$TILEMODE
 70
     1
  9
$MAXACTVP
 70
    16
  9
$PLIMCHECK
 70
     0
  9
$PEXTMIN
 10
1.0000000000000000E+020
 20
1.0000000000000000E+020
 30
1.0000000000000000E+020
  9
$PEXTMAX
 10
-1.0000000000000000E+020
 20
-1.0000000000000000E+020
 30
-1.0000000000000000E+020
  9
$PLIMMIN
 10
0.0
 20
0.0
  9
$PLIMMAX
 10
12.0
 20
9.0
  9
$UNITMODE
 70
     0
  9
$VISRETAIN
 70
     0
  9
$PLINEGEN
 70
     0
  9
$PSLTSCALE
 70
     0
  0
ENDSEC
  0
SECTION
  2
TABLES
  0
TABLE
  2
VPORT
 70
     1
  0
VPORT
  2
*ACTIVE
 70
     0
 10
0.0
 20
0.0
 11
1.0
 21
1.0
 12
136.2179487179487
 22
75.0
 13
0.0
 23
0.0
 14
5.0
 24
5.0
 15
5.0
 25
5.0
 16
0.0
 26
0.0
 36
1.0
 17
0.0
 27
0.0
 37
0.0
 40
150.0
 41
1.816239316239316
 42
50.0
 43
0.0
 44
0.0
 50
0.0
 51
0.0
 71
     0
 72
   100
 73
     1
 74
     0
 75
     0
 76
     0
 77
     0
 78
     2
  0
ENDTAB
  0
TABLE
  2
LTYPE
 70
     4
  0
LTYPE
  2
CONTINUOUS
 70
     0
  3
Solid Line
 72
    65
 73
     0
 40
0.0
  0
LTYPE
  2
CENTER
 70
     0
  3
____ _ ____ _ ____ _ ____ _ ____ _ ____ _ ____
 72
    65
 73
     4
 40
2.0
 49
1.25
 49
-0.25
 49
0.25
 49
-0.25
  0
LTYPE
  2
HIDDEN
 70
     0
  3
_ _ _ _ _ _ _ _ _ _ _ _ _ _ _ _ _ _ _ _ _ _ _
 72
    65
 73
     2
 40
0.375
 49
0.25
 49
-0.125
  0
LTYPE
  2
PHANTOM2
 70
     0
  3
___ _ _ ___ _ _ ___ _ _ ___ _ _
 72
    65
 73
     6
 40
1.25
 49
0.625
 49
-0.125
 49
0.125
 49
-0.125
 49
0.125
 49
-0.125
  0
ENDTAB
  0
TABLE
  2
LAYER
 70
     4
  0
LAYER
  2
0
 70
     0
 62
     7
  6
CONTINUOUS
  0
LAYER
  2
1
 70
     0
 62
     1
  6
CENTER
  0
LAYER
  2
3
 70
     0
 62
     3
  6
CONTINUOUS
  0
LAYER
  2
2
 70
     0
 62
     2
  6
HIDDEN
  0
ENDTAB
  0
TABLE
  2
STYLE
 70
     3
  0
STYLE
  2
STANDARD
 70
     0
 40
0.0
 41
1.0
 50
0.0
 71
     0
 42
4.0
  3
ROMANS
  4

  0
STYLE
  2
06500
 70
     0
 40
0.0
 41
1.0
 50
0.0
 71
     0
 42
1.0
  3
romans.shx
  4

  0
STYLE
  2
STANDARD1
 70
     0
 40
0.0
 41
1.0
 50
0.0
 71
     0
 42
3.0
  3
txt
  4

  0
ENDTAB
  0
TABLE
  2
VIEW
 70
     1
  0
VIEW
  2
ALL
 70
     0
 40
270.0
 10
220.59942000000001
 20
135.0
 41
441.19884000000002
 11
0.0
 21
0.0
 31
1.0
 12
0.0
 22
0.0
 32
0.0
 42
0.0
 43
0.0
 44
0.0
 50
0.0
 71
     0
  0
ENDTAB
  0
TABLE
  2
UCS
 70
     0
  0
ENDTAB
  0
TABLE
  2
APPID
 70
     5
  0
APPID
  2
ACAD
 70
     0
  0
APPID
  2
ACAD_MLEADERVER
 70
     0
  0
APPID
  2
ACAD_NAV_VCDISPLAY
 70
     0
  0
APPID
  2
GRADIENTCOLOR1ACI
 70
     0
  0
APPID
  2
GRADIENTCOLOR2ACI
 70
     0
  0
ENDTAB
  0
TABLE
  2
DIMSTYLE
 70
     1
  0
DIMSTYLE
  2
STANDARD
 70
     0
  3

  4

  5

  6

  7

 40
1.0
 41
0.18
 42
0.0625
 43
0.38
 44
0.18
 45
0.0
 46
0.0
 47
0.0
 48
0.0
140
0.18
141
0.09
142
0.0
143
25.399999999999999
144
1.0
145
0.0
146
1.0
147
0.09
 71
     0
 72
     0
 73
     1
 74
     1
 75
     0
 76
     0
 77
     0
 78
     0
170
     0
171
     2
172
     0
173
     0
174
     0
175
     0
176
     0
177
     0
178
     0
  0
ENDTAB
  0
ENDSEC
  0
SECTION
  2
BLOCKS
  0
BLOCK
  8
0
  2
$MODEL_SPACE
 70
     0
 10
0.0
 20
0.0
 30
0.0
  3
$MODEL_SPACE
  1

  0
ENDBLK
  5
540
  8
0
  0
BLOCK
 67
     1
  8
0
  2
$PAPER_SPACE
 70
     0
 10
0.0
 20
0.0
 30
0.0
  3
$PAPER_SPACE
  1

  0
ENDBLK
  5
53E
 67
     1
  8
0
  0
BLOCK
  8
0
  2
*U0
 70
     1
 10
0.0
 20
0.0
 30
0.0
  3
*U0
  1

  0
SOLID
  5
8F6
  8
0
  6
CONTINUOUS
 10
41.6349021371744
 20
76.809857496093187
 30
0.0
 11
47.316546519675477
 21
72.799999999999997
 31
0.0
 12
53.422399016143579
 22
72.799999999999997
 32
0.0
 13
53.422399016143579
 23
72.799999999999997
 33
0.0
210
0.0
220
0.0
230
1.0
  0
SOLID
  5
8F7
  8
0
  6
CONTINUOUS
 10
-54.893332296696109
 20
72.263333462912968
 30
0.0
 11
-54.999999999999972
 21
72.263333462912968
 31
0.0
 12
-54.999999999999972
 22
72.249999999999986
 32
0.0
 13
-54.999999999999972
 23
72.249999999999986
 33
0.0
210
0.0
220
0.0
230
-1.0
  0
SOLID
  5
8F8
  8
0
  6
CONTINUOUS
 10
50.599999999999987
 20
72.799999999999997
 30
0.0
 11
54.893332296696109
 21
72.263333462912968
 31
0.0
 12
54.999999999999972
 22
72.263333462912968
 32
0.0
 13
54.999999999999972
 23
72.263333462912968
 33
0.0
210
0.0
220
0.0
230
1.0
  0
SOLID
  5
8F9
  8
0
  6
CONTINUOUS
 10
-50.599999999999987
 20
72.799999999999997
 30
0.0
 11
-53.422399016143579
 21
72.799999999999997
 31
0.0
 12
-54.999999999999972
 22
72.263333462912968
 32
0.0
 13
-54.999999999999972
 23
72.263333462912968
 33
0.0
210
0.0
220
0.0
230
-1.0
  0
SOLID
  5
8FA
  8
0
  6
CONTINUOUS
 10
47.316546519675477
 20
72.799999999999997
 30
0.0
 11
48.076959681162528
 21
72.263333462912968
 31
0.0
 12
50.599999999999987
 22
72.263333462912968
 32
0.0
 13
50.599999999999987
 23
72.263333462912968
 33
0.0
210
0.0
220
0.0
230
1.0
  0
SOLID
  5
8FB
  8
0
  6
CONTINUOUS
 10
-47.316546519675477
 20
72.799999999999997
 30
0.0
 11
-50.599999999999987
 21
72.799999999999997
 31
0.0
 12
-50.599999999999987
 22
72.263333462912968
 32
0.0
 13
-50.599999999999987
 23
72.263333462912968
 33
0.0
210
0.0
220
0.0
230
-1.0
  0
SOLID
  5
8FC
  8
0
  6
CONTINUOUS
 10
-48.095852121787331
 20
72.249999999999986
 30
0.0
 11
-50.599999999999987
 21
72.249999999999986
 31
0.0
 12
-50.599999999999987
 22
70.482681339278614
 32
0.0
 13
-50.599999999999987
 23
70.482681339278614
 33
0.0
210
0.0
220
0.0
230
-1.0
  0
SOLID
  5
8FD
  8
0
  6
CONTINUOUS
 10
48.076959681162528
 20
72.263333462912968
 30
0.0
 11
48.095852121787331
 21
72.249999999999986
 31
0.0
 12
50.599999999999987
 22
72.249999999999986
 32
0.0
 13
50.599999999999987
 23
72.249999999999986
 33
0.0
210
0.0
220
0.0
230
1.0
  0
SOLID
  5
8FE
  8
0
  6
CONTINUOUS
 10
-48.076959681162528
 20
72.263333462912968
 30
0.0
 11
-50.599999999999987
 21
72.263333462912968
 31
0.0
 12
-50.599999999999987
 22
72.249999999999986
 32
0.0
 13
-50.599999999999987
 23
72.249999999999986
 33
0.0
210
0.0
220
0.0
230
-1.0
  0
LINE
  5
8FF
  8
0
  6
CONTINUOUS
 10
41.6349021371744
 20
76.809857496093187
 30
0.0
 11
47.316546519675477
 21
72.799999999999997
 31
0.0
  0
LINE
  5
900
  8
0
  6
CONTINUOUS
 10
53.422399016143579
 20
72.799999999999997
 30
0.0
 11
41.6349021371744
 21
76.809857496093187
 31
0.0
  0
LINE
  5
901
  8
0
  6
CONTINUOUS
 10
54.999999999999972
 20
72.263333462912968
 30
0.0
 11
54.999999999999972
 21
72.249999999999986
 31
0.0
  0
LINE
  5
902
  8
0
  6
CONTINUOUS
 10
54.999999999999972
 20
72.249999999999986
 30
0.0
 11
54.893332296696109
 21
72.263333462912968
 31
0.0
  0
LINE
  5
903
  8
0
  6
CONTINUOUS
 10
53.422399016143579
 20
72.799999999999997
 30
0.0
 11
54.999999999999972
 21
72.263333462912968
 31
0.0
  0
LINE
  5
904
  8
0
  6
CONTINUOUS
 10
47.316546519675477
 20
72.799999999999997
 30
0.0
 11
48.076959681162528
 21
72.263333462912968
 31
0.0
  0
LINE
  5
905
  8
0
  6
CONTINUOUS
 10
50.599999999999987
 20
72.249999999999986
 30
0.0
 11
50.599999999999987
 21
70.482681339278614
 31
0.0
  0
LINE
  5
906
  8
0
  6
CONTINUOUS
 10
50.599999999999987
 20
70.482681339278614
 30
0.0
 11
48.095852121787331
 21
72.249999999999986
 31
0.0
  0
LINE
  5
907
  8
0
  6
CONTINUOUS
 10
48.076959681162528
 20
72.263333462912968
 30
0.0
 11
48.095852121787331
 21
72.249999999999986
 31
0.0
  0
LINE
  5
908
  8
0
  6
CONTINUOUS
 10
50.599999999999987
 20
72.263333462912968
 30
0.0
 11
50.599999999999987
 21
72.249999999999986
 31
0.0
  0
ENDBLK
  5
90A
  8
0
  0
BLOCK
  8
0
  2
*U1
 70
     1
 10
0.0
 20
0.0
 30
0.0
  3
*U1
  1

  0
SOLID
  5
90C
  8
0
  6
CONTINUOUS
 10
59.049733467391967
 20
68.256216683424
 30
0.0
 11
54.999999999999972
 21
67.750000000000014
 31
0.0
 12
58.79180318422879
 22
67.750000000000014
 32
0.0
 13
58.79180318422879
 23
67.750000000000014
 33
0.0
210
0.0
220
0.0
230
1.0
  0
SOLID
  5
90D
  8
0
  6
CONTINUOUS
 10
54.999999999999972
 20
67.750000000000014
 30
0.0
 11
54.551436202729029
 21
67.693929525341105
 31
0.0
 12
54.999999999999972
 22
67.693929525341105
 32
0.0
 13
54.999999999999972
 23
67.693929525341105
 33
0.0
210
0.0
220
0.0
230
1.0
  0
SOLID
  5
90E
  8
0
  6
CONTINUOUS
 10
-54.551436202729029
 20
67.693929525341105
 30
0.0
 11
-54.999999999999972
 21
67.693929525341105
 31
0.0
 12
-54.999999999999972
 22
67.377352706400714
 32
0.0
 13
-54.999999999999972
 23
67.377352706400714
 33
0.0
210
0.0
220
0.0
230
-1.0
  0
SOLID
  5
90F
  8
0
  6
CONTINUOUS
 10
54.999999999999972
 20
67.750000000000014
 30
0.0
 11
54.999999999999972
 21
67.693929525341105
 31
0.0
 12
58.763233850424839
 22
67.693929525341105
 32
0.0
 13
58.763233850424839
 23
67.693929525341105
 33
0.0
210
0.0
220
0.0
230
1.0
  0
SOLID
  5
910
  8
0
  6
CONTINUOUS
 10
-54.999999999999972
 20
67.750000000000014
 30
0.0
 11
-58.79180318422879
 21
67.750000000000014
 31
0.0
 12
-58.763233850424839
 22
67.693929525341105
 32
0.0
 13
-58.763233850424839
 23
67.693929525341105
 33
0.0
210
0.0
220
0.0
230
-1.0
  0
SOLID
  5
911
  8
0
  6
CONTINUOUS
 10
-54.999999999999972
 20
67.377352706400714
 30
0.0
 11
-58.601929904454707
 21
67.377352706400714
 31
0.0
 12
-57.649255307158079
 22
65.50762353341851
 32
0.0
 13
-57.649255307158079
 23
65.50762353341851
 33
0.0
210
0.0
220
0.0
230
-1.0
  0
SOLID
  5
912
  8
0
  6
CONTINUOUS
 10
54.999999999999972
 20
67.693929525341105
 30
0.0
 11
54.999999999999972
 21
67.377352706400714
 31
0.0
 12
58.601929904454707
 22
67.377352706400714
 32
0.0
 13
58.601929904454707
 23
67.377352706400714
 33
0.0
210
0.0
220
0.0
230
1.0
  0
SOLID
  5
913
  8
0
  6
CONTINUOUS
 10
-54.999999999999972
 20
67.693929525341105
 30
0.0
 11
-58.763233850424839
 21
67.693929525341105
 31
0.0
 12
-58.601929904454707
 22
67.377352706400714
 32
0.0
 13
-58.601929904454707
 23
67.377352706400714
 33
0.0
210
0.0
220
0.0
230
-1.0
  0
LINE
  5
914
  8
0
  6
CONTINUOUS
 10
59.049733467391967
 20
68.256216683424
 30
0.0
 11
54.999999999999972
 21
67.750000000000014
 31
0.0
  0
LINE
  5
915
  8
0
  6
CONTINUOUS
 10
58.79180318422879
 20
67.750000000000014
 30
0.0
 11
59.049733467391967
 21
68.256216683424
 31
0.0
  0
LINE
  5
916
  8
0
  6
CONTINUOUS
 10
54.999999999999972
 20
67.750000000000014
 30
0.0
 11
54.551436202729029
 21
67.693929525341105
 31
0.0
  0
LINE
  5
917
  8
0
  6
CONTINUOUS
 10
54.999999999999972
 20
67.693929525341105
 30
0.0
 11
54.999999999999972
 21
67.750000000000014
 31
0.0
  0
LINE
  5
918
  8
0
  6
CONTINUOUS
 10
54.999999999999972
 20
67.693929525341105
 30
0.0
 11
54.999999999999972
 21
67.377352706400714
 31
0.0
  0
LINE
  5
919
  8
0
  6
CONTINUOUS
 10
54.999999999999972
 20
67.750000000000014
 30
0.0
 11
54.999999999999972
 21
67.693929525341105
 31
0.0
  0
LINE
  5
91A
  8
0
  6
CONTINUOUS
 10
58.79180318422879
 20
67.750000000000014
 30
0.0
 11
58.763233850424839
 21
67.693929525341105
 31
0.0
  0
LINE
  5
91B
  8
0
  6
CONTINUOUS
 10
58.601929904454707
 20
67.377352706400714
 30
0.0
 11
57.649255307158079
 21
65.50762353341851
 31
0.0
  0
LINE
  5
91C
  8
0
  6
CONTINUOUS
 10
57.649255307158079
 20
65.50762353341851
 30
0.0
 11
54.999999999999972
 21
67.377352706400714
 31
0.0
  0
LINE
  5
91D
  8
0
  6
CONTINUOUS
 10
58.763233850424839
 20
67.693929525341105
 30
0.0
 11
58.601929904454707
 21
67.377352706400714
 31
0.0
  0
ENDBLK
  5
91F
  8
0
  0
ENDSEC
  0
SECTION
  2
ENTITIES
  0
LINE
  5
2A
  8
0
 10
107.0
 20
46.25
 30
0.0
 11
107.0
 21
93.75
 31
0.0
  0
LINE
  5
2B
  8
0
 10
114.59999999999999
 20
95.5
 30
0.0
 11
116.7
 21
95.5
 31
0.0
  0
LINE
  5
2C
  8
0
 10
155.0
 20
79.0
 30
0.0
 11
155.0
 21
61.0
 31
0.0
  0
LINE
  5
2D
  8
1
 10
104.5
 20
70.0
 30
0.0
 11
157.5
 21
70.0
 31
0.0
  0
LINE
  5
2E
  8
0
 10
138.0
 20
92.244531999999992
 30
0.0
 11
138.0
 21
47.755467999999993
 31
0.0
  0
LINE
  5
2F
  8
0
 10
141.0
 20
82.0
 30
0.0
 11
153.69999999999999
 21
82.0
 31
0.0
  0
LINE
  5
30
  8
0
 10
141.0
 20
58.0
 30
0.0
 11
153.69999999999999
 21
58.0
 31
0.0
  0
LINE
  5
31
  8
0
 10
154.69999999999999
 20
81.0
 30
0.0
 11
154.69999999999999
 21
59.0
 31
0.0
  0
LINE
  5
32
  8
0
 10
113.5
 20
45.25
 30
0.0
 11
113.5
 21
94.749999999999986
 31
0.0
  0
LINE
  5
33
  8
0
 10
114.09999999999999
 20
45.589013000000001
 30
0.0
 11
114.09999999999999
 21
94.410987000000006
 31
0.0
  0
LINE
  5
34
  8
0
 10
135.80000000000001
 20
94.410987000000006
 30
0.0
 11
135.80000000000001
 21
45.589012999999987
 31
0.0
  0
LINE
  5
35
  8
0
 10
153.69999999999999
 20
82.0
 30
0.0
 11
154.69999999999999
 21
81.0
 31
0.0
  0
LINE
  5
36
  8
0
 10
154.69999999999999
 20
59.0
 30
0.0
 11
153.69999999999999
 21
58.0
 31
0.0
  0
ARC
  5
37
  8
0
 10
141.0
 20
55.0
 30
0.0
 40
3.0
 50
90.0
 51
180.0
  0
ARC
  5
38
  8
0
 10
141.0
 20
85.0
 30
0.0
 40
3.0
 50
180.0
 51
270.0
  0
LINE
  5
39
  8
2
 10
137.5
 20
78.0
 30
0.0
 11
137.5
 21
62.0
 31
0.0
  0
LINE
  5
3A
  8
2
 10
138.5
 20
62.0
 30
0.0
 11
138.5
 21
61.0
 31
0.0
  0
LINE
  5
3B
  8
2
 10
137.5
 20
62.0
 30
0.0
 11
138.5
 21
62.0
 31
0.0
  0
LINE
  5
3C
  8
2
 10
137.5
 20
66.0
 30
0.0
 11
154.0
 21
66.0
 31
0.0
  0
LINE
  5
3D
  8
2
 10
154.0
 20
66.0
 30
0.0
 11
155.0
 21
65.0
 31
0.0
  0
LINE
  5
3E
  8
2
 10
154.0
 20
66.0
 30
0.0
 11
154.0
 21
74.0
 31
0.0
  0
LINE
  5
3F
  8
0
 10
117.2
 20
45.589013000000001
 30
0.0
 11
117.2
 21
94.410987000000006
 31
0.0
  0
LINE
  5
40
  8
0
 10
120.3
 20
45.589013000000001
 30
0.0
 11
120.3
 21
94.410987000000006
 31
0.0
  0
LINE
  5
41
  8
0
 10
123.40000000000001
 20
45.589013000000001
 30
0.0
 11
123.40000000000001
 21
94.410987000000006
 31
0.0
  0
LINE
  5
42
  8
0
 10
126.5
 20
45.589013000000001
 30
0.0
 11
126.5
 21
94.410987000000006
 31
0.0
  0
LINE
  5
43
  8
0
 10
129.59999999999999
 20
45.589013000000001
 30
0.0
 11
129.59999999999999
 21
94.410987000000006
 31
0.0
  0
LINE
  5
44
  8
0
 10
132.69999999999999
 20
45.589013000000001
 30
0.0
 11
132.69999999999999
 21
94.410987000000006
 31
0.0
  0
LINE
  5
45
  8
0
 10
114.59999999999999
 20
71.0
 30
0.0
 11
116.7
 21
71.0
 31
0.0
  0
LINE
  5
46
  8
0
 10
114.59999999999999
 20
71.859185999999994
 30
0.0
 11
116.7
 21
71.859185999999994
 31
0.0
  0
LINE
  5
47
  8
0
 10
114.59999999999999
 20
73.846609999999998
 30
0.0
 11
116.7
 21
73.846609999999998
 31
0.0
  0
LINE
  5
48
  8
0
 10
114.59999999999999
 20
69.0
 30
0.0
 11
114.59999999999999
 21
71.0
 31
0.0
  0
LINE
  5
49
  8
0
 10
116.7
 20
69.0
 30
0.0
 11
116.7
 21
71.0
 31
0.0
  0
LINE
  5
4A
  8
0
 10
114.59999999999999
 20
74.694991000000002
 30
0.0
 11
116.7
 21
74.694991000000002
 31
0.0
  0
LINE
  5
4B
  8
0
 10
114.59999999999999
 20
76.644846999999999
 30
0.0
 11
116.7
 21
76.644846999999999
 31
0.0
  0
LINE
  5
4C
  8
0
 10
114.59999999999999
 20
77.471754000000004
 30
0.0
 11
116.7
 21
77.471754000000004
 31
0.0
  0
LINE
  5
4D
  8
0
 10
114.59999999999999
 20
79.359521000000001
 30
0.0
 11
116.7
 21
79.359521000000001
 31
0.0
  0
LINE
  5
4E
  8
0
 10
114.59999999999999
 20
81.956493000000009
 30
0.0
 11
116.7
 21
81.956493000000009
 31
0.0
  0
LINE
  5
4F
  8
0
 10
114.59999999999999
 20
80.154556000000014
 30
0.0
 11
116.7
 21
80.154556000000014
 31
0.0
  0
LINE
  5
50
  8
0
 10
114.59999999999999
 20
84.403106000000008
 30
0.0
 11
116.7
 21
84.403106000000008
 31
0.0
  0
LINE
  5
51
  8
0
 10
114.59999999999999
 20
82.70965799999999
 30
0.0
 11
116.7
 21
82.70965799999999
 31
0.0
  0
LINE
  5
52
  8
0
 10
114.59999999999999
 20
85.104927999999987
 30
0.0
 11
116.7
 21
85.104927999999987
 31
0.0
  0
LINE
  5
53
  8
0
 10
114.59999999999999
 20
86.668591000000006
 30
0.0
 11
116.7
 21
86.668591000000006
 31
0.0
  0
LINE
  5
54
  8
0
 10
114.59999999999999
 20
87.310245999999992
 30
0.0
 11
116.7
 21
87.310245999999992
 31
0.0
  0
LINE
  5
55
  8
0
 10
114.59999999999999
 20
88.724459999999993
 30
0.0
 11
116.7
 21
88.724459999999993
 31
0.0
  0
LINE
  5
56
  8
0
 10
114.59999999999999
 20
89.297877
 30
0.0
 11
116.7
 21
89.297877
 31
0.0
  0
LINE
  5
57
  8
0
 10
114.59999999999999
 20
90.544856999999979
 30
0.0
 11
116.7
 21
90.544856999999979
 31
0.0
  0
LINE
  5
58
  8
0
 10
114.59999999999999
 20
91.042826000000005
 30
0.0
 11
116.7
 21
91.042826000000005
 31
0.0
  0
LINE
  5
59
  8
0
 10
114.59999999999999
 20
92.106890000000007
 30
0.0
 11
116.7
 21
92.106890000000007
 31
0.0
  0
LINE
  5
5A
  8
0
 10
114.59999999999999
 20
92.523150000000015
 30
0.0
 11
116.7
 21
92.523150000000015
 31
0.0
  0
LINE
  5
5B
  8
0
 10
114.59999999999999
 20
93.390917000000002
 30
0.0
 11
116.7
 21
93.390917000000002
 31
0.0
  0
LINE
  5
5C
  8
0
 10
114.59999999999999
 20
93.720231000000013
 30
0.0
 11
116.7
 21
93.720231000000013
 31
0.0
  0
LINE
  5
5D
  8
0
 10
114.59999999999999
 20
94.380788999999993
 30
0.0
 11
116.7
 21
94.380788999999993
 31
0.0
  0
LINE
  5
5E
  8
0
 10
114.59999999999999
 20
94.619016999999999
 30
0.0
 11
116.7
 21
94.619016999999999
 31
0.0
  0
LINE
  5
5F
  8
0
 10
114.59999999999999
 20
95.064059
 30
0.0
 11
116.7
 21
95.064059
 31
0.0
  0
LINE
  5
60
  8
0
 10
114.59999999999999
 20
95.208205000000007
 30
0.0
 11
116.7
 21
95.208205000000007
 31
0.0
  0
LINE
  5
61
  8
0
 10
114.59999999999999
 20
95.432133999999991
 30
0.0
 11
116.7
 21
95.432133999999991
 31
0.0
  0
LINE
  5
62
  8
0
 10
114.59999999999999
 20
95.480384999999998
 30
0.0
 11
116.7
 21
95.480384999999998
 31
0.0
  0
LINE
  5
63
  8
0
 10
113.5
 20
94.244530000000012
 30
0.0
 11
114.09999999999999
 21
94.244530000000012
 31
0.0
  0
LINE
  5
64
  8
0
 10
113.5
 20
45.755470000000003
 30
0.0
 11
114.09999999999999
 21
45.755470000000003
 31
0.0
  0
LINE
  5
65
  8
0
 10
108.0
 20
45.25
 30
0.0
 11
113.5
 21
45.25
 31
0.0
  0
LINE
  5
66
  8
0
 10
108.0
 20
94.749999999999986
 30
0.0
 11
113.5
 21
94.749999999999986
 31
0.0
  0
ARC
  5
67
  8
0
 10
108.0
 20
93.75
 30
0.0
 40
1.0
 50
90.0
 51
180.0
  0
ARC
  5
68
  8
0
 10
108.0
 20
46.25
 30
0.0
 40
1.0
 50
180.0
 51
270.0
  0
LINE
  5
69
  8
0
 10
135.80000000000001
 20
94.244530000000012
 30
0.0
 11
136.0
 21
94.244530000000012
 31
0.0
  0
ARC
  5
6A
  8
0
 10
136.0
 20
92.244530000000026
 30
0.0
 40
2.0
 50
0.0
 51
90.0
  0
LINE
  5
6B
  8
0
 10
114.59999999999999
 20
71.859185999999994
 30
0.0
 11
114.59999999999999
 21
73.846609999999998
 31
0.0
  0
LINE
  5
6C
  8
0
 10
116.7
 20
71.859185999999994
 30
0.0
 11
116.7
 21
73.846609999999998
 31
0.0
  0
LINE
  5
6D
  8
0
 10
116.7
 20
74.694991000000002
 30
0.0
 11
116.7
 21
76.644846999999999
 31
0.0
  0
LINE
  5
6E
  8
0
 10
114.59999999999999
 20
74.694991000000002
 30
0.0
 11
114.59999999999999
 21
76.644846999999999
 31
0.0
  0
LINE
  5
6F
  8
0
 10
114.59999999999999
 20
77.471754000000004
 30
0.0
 11
114.59999999999999
 21
79.359521000000001
 31
0.0
  0
LINE
  5
70
  8
0
 10
116.7
 20
77.471754000000004
 30
0.0
 11
116.7
 21
79.359521000000001
 31
0.0
  0
LINE
  5
71
  8
0
 10
116.7
 20
80.154556000000014
 30
0.0
 11
116.7
 21
81.956493000000009
 31
0.0
  0
LINE
  5
72
  8
0
 10
114.59999999999999
 20
80.154556000000014
 30
0.0
 11
114.59999999999999
 21
81.956493000000009
 31
0.0
  0
LINE
  5
73
  8
0
 10
116.7
 20
82.70965799999999
 30
0.0
 11
116.7
 21
84.403106000000008
 31
0.0
  0
LINE
  5
74
  8
0
 10
114.59999999999999
 20
82.70965799999999
 30
0.0
 11
114.59999999999999
 21
84.403106000000008
 31
0.0
  0
LINE
  5
75
  8
0
 10
116.7
 20
85.104927999999987
 30
0.0
 11
116.7
 21
86.668591000000006
 31
0.0
  0
LINE
  5
76
  8
0
 10
114.59999999999999
 20
85.104927999999987
 30
0.0
 11
114.59999999999999
 21
86.668591000000006
 31
0.0
  0
LINE
  5
77
  8
0
 10
116.7
 20
87.310245999999992
 30
0.0
 11
116.7
 21
88.724459999999993
 31
0.0
  0
LINE
  5
78
  8
0
 10
114.59999999999999
 20
87.310245999999992
 30
0.0
 11
114.59999999999999
 21
88.724459999999993
 31
0.0
  0
LINE
  5
79
  8
0
 10
116.7
 20
89.297877
 30
0.0
 11
116.7
 21
90.544856999999979
 31
0.0
  0
LINE
  5
7A
  8
0
 10
114.59999999999999
 20
89.297877
 30
0.0
 11
114.59999999999999
 21
90.544856999999979
 31
0.0
  0
LINE
  5
7B
  8
0
 10
114.59999999999999
 20
91.042826000000005
 30
0.0
 11
114.59999999999999
 21
92.106890000000007
 31
0.0
  0
LINE
  5
7C
  8
0
 10
116.7
 20
91.042826000000005
 30
0.0
 11
116.7
 21
92.106890000000007
 31
0.0
  0
LINE
  5
7D
  8
0
 10
116.7
 20
92.523150000000015
 30
0.0
 11
116.7
 21
93.390917000000002
 31
0.0
  0
LINE
  5
7E
  8
0
 10
114.59999999999999
 20
92.523150000000015
 30
0.0
 11
114.59999999999999
 21
93.390917000000002
 31
0.0
  0
LINE
  5
7F
  8
0
 10
114.59999999999999
 20
93.720231000000013
 30
0.0
 11
114.59999999999999
 21
94.380788999999993
 31
0.0
  0
LINE
  5
80
  8
0
 10
116.7
 20
93.720231000000013
 30
0.0
 11
116.7
 21
94.380788999999993
 31
0.0
  0
LINE
  5
81
  8
0
 10
116.7
 20
94.619016999999999
 30
0.0
 11
116.7
 21
95.064059
 31
0.0
  0
LINE
  5
82
  8
0
 10
114.59999999999999
 20
94.619016999999999
 30
0.0
 11
114.59999999999999
 21
95.064059
 31
0.0
  0
LINE
  5
83
  8
0
 10
114.59999999999999
 20
95.208205000000007
 30
0.0
 11
114.59999999999999
 21
95.432133999999991
 31
0.0
  0
LINE
  5
84
  8
0
 10
116.7
 20
95.208205000000007
 30
0.0
 11
116.7
 21
95.432133999999991
 31
0.0
  0
LINE
  5
85
  8
0
 10
116.7
 20
95.480384999999998
 30
0.0
 11
116.7
 21
95.5
 31
0.0
  0
LINE
  5
86
  8
0
 10
114.59999999999999
 20
95.480384999999998
 30
0.0
 11
114.59999999999999
 21
95.5
 31
0.0
  0
LINE
  5
87
  8
0
 10
117.7
 20
95.480384999999998
 30
0.0
 11
117.7
 21
95.5
 31
0.0
  0
LINE
  5
88
  8
0
 10
119.8
 20
95.480384999999998
 30
0.0
 11
119.8
 21
95.5
 31
0.0
  0
LINE
  5
89
  8
0
 10
119.8
 20
95.208205000000007
 30
0.0
 11
119.8
 21
95.432133999999991
 31
0.0
  0
LINE
  5
8A
  8
0
 10
117.7
 20
95.208205000000007
 30
0.0
 11
117.7
 21
95.432133999999991
 31
0.0
  0
LINE
  5
8B
  8
0
 10
117.7
 20
94.619016999999999
 30
0.0
 11
117.7
 21
95.064059
 31
0.0
  0
LINE
  5
8C
  8
0
 10
119.8
 20
94.619016999999999
 30
0.0
 11
119.8
 21
95.064059
 31
0.0
  0
LINE
  5
8D
  8
0
 10
119.8
 20
93.720231000000013
 30
0.0
 11
119.8
 21
94.380788999999993
 31
0.0
  0
LINE
  5
8E
  8
0
 10
117.7
 20
93.720231000000013
 30
0.0
 11
117.7
 21
94.380788999999993
 31
0.0
  0
LINE
  5
8F
  8
0
 10
117.7
 20
92.523150000000015
 30
0.0
 11
117.7
 21
93.390917000000002
 31
0.0
  0
LINE
  5
90
  8
0
 10
119.8
 20
92.523150000000015
 30
0.0
 11
119.8
 21
93.390917000000002
 31
0.0
  0
LINE
  5
91
  8
0
 10
119.8
 20
91.042826000000005
 30
0.0
 11
119.8
 21
92.106890000000007
 31
0.0
  0
LINE
  5
92
  8
0
 10
117.7
 20
91.042826000000005
 30
0.0
 11
117.7
 21
92.106890000000007
 31
0.0
  0
LINE
  5
93
  8
0
 10
117.7
 20
89.297877
 30
0.0
 11
117.7
 21
90.544856999999979
 31
0.0
  0
LINE
  5
94
  8
0
 10
119.8
 20
89.297877
 30
0.0
 11
119.8
 21
90.544856999999979
 31
0.0
  0
LINE
  5
95
  8
0
 10
117.7
 20
87.310245999999992
 30
0.0
 11
117.7
 21
88.724459999999993
 31
0.0
  0
LINE
  5
96
  8
0
 10
119.8
 20
87.310245999999992
 30
0.0
 11
119.8
 21
88.724459999999993
 31
0.0
  0
LINE
  5
97
  8
0
 10
117.7
 20
85.104927999999987
 30
0.0
 11
117.7
 21
86.668591000000006
 31
0.0
  0
LINE
  5
98
  8
0
 10
119.8
 20
85.104927999999987
 30
0.0
 11
119.8
 21
86.668591000000006
 31
0.0
  0
LINE
  5
99
  8
0
 10
117.7
 20
82.70965799999999
 30
0.0
 11
117.7
 21
84.403106000000008
 31
0.0
  0
LINE
  5
9A
  8
0
 10
119.8
 20
82.70965799999999
 30
0.0
 11
119.8
 21
84.403106000000008
 31
0.0
  0
LINE
  5
9B
  8
0
 10
117.7
 20
80.154556000000014
 30
0.0
 11
117.7
 21
81.956493000000009
 31
0.0
  0
LINE
  5
9C
  8
0
 10
119.8
 20
80.154556000000014
 30
0.0
 11
119.8
 21
81.956493000000009
 31
0.0
  0
LINE
  5
9D
  8
0
 10
119.8
 20
77.471754000000004
 30
0.0
 11
119.8
 21
79.359521000000001
 31
0.0
  0
LINE
  5
9E
  8
0
 10
117.7
 20
77.471754000000004
 30
0.0
 11
117.7
 21
79.359521000000001
 31
0.0
  0
LINE
  5
9F
  8
0
 10
117.7
 20
74.694991000000002
 30
0.0
 11
117.7
 21
76.644846999999999
 31
0.0
  0
LINE
  5
A0
  8
0
 10
119.8
 20
74.694991000000002
 30
0.0
 11
119.8
 21
76.644846999999999
 31
0.0
  0
LINE
  5
A1
  8
0
 10
119.8
 20
71.859185999999994
 30
0.0
 11
119.8
 21
73.846609999999998
 31
0.0
  0
LINE
  5
A2
  8
0
 10
117.7
 20
71.859185999999994
 30
0.0
 11
117.7
 21
73.846609999999998
 31
0.0
  0
LINE
  5
A3
  8
0
 10
117.7
 20
95.480384999999998
 30
0.0
 11
119.8
 21
95.480384999999998
 31
0.0
  0
LINE
  5
A4
  8
0
 10
117.7
 20
95.432133999999991
 30
0.0
 11
119.8
 21
95.432133999999991
 31
0.0
  0
LINE
  5
A5
  8
0
 10
117.7
 20
95.208205000000007
 30
0.0
 11
119.8
 21
95.208205000000007
 31
0.0
  0
LINE
  5
A6
  8
0
 10
117.7
 20
95.064059
 30
0.0
 11
119.8
 21
95.064059
 31
0.0
  0
LINE
  5
A7
  8
0
 10
117.7
 20
94.619016999999999
 30
0.0
 11
119.8
 21
94.619016999999999
 31
0.0
  0
LINE
  5
A8
  8
0
 10
117.7
 20
94.380788999999993
 30
0.0
 11
119.8
 21
94.380788999999993
 31
0.0
  0
LINE
  5
A9
  8
0
 10
117.7
 20
93.720231000000013
 30
0.0
 11
119.8
 21
93.720231000000013
 31
0.0
  0
LINE
  5
AA
  8
0
 10
117.7
 20
93.390917000000002
 30
0.0
 11
119.8
 21
93.390917000000002
 31
0.0
  0
LINE
  5
AB
  8
0
 10
117.7
 20
92.523150000000015
 30
0.0
 11
119.8
 21
92.523150000000015
 31
0.0
  0
LINE
  5
AC
  8
0
 10
117.7
 20
92.106890000000007
 30
0.0
 11
119.8
 21
92.106890000000007
 31
0.0
  0
LINE
  5
AD
  8
0
 10
117.7
 20
91.042826000000005
 30
0.0
 11
119.8
 21
91.042826000000005
 31
0.0
  0
LINE
  5
AE
  8
0
 10
117.7
 20
90.544856999999979
 30
0.0
 11
119.8
 21
90.544856999999979
 31
0.0
  0
LINE
  5
AF
  8
0
 10
117.7
 20
89.297877
 30
0.0
 11
119.8
 21
89.297877
 31
0.0
  0
LINE
  5
B0
  8
0
 10
117.7
 20
88.724459999999993
 30
0.0
 11
119.8
 21
88.724459999999993
 31
0.0
  0
LINE
  5
B1
  8
0
 10
117.7
 20
87.310245999999992
 30
0.0
 11
119.8
 21
87.310245999999992
 31
0.0
  0
LINE
  5
B2
  8
0
 10
117.7
 20
86.668591000000006
 30
0.0
 11
119.8
 21
86.668591000000006
 31
0.0
  0
LINE
  5
B3
  8
0
 10
117.7
 20
85.104927999999987
 30
0.0
 11
119.8
 21
85.104927999999987
 31
0.0
  0
LINE
  5
B4
  8
0
 10
117.7
 20
82.70965799999999
 30
0.0
 11
119.8
 21
82.70965799999999
 31
0.0
  0
LINE
  5
B5
  8
0
 10
117.7
 20
84.403106000000008
 30
0.0
 11
119.8
 21
84.403106000000008
 31
0.0
  0
LINE
  5
B6
  8
0
 10
117.7
 20
80.154556000000014
 30
0.0
 11
119.8
 21
80.154556000000014
 31
0.0
  0
LINE
  5
B7
  8
0
 10
117.7
 20
81.956493000000009
 30
0.0
 11
119.8
 21
81.956493000000009
 31
0.0
  0
LINE
  5
B8
  8
0
 10
117.7
 20
79.359521000000001
 30
0.0
 11
119.8
 21
79.359521000000001
 31
0.0
  0
LINE
  5
B9
  8
0
 10
117.7
 20
77.471754000000004
 30
0.0
 11
119.8
 21
77.471754000000004
 31
0.0
  0
LINE
  5
BA
  8
0
 10
117.7
 20
76.644846999999999
 30
0.0
 11
119.8
 21
76.644846999999999
 31
0.0
  0
LINE
  5
BB
  8
0
 10
117.7
 20
74.694991000000002
 30
0.0
 11
119.8
 21
74.694991000000002
 31
0.0
  0
LINE
  5
BC
  8
0
 10
117.7
 20
73.846609999999998
 30
0.0
 11
119.8
 21
73.846609999999998
 31
0.0
  0
LINE
  5
BD
  8
0
 10
117.7
 20
71.859185999999994
 30
0.0
 11
119.8
 21
71.859185999999994
 31
0.0
  0
LINE
  5
BE
  8
0
 10
117.7
 20
71.0
 30
0.0
 11
119.8
 21
71.0
 31
0.0
  0
LINE
  5
BF
  8
0
 10
117.7
 20
95.5
 30
0.0
 11
119.8
 21
95.5
 31
0.0
  0
LINE
  5
C0
  8
0
 10
117.7
 20
69.0
 30
0.0
 11
117.7
 21
71.0
 31
0.0
  0
LINE
  5
C1
  8
0
 10
119.8
 20
69.0
 30
0.0
 11
119.8
 21
71.0
 31
0.0
  0
LINE
  5
C2
  8
0
 10
120.8
 20
95.480384999999998
 30
0.0
 11
120.8
 21
95.5
 31
0.0
  0
LINE
  5
C3
  8
0
 10
122.90000000000001
 20
95.480384999999998
 30
0.0
 11
122.90000000000001
 21
95.5
 31
0.0
  0
LINE
  5
C4
  8
0
 10
122.90000000000001
 20
95.208205000000007
 30
0.0
 11
122.90000000000001
 21
95.432133999999991
 31
0.0
  0
LINE
  5
C5
  8
0
 10
120.8
 20
95.208205000000007
 30
0.0
 11
120.8
 21
95.432133999999991
 31
0.0
  0
LINE
  5
C6
  8
0
 10
120.8
 20
94.619016999999999
 30
0.0
 11
120.8
 21
95.064059
 31
0.0
  0
LINE
  5
C7
  8
0
 10
122.90000000000001
 20
94.619016999999999
 30
0.0
 11
122.90000000000001
 21
95.064059
 31
0.0
  0
LINE
  5
C8
  8
0
 10
122.90000000000001
 20
93.720231000000013
 30
0.0
 11
122.90000000000001
 21
94.380788999999993
 31
0.0
  0
LINE
  5
C9
  8
0
 10
120.8
 20
93.720231000000013
 30
0.0
 11
120.8
 21
94.380788999999993
 31
0.0
  0
LINE
  5
CA
  8
0
 10
120.8
 20
92.523150000000015
 30
0.0
 11
120.8
 21
93.390917000000002
 31
0.0
  0
LINE
  5
CB
  8
0
 10
122.90000000000001
 20
92.523150000000015
 30
0.0
 11
122.90000000000001
 21
93.390917000000002
 31
0.0
  0
LINE
  5
CC
  8
0
 10
122.90000000000001
 20
91.042826000000005
 30
0.0
 11
122.90000000000001
 21
92.106890000000007
 31
0.0
  0
LINE
  5
CD
  8
0
 10
120.8
 20
91.042826000000005
 30
0.0
 11
120.8
 21
92.106890000000007
 31
0.0
  0
LINE
  5
CE
  8
0
 10
120.8
 20
89.297877
 30
0.0
 11
120.8
 21
90.544856999999979
 31
0.0
  0
LINE
  5
CF
  8
0
 10
122.90000000000001
 20
89.297877
 30
0.0
 11
122.90000000000001
 21
90.544856999999979
 31
0.0
  0
LINE
  5
D0
  8
0
 10
120.8
 20
87.310245999999992
 30
0.0
 11
120.8
 21
88.724459999999993
 31
0.0
  0
LINE
  5
D1
  8
0
 10
122.90000000000001
 20
87.310245999999992
 30
0.0
 11
122.90000000000001
 21
88.724459999999993
 31
0.0
  0
LINE
  5
D2
  8
0
 10
120.8
 20
85.104927999999987
 30
0.0
 11
120.8
 21
86.668591000000006
 31
0.0
  0
LINE
  5
D3
  8
0
 10
122.90000000000001
 20
85.104927999999987
 30
0.0
 11
122.90000000000001
 21
86.668591000000006
 31
0.0
  0
LINE
  5
D4
  8
0
 10
120.8
 20
82.70965799999999
 30
0.0
 11
120.8
 21
84.403106000000008
 31
0.0
  0
LINE
  5
D5
  8
0
 10
122.90000000000001
 20
82.70965799999999
 30
0.0
 11
122.90000000000001
 21
84.403106000000008
 31
0.0
  0
LINE
  5
D6
  8
0
 10
120.8
 20
80.154556000000014
 30
0.0
 11
120.8
 21
81.956493000000009
 31
0.0
  0
LINE
  5
D7
  8
0
 10
122.90000000000001
 20
80.154556000000014
 30
0.0
 11
122.90000000000001
 21
81.956493000000009
 31
0.0
  0
LINE
  5
D8
  8
0
 10
122.90000000000001
 20
77.471754000000004
 30
0.0
 11
122.90000000000001
 21
79.359521000000001
 31
0.0
  0
LINE
  5
D9
  8
0
 10
120.8
 20
77.471754000000004
 30
0.0
 11
120.8
 21
79.359521000000001
 31
0.0
  0
LINE
  5
DA
  8
0
 10
120.8
 20
74.694991000000002
 30
0.0
 11
120.8
 21
76.644846999999999
 31
0.0
  0
LINE
  5
DB
  8
0
 10
122.90000000000001
 20
74.694991000000002
 30
0.0
 11
122.90000000000001
 21
76.644846999999999
 31
0.0
  0
LINE
  5
DC
  8
0
 10
122.90000000000001
 20
71.859185999999994
 30
0.0
 11
122.90000000000001
 21
73.846609999999998
 31
0.0
  0
LINE
  5
DD
  8
0
 10
120.8
 20
71.859185999999994
 30
0.0
 11
120.8
 21
73.846609999999998
 31
0.0
  0
LINE
  5
DE
  8
0
 10
120.8
 20
95.480384999999998
 30
0.0
 11
122.90000000000001
 21
95.480384999999998
 31
0.0
  0
LINE
  5
DF
  8
0
 10
120.8
 20
95.432133999999991
 30
0.0
 11
122.90000000000001
 21
95.432133999999991
 31
0.0
  0
LINE
  5
E0
  8
0
 10
120.8
 20
95.208205000000007
 30
0.0
 11
122.90000000000001
 21
95.208205000000007
 31
0.0
  0
LINE
  5
E1
  8
0
 10
120.8
 20
95.064059
 30
0.0
 11
122.90000000000001
 21
95.064059
 31
0.0
  0
LINE
  5
E2
  8
0
 10
120.8
 20
94.619016999999999
 30
0.0
 11
122.90000000000001
 21
94.619016999999999
 31
0.0
  0
LINE
  5
E3
  8
0
 10
120.8
 20
94.380788999999993
 30
0.0
 11
122.90000000000001
 21
94.380788999999993
 31
0.0
  0
LINE
  5
E4
  8
0
 10
120.8
 20
93.720231000000013
 30
0.0
 11
122.90000000000001
 21
93.720231000000013
 31
0.0
  0
LINE
  5
E5
  8
0
 10
120.8
 20
93.390917000000002
 30
0.0
 11
122.90000000000001
 21
93.390917000000002
 31
0.0
  0
LINE
  5
E6
  8
0
 10
120.8
 20
92.523150000000015
 30
0.0
 11
122.90000000000001
 21
92.523150000000015
 31
0.0
  0
LINE
  5
E7
  8
0
 10
120.8
 20
92.106890000000007
 30
0.0
 11
122.90000000000001
 21
92.106890000000007
 31
0.0
  0
LINE
  5
E8
  8
0
 10
120.8
 20
91.042826000000005
 30
0.0
 11
122.90000000000001
 21
91.042826000000005
 31
0.0
  0
LINE
  5
E9
  8
0
 10
120.8
 20
90.544856999999979
 30
0.0
 11
122.90000000000001
 21
90.544856999999979
 31
0.0
  0
LINE
  5
EA
  8
0
 10
120.8
 20
89.297877
 30
0.0
 11
122.90000000000001
 21
89.297877
 31
0.0
  0
LINE
  5
EB
  8
0
 10
120.8
 20
88.724459999999993
 30
0.0
 11
122.90000000000001
 21
88.724459999999993
 31
0.0
  0
LINE
  5
EC
  8
0
 10
120.8
 20
87.310245999999992
 30
0.0
 11
122.90000000000001
 21
87.310245999999992
 31
0.0
  0
LINE
  5
ED
  8
0
 10
120.8
 20
86.668591000000006
 30
0.0
 11
122.90000000000001
 21
86.668591000000006
 31
0.0
  0
LINE
  5
EE
  8
0
 10
120.8
 20
85.104927999999987
 30
0.0
 11
122.90000000000001
 21
85.104927999999987
 31
0.0
  0
LINE
  5
EF
  8
0
 10
120.8
 20
82.70965799999999
 30
0.0
 11
122.90000000000001
 21
82.70965799999999
 31
0.0
  0
LINE
  5
F0
  8
0
 10
120.8
 20
84.403106000000008
 30
0.0
 11
122.90000000000001
 21
84.403106000000008
 31
0.0
  0
LINE
  5
F1
  8
0
 10
120.8
 20
80.154556000000014
 30
0.0
 11
122.90000000000001
 21
80.154556000000014
 31
0.0
  0
LINE
  5
F2
  8
0
 10
120.8
 20
81.956493000000009
 30
0.0
 11
122.90000000000001
 21
81.956493000000009
 31
0.0
  0
LINE
  5
F3
  8
0
 10
120.8
 20
79.359521000000001
 30
0.0
 11
122.90000000000001
 21
79.359521000000001
 31
0.0
  0
LINE
  5
F4
  8
0
 10
120.8
 20
77.471754000000004
 30
0.0
 11
122.90000000000001
 21
77.471754000000004
 31
0.0
  0
LINE
  5
F5
  8
0
 10
120.8
 20
76.644846999999999
 30
0.0
 11
122.90000000000001
 21
76.644846999999999
 31
0.0
  0
LINE
  5
F6
  8
0
 10
120.8
 20
74.694991000000002
 30
0.0
 11
122.90000000000001
 21
74.694991000000002
 31
0.0
  0
LINE
  5
F7
  8
0
 10
120.8
 20
73.846609999999998
 30
0.0
 11
122.90000000000001
 21
73.846609999999998
 31
0.0
  0
LINE
  5
F8
  8
0
 10
120.8
 20
71.859185999999994
 30
0.0
 11
122.90000000000001
 21
71.859185999999994
 31
0.0
  0
LINE
  5
F9
  8
0
 10
120.8
 20
71.0
 30
0.0
 11
122.90000000000001
 21
71.0
 31
0.0
  0
LINE
  5
FA
  8
0
 10
120.8
 20
95.5
 30
0.0
 11
122.90000000000001
 21
95.5
 31
0.0
  0
LINE
  5
FB
  8
0
 10
120.8
 20
69.0
 30
0.0
 11
120.8
 21
71.0
 31
0.0
  0
LINE
  5
FC
  8
0
 10
122.90000000000001
 20
69.0
 30
0.0
 11
122.90000000000001
 21
71.0
 31
0.0
  0
LINE
  5
FD
  8
0
 10
123.90000000000001
 20
95.480384999999998
 30
0.0
 11
123.90000000000001
 21
95.5
 31
0.0
  0
LINE
  5
FE
  8
0
 10
126.0
 20
95.480384999999998
 30
0.0
 11
126.0
 21
95.5
 31
0.0
  0
LINE
  5
FF
  8
0
 10
126.0
 20
95.208205000000007
 30
0.0
 11
126.0
 21
95.432133999999991
 31
0.0
  0
LINE
  5
100
  8
0
 10
123.90000000000001
 20
95.208205000000007
 30
0.0
 11
123.90000000000001
 21
95.432133999999991
 31
0.0
  0
LINE
  5
101
  8
0
 10
123.90000000000001
 20
94.619016999999999
 30
0.0
 11
123.90000000000001
 21
95.064059
 31
0.0
  0
LINE
  5
102
  8
0
 10
126.0
 20
94.619016999999999
 30
0.0
 11
126.0
 21
95.064059
 31
0.0
  0
LINE
  5
103
  8
0
 10
126.0
 20
93.720231000000013
 30
0.0
 11
126.0
 21
94.380788999999993
 31
0.0
  0
LINE
  5
104
  8
0
 10
123.90000000000001
 20
93.720231000000013
 30
0.0
 11
123.90000000000001
 21
94.380788999999993
 31
0.0
  0
LINE
  5
105
  8
0
 10
123.90000000000001
 20
92.523150000000015
 30
0.0
 11
123.90000000000001
 21
93.390917000000002
 31
0.0
  0
LINE
  5
106
  8
0
 10
126.0
 20
92.523150000000015
 30
0.0
 11
126.0
 21
93.390917000000002
 31
0.0
  0
LINE
  5
107
  8
0
 10
126.0
 20
91.042826000000005
 30
0.0
 11
126.0
 21
92.106890000000007
 31
0.0
  0
LINE
  5
108
  8
0
 10
123.90000000000001
 20
91.042826000000005
 30
0.0
 11
123.90000000000001
 21
92.106890000000007
 31
0.0
  0
LINE
  5
109
  8
0
 10
123.90000000000001
 20
89.297877
 30
0.0
 11
123.90000000000001
 21
90.544856999999979
 31
0.0
  0
LINE
  5
10A
  8
0
 10
126.0
 20
89.297877
 30
0.0
 11
126.0
 21
90.544856999999979
 31
0.0
  0
LINE
  5
10B
  8
0
 10
123.90000000000001
 20
87.310245999999992
 30
0.0
 11
123.90000000000001
 21
88.724459999999993
 31
0.0
  0
LINE
  5
10C
  8
0
 10
126.0
 20
87.310245999999992
 30
0.0
 11
126.0
 21
88.724459999999993
 31
0.0
  0
LINE
  5
10D
  8
0
 10
123.90000000000001
 20
85.104927999999987
 30
0.0
 11
123.90000000000001
 21
86.668591000000006
 31
0.0
  0
LINE
  5
10E
  8
0
 10
126.0
 20
85.104927999999987
 30
0.0
 11
126.0
 21
86.668591000000006
 31
0.0
  0
LINE
  5
10F
  8
0
 10
123.90000000000001
 20
82.70965799999999
 30
0.0
 11
123.90000000000001
 21
84.403106000000008
 31
0.0
  0
LINE
  5
110
  8
0
 10
126.0
 20
82.70965799999999
 30
0.0
 11
126.0
 21
84.403106000000008
 31
0.0
  0
LINE
  5
111
  8
0
 10
123.90000000000001
 20
80.154556000000014
 30
0.0
 11
123.90000000000001
 21
81.956493000000009
 31
0.0
  0
LINE
  5
112
  8
0
 10
126.0
 20
80.154556000000014
 30
0.0
 11
126.0
 21
81.956493000000009
 31
0.0
  0
LINE
  5
113
  8
0
 10
126.0
 20
77.471754000000004
 30
0.0
 11
126.0
 21
79.359521000000001
 31
0.0
  0
LINE
  5
114
  8
0
 10
123.90000000000001
 20
77.471754000000004
 30
0.0
 11
123.90000000000001
 21
79.359521000000001
 31
0.0
  0
LINE
  5
115
  8
0
 10
123.90000000000001
 20
74.694991000000002
 30
0.0
 11
123.90000000000001
 21
76.644846999999999
 31
0.0
  0
LINE
  5
116
  8
0
 10
126.0
 20
74.694991000000002
 30
0.0
 11
126.0
 21
76.644846999999999
 31
0.0
  0
LINE
  5
117
  8
0
 10
126.0
 20
71.859185999999994
 30
0.0
 11
126.0
 21
73.846609999999998
 31
0.0
  0
LINE
  5
118
  8
0
 10
123.90000000000001
 20
71.859185999999994
 30
0.0
 11
123.90000000000001
 21
73.846609999999998
 31
0.0
  0
LINE
  5
119
  8
0
 10
123.90000000000001
 20
95.480384999999998
 30
0.0
 11
126.0
 21
95.480384999999998
 31
0.0
  0
LINE
  5
11A
  8
0
 10
123.90000000000001
 20
95.432133999999991
 30
0.0
 11
126.0
 21
95.432133999999991
 31
0.0
  0
LINE
  5
11B
  8
0
 10
123.90000000000001
 20
95.208205000000007
 30
0.0
 11
126.0
 21
95.208205000000007
 31
0.0
  0
LINE
  5
11C
  8
0
 10
123.90000000000001
 20
95.064059
 30
0.0
 11
126.0
 21
95.064059
 31
0.0
  0
LINE
  5
11D
  8
0
 10
123.90000000000001
 20
94.619016999999999
 30
0.0
 11
126.0
 21
94.619016999999999
 31
0.0
  0
LINE
  5
11E
  8
0
 10
123.90000000000001
 20
94.380788999999993
 30
0.0
 11
126.0
 21
94.380788999999993
 31
0.0
  0
LINE
  5
11F
  8
0
 10
123.90000000000001
 20
93.720231000000013
 30
0.0
 11
126.0
 21
93.720231000000013
 31
0.0
  0
LINE
  5
120
  8
0
 10
123.90000000000001
 20
93.390917000000002
 30
0.0
 11
126.0
 21
93.390917000000002
 31
0.0
  0
LINE
  5
121
  8
0
 10
123.90000000000001
 20
92.523150000000015
 30
0.0
 11
126.0
 21
92.523150000000015
 31
0.0
  0
LINE
  5
122
  8
0
 10
123.90000000000001
 20
92.106890000000007
 30
0.0
 11
126.0
 21
92.106890000000007
 31
0.0
  0
LINE
  5
123
  8
0
 10
123.90000000000001
 20
91.042826000000005
 30
0.0
 11
126.0
 21
91.042826000000005
 31
0.0
  0
LINE
  5
124
  8
0
 10
123.90000000000001
 20
90.544856999999979
 30
0.0
 11
126.0
 21
90.544856999999979
 31
0.0
  0
LINE
  5
125
  8
0
 10
123.90000000000001
 20
89.297877
 30
0.0
 11
126.0
 21
89.297877
 31
0.0
  0
LINE
  5
126
  8
0
 10
123.90000000000001
 20
88.724459999999993
 30
0.0
 11
126.0
 21
88.724459999999993
 31
0.0
  0
LINE
  5
127
  8
0
 10
123.90000000000001
 20
87.310245999999992
 30
0.0
 11
126.0
 21
87.310245999999992
 31
0.0
  0
LINE
  5
128
  8
0
 10
123.90000000000001
 20
86.668591000000006
 30
0.0
 11
126.0
 21
86.668591000000006
 31
0.0
  0
LINE
  5
129
  8
0
 10
123.90000000000001
 20
85.104927999999987
 30
0.0
 11
126.0
 21
85.104927999999987
 31
0.0
  0
LINE
  5
12A
  8
0
 10
123.90000000000001
 20
82.70965799999999
 30
0.0
 11
126.0
 21
82.70965799999999
 31
0.0
  0
LINE
  5
12B
  8
0
 10
123.90000000000001
 20
84.403106000000008
 30
0.0
 11
126.0
 21
84.403106000000008
 31
0.0
  0
LINE
  5
12C
  8
0
 10
123.90000000000001
 20
80.154556000000014
 30
0.0
 11
126.0
 21
80.154556000000014
 31
0.0
  0
LINE
  5
12D
  8
0
 10
123.90000000000001
 20
81.956493000000009
 30
0.0
 11
126.0
 21
81.956493000000009
 31
0.0
  0
LINE
  5
12E
  8
0
 10
123.90000000000001
 20
79.359521000000001
 30
0.0
 11
126.0
 21
79.359521000000001
 31
0.0
  0
LINE
  5
12F
  8
0
 10
123.90000000000001
 20
77.471754000000004
 30
0.0
 11
126.0
 21
77.471754000000004
 31
0.0
  0
LINE
  5
130
  8
0
 10
123.90000000000001
 20
76.644846999999999
 30
0.0
 11
126.0
 21
76.644846999999999
 31
0.0
  0
LINE
  5
131
  8
0
 10
123.90000000000001
 20
74.694991000000002
 30
0.0
 11
126.0
 21
74.694991000000002
 31
0.0
  0
LINE
  5
132
  8
0
 10
123.90000000000001
 20
73.846609999999998
 30
0.0
 11
126.0
 21
73.846609999999998
 31
0.0
  0
LINE
  5
133
  8
0
 10
123.90000000000001
 20
71.859185999999994
 30
0.0
 11
126.0
 21
71.859185999999994
 31
0.0
  0
LINE
  5
134
  8
0
 10
123.90000000000001
 20
71.0
 30
0.0
 11
126.0
 21
71.0
 31
0.0
  0
LINE
  5
135
  8
0
 10
123.90000000000001
 20
95.5
 30
0.0
 11
126.0
 21
95.5
 31
0.0
  0
LINE
  5
136
  8
0
 10
123.90000000000001
 20
69.0
 30
0.0
 11
123.90000000000001
 21
71.0
 31
0.0
  0
LINE
  5
137
  8
0
 10
126.0
 20
69.0
 30
0.0
 11
126.0
 21
71.0
 31
0.0
  0
LINE
  5
138
  8
0
 10
127.0
 20
95.480384999999998
 30
0.0
 11
127.0
 21
95.5
 31
0.0
  0
LINE
  5
139
  8
0
 10
129.09999999999999
 20
95.480384999999998
 30
0.0
 11
129.09999999999999
 21
95.5
 31
0.0
  0
LINE
  5
13A
  8
0
 10
129.09999999999999
 20
95.208205000000007
 30
0.0
 11
129.09999999999999
 21
95.432133999999991
 31
0.0
  0
LINE
  5
13B
  8
0
 10
127.0
 20
95.208205000000007
 30
0.0
 11
127.0
 21
95.432133999999991
 31
0.0
  0
LINE
  5
13C
  8
0
 10
127.0
 20
94.619016999999999
 30
0.0
 11
127.0
 21
95.064059
 31
0.0
  0
LINE
  5
13D
  8
0
 10
129.09999999999999
 20
94.619016999999999
 30
0.0
 11
129.09999999999999
 21
95.064059
 31
0.0
  0
LINE
  5
13E
  8
0
 10
129.09999999999999
 20
93.720231000000013
 30
0.0
 11
129.09999999999999
 21
94.380788999999993
 31
0.0
  0
LINE
  5
13F
  8
0
 10
127.0
 20
93.720231000000013
 30
0.0
 11
127.0
 21
94.380788999999993
 31
0.0
  0
LINE
  5
140
  8
0
 10
127.0
 20
92.523150000000015
 30
0.0
 11
127.0
 21
93.390917000000002
 31
0.0
  0
LINE
  5
141
  8
0
 10
129.09999999999999
 20
92.523150000000015
 30
0.0
 11
129.09999999999999
 21
93.390917000000002
 31
0.0
  0
LINE
  5
142
  8
0
 10
129.09999999999999
 20
91.042826000000005
 30
0.0
 11
129.09999999999999
 21
92.106890000000007
 31
0.0
  0
LINE
  5
143
  8
0
 10
127.0
 20
91.042826000000005
 30
0.0
 11
127.0
 21
92.106890000000007
 31
0.0
  0
LINE
  5
144
  8
0
 10
127.0
 20
89.297877
 30
0.0
 11
127.0
 21
90.544856999999979
 31
0.0
  0
LINE
  5
145
  8
0
 10
129.09999999999999
 20
89.297877
 30
0.0
 11
129.09999999999999
 21
90.544856999999979
 31
0.0
  0
LINE
  5
146
  8
0
 10
127.0
 20
87.310245999999992
 30
0.0
 11
127.0
 21
88.724459999999993
 31
0.0
  0
LINE
  5
147
  8
0
 10
129.09999999999999
 20
87.310245999999992
 30
0.0
 11
129.09999999999999
 21
88.724459999999993
 31
0.0
  0
LINE
  5
148
  8
0
 10
127.0
 20
85.104927999999987
 30
0.0
 11
127.0
 21
86.668591000000006
 31
0.0
  0
LINE
  5
149
  8
0
 10
129.09999999999999
 20
85.104927999999987
 30
0.0
 11
129.09999999999999
 21
86.668591000000006
 31
0.0
  0
LINE
  5
14A
  8
0
 10
127.0
 20
82.70965799999999
 30
0.0
 11
127.0
 21
84.403106000000008
 31
0.0
  0
LINE
  5
14B
  8
0
 10
129.09999999999999
 20
82.70965799999999
 30
0.0
 11
129.09999999999999
 21
84.403106000000008
 31
0.0
  0
LINE
  5
14C
  8
0
 10
127.0
 20
80.154556000000014
 30
0.0
 11
127.0
 21
81.956493000000009
 31
0.0
  0
LINE
  5
14D
  8
0
 10
129.09999999999999
 20
80.154556000000014
 30
0.0
 11
129.09999999999999
 21
81.956493000000009
 31
0.0
  0
LINE
  5
14E
  8
0
 10
129.09999999999999
 20
77.471754000000004
 30
0.0
 11
129.09999999999999
 21
79.359521000000001
 31
0.0
  0
LINE
  5
14F
  8
0
 10
127.0
 20
77.471754000000004
 30
0.0
 11
127.0
 21
79.359521000000001
 31
0.0
  0
LINE
  5
150
  8
0
 10
127.0
 20
74.694991000000002
 30
0.0
 11
127.0
 21
76.644846999999999
 31
0.0
  0
LINE
  5
151
  8
0
 10
129.09999999999999
 20
74.694991000000002
 30
0.0
 11
129.09999999999999
 21
76.644846999999999
 31
0.0
  0
LINE
  5
152
  8
0
 10
129.09999999999999
 20
71.859185999999994
 30
0.0
 11
129.09999999999999
 21
73.846609999999998
 31
0.0
  0
LINE
  5
153
  8
0
 10
127.0
 20
71.859185999999994
 30
0.0
 11
127.0
 21
73.846609999999998
 31
0.0
  0
LINE
  5
154
  8
0
 10
127.0
 20
95.480384999999998
 30
0.0
 11
129.09999999999999
 21
95.480384999999998
 31
0.0
  0
LINE
  5
155
  8
0
 10
127.0
 20
95.432133999999991
 30
0.0
 11
129.09999999999999
 21
95.432133999999991
 31
0.0
  0
LINE
  5
156
  8
0
 10
127.0
 20
95.208205000000007
 30
0.0
 11
129.09999999999999
 21
95.208205000000007
 31
0.0
  0
LINE
  5
157
  8
0
 10
127.0
 20
95.064059
 30
0.0
 11
129.09999999999999
 21
95.064059
 31
0.0
  0
LINE
  5
158
  8
0
 10
127.0
 20
94.619016999999999
 30
0.0
 11
129.09999999999999
 21
94.619016999999999
 31
0.0
  0
LINE
  5
159
  8
0
 10
127.0
 20
94.380788999999993
 30
0.0
 11
129.09999999999999
 21
94.380788999999993
 31
0.0
  0
LINE
  5
15A
  8
0
 10
127.0
 20
93.720231000000013
 30
0.0
 11
129.09999999999999
 21
93.720231000000013
 31
0.0
  0
LINE
  5
15B
  8
0
 10
127.0
 20
93.390917000000002
 30
0.0
 11
129.09999999999999
 21
93.390917000000002
 31
0.0
  0
LINE
  5
15C
  8
0
 10
127.0
 20
92.523150000000015
 30
0.0
 11
129.09999999999999
 21
92.523150000000015
 31
0.0
  0
LINE
  5
15D
  8
0
 10
127.0
 20
92.106890000000007
 30
0.0
 11
129.09999999999999
 21
92.106890000000007
 31
0.0
  0
LINE
  5
15E
  8
0
 10
127.0
 20
91.042826000000005
 30
0.0
 11
129.09999999999999
 21
91.042826000000005
 31
0.0
  0
LINE
  5
15F
  8
0
 10
127.0
 20
90.544856999999979
 30
0.0
 11
129.09999999999999
 21
90.544856999999979
 31
0.0
  0
LINE
  5
160
  8
0
 10
127.0
 20
89.297877
 30
0.0
 11
129.09999999999999
 21
89.297877
 31
0.0
  0
LINE
  5
161
  8
0
 10
127.0
 20
88.724459999999993
 30
0.0
 11
129.09999999999999
 21
88.724459999999993
 31
0.0
  0
LINE
  5
162
  8
0
 10
127.0
 20
87.310245999999992
 30
0.0
 11
129.09999999999999
 21
87.310245999999992
 31
0.0
  0
LINE
  5
163
  8
0
 10
127.0
 20
86.668591000000006
 30
0.0
 11
129.09999999999999
 21
86.668591000000006
 31
0.0
  0
LINE
  5
164
  8
0
 10
127.0
 20
85.104927999999987
 30
0.0
 11
129.09999999999999
 21
85.104927999999987
 31
0.0
  0
LINE
  5
165
  8
0
 10
127.0
 20
82.70965799999999
 30
0.0
 11
129.09999999999999
 21
82.70965799999999
 31
0.0
  0
LINE
  5
166
  8
0
 10
127.0
 20
84.403106000000008
 30
0.0
 11
129.09999999999999
 21
84.403106000000008
 31
0.0
  0
LINE
  5
167
  8
0
 10
127.0
 20
80.154556000000014
 30
0.0
 11
129.09999999999999
 21
80.154556000000014
 31
0.0
  0
LINE
  5
168
  8
0
 10
127.0
 20
81.956493000000009
 30
0.0
 11
129.09999999999999
 21
81.956493000000009
 31
0.0
  0
LINE
  5
169
  8
0
 10
127.0
 20
79.359521000000001
 30
0.0
 11
129.09999999999999
 21
79.359521000000001
 31
0.0
  0
LINE
  5
16A
  8
0
 10
127.0
 20
77.471754000000004
 30
0.0
 11
129.09999999999999
 21
77.471754000000004
 31
0.0
  0
LINE
  5
16B
  8
0
 10
127.0
 20
76.644846999999999
 30
0.0
 11
129.09999999999999
 21
76.644846999999999
 31
0.0
  0
LINE
  5
16C
  8
0
 10
127.0
 20
74.694991000000002
 30
0.0
 11
129.09999999999999
 21
74.694991000000002
 31
0.0
  0
LINE
  5
16D
  8
0
 10
127.0
 20
73.846609999999998
 30
0.0
 11
129.09999999999999
 21
73.846609999999998
 31
0.0
  0
LINE
  5
16E
  8
0
 10
127.0
 20
71.859185999999994
 30
0.0
 11
129.09999999999999
 21
71.859185999999994
 31
0.0
  0
LINE
  5
16F
  8
0
 10
127.0
 20
71.0
 30
0.0
 11
129.09999999999999
 21
71.0
 31
0.0
  0
LINE
  5
170
  8
0
 10
127.0
 20
95.5
 30
0.0
 11
129.09999999999999
 21
95.5
 31
0.0
  0
LINE
  5
171
  8
0
 10
127.0
 20
69.0
 30
0.0
 11
127.0
 21
71.0
 31
0.0
  0
LINE
  5
172
  8
0
 10
129.09999999999999
 20
69.0
 30
0.0
 11
129.09999999999999
 21
71.0
 31
0.0
  0
LINE
  5
173
  8
0
 10
130.09999999999999
 20
95.480384999999998
 30
0.0
 11
130.09999999999999
 21
95.5
 31
0.0
  0
LINE
  5
174
  8
0
 10
132.19999999999999
 20
95.480384999999998
 30
0.0
 11
132.19999999999999
 21
95.5
 31
0.0
  0
LINE
  5
175
  8
0
 10
132.19999999999999
 20
95.208205000000007
 30
0.0
 11
132.19999999999999
 21
95.432133999999991
 31
0.0
  0
LINE
  5
176
  8
0
 10
130.09999999999999
 20
95.208205000000007
 30
0.0
 11
130.09999999999999
 21
95.432133999999991
 31
0.0
  0
LINE
  5
177
  8
0
 10
130.09999999999999
 20
94.619016999999999
 30
0.0
 11
130.09999999999999
 21
95.064059
 31
0.0
  0
LINE
  5
178
  8
0
 10
132.19999999999999
 20
94.619016999999999
 30
0.0
 11
132.19999999999999
 21
95.064059
 31
0.0
  0
LINE
  5
179
  8
0
 10
132.19999999999999
 20
93.720231000000013
 30
0.0
 11
132.19999999999999
 21
94.380788999999993
 31
0.0
  0
LINE
  5
17A
  8
0
 10
130.09999999999999
 20
93.720231000000013
 30
0.0
 11
130.09999999999999
 21
94.380788999999993
 31
0.0
  0
LINE
  5
17B
  8
0
 10
130.09999999999999
 20
92.523150000000015
 30
0.0
 11
130.09999999999999
 21
93.390917000000002
 31
0.0
  0
LINE
  5
17C
  8
0
 10
132.19999999999999
 20
92.523150000000015
 30
0.0
 11
132.19999999999999
 21
93.390917000000002
 31
0.0
  0
LINE
  5
17D
  8
0
 10
132.19999999999999
 20
91.042826000000005
 30
0.0
 11
132.19999999999999
 21
92.106890000000007
 31
0.0
  0
LINE
  5
17E
  8
0
 10
130.09999999999999
 20
91.042826000000005
 30
0.0
 11
130.09999999999999
 21
92.106890000000007
 31
0.0
  0
LINE
  5
17F
  8
0
 10
130.09999999999999
 20
89.297877
 30
0.0
 11
130.09999999999999
 21
90.544856999999979
 31
0.0
  0
LINE
  5
180
  8
0
 10
132.19999999999999
 20
89.297877
 30
0.0
 11
132.19999999999999
 21
90.544856999999979
 31
0.0
  0
LINE
  5
181
  8
0
 10
130.09999999999999
 20
87.310245999999992
 30
0.0
 11
130.09999999999999
 21
88.724459999999993
 31
0.0
  0
LINE
  5
182
  8
0
 10
132.19999999999999
 20
87.310245999999992
 30
0.0
 11
132.19999999999999
 21
88.724459999999993
 31
0.0
  0
LINE
  5
183
  8
0
 10
130.09999999999999
 20
85.104927999999987
 30
0.0
 11
130.09999999999999
 21
86.668591000000006
 31
0.0
  0
LINE
  5
184
  8
0
 10
132.19999999999999
 20
85.104927999999987
 30
0.0
 11
132.19999999999999
 21
86.668591000000006
 31
0.0
  0
LINE
  5
185
  8
0
 10
130.09999999999999
 20
82.70965799999999
 30
0.0
 11
130.09999999999999
 21
84.403106000000008
 31
0.0
  0
LINE
  5
186
  8
0
 10
132.19999999999999
 20
82.70965799999999
 30
0.0
 11
132.19999999999999
 21
84.403106000000008
 31
0.0
  0
LINE
  5
187
  8
0
 10
130.09999999999999
 20
80.154556000000014
 30
0.0
 11
130.09999999999999
 21
81.956493000000009
 31
0.0
  0
LINE
  5
188
  8
0
 10
132.19999999999999
 20
80.154556000000014
 30
0.0
 11
132.19999999999999
 21
81.956493000000009
 31
0.0
  0
LINE
  5
189
  8
0
 10
132.19999999999999
 20
77.471754000000004
 30
0.0
 11
132.19999999999999
 21
79.359521000000001
 31
0.0
  0
LINE
  5
18A
  8
0
 10
130.09999999999999
 20
77.471754000000004
 30
0.0
 11
130.09999999999999
 21
79.359521000000001
 31
0.0
  0
LINE
  5
18B
  8
0
 10
130.09999999999999
 20
74.694991000000002
 30
0.0
 11
130.09999999999999
 21
76.644846999999999
 31
0.0
  0
LINE
  5
18C
  8
0
 10
132.19999999999999
 20
74.694991000000002
 30
0.0
 11
132.19999999999999
 21
76.644846999999999
 31
0.0
  0
LINE
  5
18D
  8
0
 10
132.19999999999999
 20
71.859185999999994
 30
0.0
 11
132.19999999999999
 21
73.846609999999998
 31
0.0
  0
LINE
  5
18E
  8
0
 10
130.09999999999999
 20
71.859185999999994
 30
0.0
 11
130.09999999999999
 21
73.846609999999998
 31
0.0
  0
LINE
  5
18F
  8
0
 10
130.09999999999999
 20
95.480384999999998
 30
0.0
 11
132.19999999999999
 21
95.480384999999998
 31
0.0
  0
LINE
  5
190
  8
0
 10
130.09999999999999
 20
95.432133999999991
 30
0.0
 11
132.19999999999999
 21
95.432133999999991
 31
0.0
  0
LINE
  5
191
  8
0
 10
130.09999999999999
 20
95.208205000000007
 30
0.0
 11
132.19999999999999
 21
95.208205000000007
 31
0.0
  0
LINE
  5
192
  8
0
 10
130.09999999999999
 20
95.064059
 30
0.0
 11
132.19999999999999
 21
95.064059
 31
0.0
  0
LINE
  5
193
  8
0
 10
130.09999999999999
 20
94.619016999999999
 30
0.0
 11
132.19999999999999
 21
94.619016999999999
 31
0.0
  0
LINE
  5
194
  8
0
 10
130.09999999999999
 20
94.380788999999993
 30
0.0
 11
132.19999999999999
 21
94.380788999999993
 31
0.0
  0
LINE
  5
195
  8
0
 10
130.09999999999999
 20
93.720231000000013
 30
0.0
 11
132.19999999999999
 21
93.720231000000013
 31
0.0
  0
LINE
  5
196
  8
0
 10
130.09999999999999
 20
93.390917000000002
 30
0.0
 11
132.19999999999999
 21
93.390917000000002
 31
0.0
  0
LINE
  5
197
  8
0
 10
130.09999999999999
 20
92.523150000000015
 30
0.0
 11
132.19999999999999
 21
92.523150000000015
 31
0.0
  0
LINE
  5
198
  8
0
 10
130.09999999999999
 20
92.106890000000007
 30
0.0
 11
132.19999999999999
 21
92.106890000000007
 31
0.0
  0
LINE
  5
199
  8
0
 10
130.09999999999999
 20
91.042826000000005
 30
0.0
 11
132.19999999999999
 21
91.042826000000005
 31
0.0
  0
LINE
  5
19A
  8
0
 10
130.09999999999999
 20
90.544856999999979
 30
0.0
 11
132.19999999999999
 21
90.544856999999979
 31
0.0
  0
LINE
  5
19B
  8
0
 10
130.09999999999999
 20
89.297877
 30
0.0
 11
132.19999999999999
 21
89.297877
 31
0.0
  0
LINE
  5
19C
  8
0
 10
130.09999999999999
 20
88.724459999999993
 30
0.0
 11
132.19999999999999
 21
88.724459999999993
 31
0.0
  0
LINE
  5
19D
  8
0
 10
130.09999999999999
 20
87.310245999999992
 30
0.0
 11
132.19999999999999
 21
87.310245999999992
 31
0.0
  0
LINE
  5
19E
  8
0
 10
130.09999999999999
 20
86.668591000000006
 30
0.0
 11
132.19999999999999
 21
86.668591000000006
 31
0.0
  0
LINE
  5
19F
  8
0
 10
130.09999999999999
 20
85.104927999999987
 30
0.0
 11
132.19999999999999
 21
85.104927999999987
 31
0.0
  0
LINE
  5
1A0
  8
0
 10
130.09999999999999
 20
82.70965799999999
 30
0.0
 11
132.19999999999999
 21
82.70965799999999
 31
0.0
  0
LINE
  5
1A1
  8
0
 10
130.09999999999999
 20
84.403106000000008
 30
0.0
 11
132.19999999999999
 21
84.403106000000008
 31
0.0
  0
LINE
  5
1A2
  8
0
 10
130.09999999999999
 20
80.154556000000014
 30
0.0
 11
132.19999999999999
 21
80.154556000000014
 31
0.0
  0
LINE
  5
1A3
  8
0
 10
130.09999999999999
 20
81.956493000000009
 30
0.0
 11
132.19999999999999
 21
81.956493000000009
 31
0.0
  0
LINE
  5
1A4
  8
0
 10
130.09999999999999
 20
79.359521000000001
 30
0.0
 11
132.19999999999999
 21
79.359521000000001
 31
0.0
  0
LINE
  5
1A5
  8
0
 10
130.09999999999999
 20
77.471754000000004
 30
0.0
 11
132.19999999999999
 21
77.471754000000004
 31
0.0
  0
LINE
  5
1A6
  8
0
 10
130.09999999999999
 20
76.644846999999999
 30
0.0
 11
132.19999999999999
 21
76.644846999999999
 31
0.0
  0
LINE
  5
1A7
  8
0
 10
130.09999999999999
 20
74.694991000000002
 30
0.0
 11
132.19999999999999
 21
74.694991000000002
 31
0.0
  0
LINE
  5
1A8
  8
0
 10
130.09999999999999
 20
73.846609999999998
 30
0.0
 11
132.19999999999999
 21
73.846609999999998
 31
0.0
  0
LINE
  5
1A9
  8
0
 10
130.09999999999999
 20
71.859185999999994
 30
0.0
 11
132.19999999999999
 21
71.859185999999994
 31
0.0
  0
LINE
  5
1AA
  8
0
 10
130.09999999999999
 20
71.0
 30
0.0
 11
132.19999999999999
 21
71.0
 31
0.0
  0
LINE
  5
1AB
  8
0
 10
130.09999999999999
 20
95.5
 30
0.0
 11
132.19999999999999
 21
95.5
 31
0.0
  0
LINE
  5
1AC
  8
0
 10
130.09999999999999
 20
69.0
 30
0.0
 11
130.09999999999999
 21
71.0
 31
0.0
  0
LINE
  5
1AD
  8
0
 10
132.19999999999999
 20
69.0
 30
0.0
 11
132.19999999999999
 21
71.0
 31
0.0
  0
LINE
  5
1AE
  8
0
 10
133.19999999999999
 20
95.480384999999998
 30
0.0
 11
133.19999999999999
 21
95.5
 31
0.0
  0
LINE
  5
1AF
  8
0
 10
135.30000000000001
 20
95.480384999999998
 30
0.0
 11
135.30000000000001
 21
95.5
 31
0.0
  0
LINE
  5
1B0
  8
0
 10
135.30000000000001
 20
95.208205000000007
 30
0.0
 11
135.30000000000001
 21
95.432133999999991
 31
0.0
  0
LINE
  5
1B1
  8
0
 10
133.19999999999999
 20
95.208205000000007
 30
0.0
 11
133.19999999999999
 21
95.432133999999991
 31
0.0
  0
LINE
  5
1B2
  8
0
 10
133.19999999999999
 20
94.619016999999999
 30
0.0
 11
133.19999999999999
 21
95.064059
 31
0.0
  0
LINE
  5
1B3
  8
0
 10
135.30000000000001
 20
94.619016999999999
 30
0.0
 11
135.30000000000001
 21
95.064059
 31
0.0
  0
LINE
  5
1B4
  8
0
 10
135.30000000000001
 20
93.720231000000013
 30
0.0
 11
135.30000000000001
 21
94.380788999999993
 31
0.0
  0
LINE
  5
1B5
  8
0
 10
133.19999999999999
 20
93.720231000000013
 30
0.0
 11
133.19999999999999
 21
94.380788999999993
 31
0.0
  0
LINE
  5
1B6
  8
0
 10
133.19999999999999
 20
92.523150000000015
 30
0.0
 11
133.19999999999999
 21
93.390917000000002
 31
0.0
  0
LINE
  5
1B7
  8
0
 10
135.30000000000001
 20
92.523150000000015
 30
0.0
 11
135.30000000000001
 21
93.390917000000002
 31
0.0
  0
LINE
  5
1B8
  8
0
 10
135.30000000000001
 20
91.042826000000005
 30
0.0
 11
135.30000000000001
 21
92.106890000000007
 31
0.0
  0
LINE
  5
1B9
  8
0
 10
133.19999999999999
 20
91.042826000000005
 30
0.0
 11
133.19999999999999
 21
92.106890000000007
 31
0.0
  0
LINE
  5
1BA
  8
0
 10
133.19999999999999
 20
89.297877
 30
0.0
 11
133.19999999999999
 21
90.544856999999979
 31
0.0
  0
LINE
  5
1BB
  8
0
 10
135.30000000000001
 20
89.297877
 30
0.0
 11
135.30000000000001
 21
90.544856999999979
 31
0.0
  0
LINE
  5
1BC
  8
0
 10
133.19999999999999
 20
87.310245999999992
 30
0.0
 11
133.19999999999999
 21
88.724459999999993
 31
0.0
  0
LINE
  5
1BD
  8
0
 10
135.30000000000001
 20
87.310245999999992
 30
0.0
 11
135.30000000000001
 21
88.724459999999993
 31
0.0
  0
LINE
  5
1BE
  8
0
 10
133.19999999999999
 20
85.104927999999987
 30
0.0
 11
133.19999999999999
 21
86.668591000000006
 31
0.0
  0
LINE
  5
1BF
  8
0
 10
135.30000000000001
 20
85.104927999999987
 30
0.0
 11
135.30000000000001
 21
86.668591000000006
 31
0.0
  0
LINE
  5
1C0
  8
0
 10
133.19999999999999
 20
82.70965799999999
 30
0.0
 11
133.19999999999999
 21
84.403106000000008
 31
0.0
  0
LINE
  5
1C1
  8
0
 10
135.30000000000001
 20
82.70965799999999
 30
0.0
 11
135.30000000000001
 21
84.403106000000008
 31
0.0
  0
LINE
  5
1C2
  8
0
 10
133.19999999999999
 20
80.154556000000014
 30
0.0
 11
133.19999999999999
 21
81.956493000000009
 31
0.0
  0
LINE
  5
1C3
  8
0
 10
135.30000000000001
 20
80.154556000000014
 30
0.0
 11
135.30000000000001
 21
81.956493000000009
 31
0.0
  0
LINE
  5
1C4
  8
0
 10
135.30000000000001
 20
77.471754000000004
 30
0.0
 11
135.30000000000001
 21
79.359521000000001
 31
0.0
  0
LINE
  5
1C5
  8
0
 10
133.19999999999999
 20
77.471754000000004
 30
0.0
 11
133.19999999999999
 21
79.359521000000001
 31
0.0
  0
LINE
  5
1C6
  8
0
 10
133.19999999999999
 20
74.694991000000002
 30
0.0
 11
133.19999999999999
 21
76.644846999999999
 31
0.0
  0
LINE
  5
1C7
  8
0
 10
135.30000000000001
 20
74.694991000000002
 30
0.0
 11
135.30000000000001
 21
76.644846999999999
 31
0.0
  0
LINE
  5
1C8
  8
0
 10
135.30000000000001
 20
71.859185999999994
 30
0.0
 11
135.30000000000001
 21
73.846609999999998
 31
0.0
  0
LINE
  5
1C9
  8
0
 10
133.19999999999999
 20
71.859185999999994
 30
0.0
 11
133.19999999999999
 21
73.846609999999998
 31
0.0
  0
LINE
  5
1CA
  8
0
 10
133.19999999999999
 20
95.480384999999998
 30
0.0
 11
135.30000000000001
 21
95.480384999999998
 31
0.0
  0
LINE
  5
1CB
  8
0
 10
133.19999999999999
 20
95.432133999999991
 30
0.0
 11
135.30000000000001
 21
95.432133999999991
 31
0.0
  0
LINE
  5
1CC
  8
0
 10
133.19999999999999
 20
95.208205000000007
 30
0.0
 11
135.30000000000001
 21
95.208205000000007
 31
0.0
  0
LINE
  5
1CD
  8
0
 10
133.19999999999999
 20
95.064059
 30
0.0
 11
135.30000000000001
 21
95.064059
 31
0.0
  0
LINE
  5
1CE
  8
0
 10
133.19999999999999
 20
94.619016999999999
 30
0.0
 11
135.30000000000001
 21
94.619016999999999
 31
0.0
  0
LINE
  5
1CF
  8
0
 10
133.19999999999999
 20
94.380788999999993
 30
0.0
 11
135.30000000000001
 21
94.380788999999993
 31
0.0
  0
LINE
  5
1D0
  8
0
 10
133.19999999999999
 20
93.720231000000013
 30
0.0
 11
135.30000000000001
 21
93.720231000000013
 31
0.0
  0
LINE
  5
1D1
  8
0
 10
133.19999999999999
 20
93.390917000000002
 30
0.0
 11
135.30000000000001
 21
93.390917000000002
 31
0.0
  0
LINE
  5
1D2
  8
0
 10
133.19999999999999
 20
92.523150000000015
 30
0.0
 11
135.30000000000001
 21
92.523150000000015
 31
0.0
  0
LINE
  5
1D3
  8
0
 10
133.19999999999999
 20
92.106890000000007
 30
0.0
 11
135.30000000000001
 21
92.106890000000007
 31
0.0
  0
LINE
  5
1D4
  8
0
 10
133.19999999999999
 20
91.042826000000005
 30
0.0
 11
135.30000000000001
 21
91.042826000000005
 31
0.0
  0
LINE
  5
1D5
  8
0
 10
133.19999999999999
 20
90.544856999999979
 30
0.0
 11
135.30000000000001
 21
90.544856999999979
 31
0.0
  0
LINE
  5
1D6
  8
0
 10
133.19999999999999
 20
89.297877
 30
0.0
 11
135.30000000000001
 21
89.297877
 31
0.0
  0
LINE
  5
1D7
  8
0
 10
133.19999999999999
 20
88.724459999999993
 30
0.0
 11
135.30000000000001
 21
88.724459999999993
 31
0.0
  0
LINE
  5
1D8
  8
0
 10
133.19999999999999
 20
87.310245999999992
 30
0.0
 11
135.30000000000001
 21
87.310245999999992
 31
0.0
  0
LINE
  5
1D9
  8
0
 10
133.19999999999999
 20
86.668591000000006
 30
0.0
 11
135.30000000000001
 21
86.668591000000006
 31
0.0
  0
LINE
  5
1DA
  8
0
 10
133.19999999999999
 20
85.104927999999987
 30
0.0
 11
135.30000000000001
 21
85.104927999999987
 31
0.0
  0
LINE
  5
1DB
  8
0
 10
133.19999999999999
 20
82.70965799999999
 30
0.0
 11
135.30000000000001
 21
82.70965799999999
 31
0.0
  0
LINE
  5
1DC
  8
0
 10
133.19999999999999
 20
84.403106000000008
 30
0.0
 11
135.30000000000001
 21
84.403106000000008
 31
0.0
  0
LINE
  5
1DD
  8
0
 10
133.19999999999999
 20
80.154556000000014
 30
0.0
 11
135.30000000000001
 21
80.154556000000014
 31
0.0
  0
LINE
  5
1DE
  8
0
 10
133.19999999999999
 20
81.956493000000009
 30
0.0
 11
135.30000000000001
 21
81.956493000000009
 31
0.0
  0
LINE
  5
1DF
  8
0
 10
133.19999999999999
 20
79.359521000000001
 30
0.0
 11
135.30000000000001
 21
79.359521000000001
 31
0.0
  0
LINE
  5
1E0
  8
0
 10
133.19999999999999
 20
77.471754000000004
 30
0.0
 11
135.30000000000001
 21
77.471754000000004
 31
0.0
  0
LINE
  5
1E1
  8
0
 10
133.19999999999999
 20
76.644846999999999
 30
0.0
 11
135.30000000000001
 21
76.644846999999999
 31
0.0
  0
LINE
  5
1E2
  8
0
 10
133.19999999999999
 20
74.694991000000002
 30
0.0
 11
135.30000000000001
 21
74.694991000000002
 31
0.0
  0
LINE
  5
1E3
  8
0
 10
133.19999999999999
 20
73.846609999999998
 30
0.0
 11
135.30000000000001
 21
73.846609999999998
 31
0.0
  0
LINE
  5
1E4
  8
0
 10
133.19999999999999
 20
71.859185999999994
 30
0.0
 11
135.30000000000001
 21
71.859185999999994
 31
0.0
  0
LINE
  5
1E5
  8
0
 10
133.19999999999999
 20
71.0
 30
0.0
 11
135.30000000000001
 21
71.0
 31
0.0
  0
LINE
  5
1E6
  8
0
 10
133.19999999999999
 20
95.5
 30
0.0
 11
135.30000000000001
 21
95.5
 31
0.0
  0
LINE
  5
1E7
  8
0
 10
133.19999999999999
 20
69.0
 30
0.0
 11
133.19999999999999
 21
71.0
 31
0.0
  0
LINE
  5
1E8
  8
0
 10
135.30000000000001
 20
69.0
 30
0.0
 11
135.30000000000001
 21
71.0
 31
0.0
  0
LINE
  5
1E9
  8
0
 10
114.09999999999999
 20
94.410987000000006
 30
0.0
 11
114.59999999999999
 21
95.5
 31
0.0
  0
LINE
  5
1EA
  8
0
 10
116.7
 20
95.5
 30
0.0
 11
117.2
 21
94.410987000000006
 31
0.0
  0
LINE
  5
1EB
  8
0
 10
117.2
 20
94.410987000000006
 30
0.0
 11
117.7
 21
95.5
 31
0.0
  0
LINE
  5
1EC
  8
0
 10
119.8
 20
95.5
 30
0.0
 11
120.3
 21
94.410987000000006
 31
0.0
  0
LINE
  5
1ED
  8
0
 10
120.3
 20
94.410987000000006
 30
0.0
 11
120.8
 21
95.5
 31
0.0
  0
LINE
  5
1EE
  8
0
 10
122.90000000000001
 20
95.5
 30
0.0
 11
123.40000000000001
 21
94.410987000000006
 31
0.0
  0
LINE
  5
1EF
  8
0
 10
123.40000000000001
 20
94.410987000000006
 30
0.0
 11
123.90000000000001
 21
95.5
 31
0.0
  0
LINE
  5
1F0
  8
0
 10
126.0
 20
95.5
 30
0.0
 11
126.5
 21
94.410987000000006
 31
0.0
  0
LINE
  5
1F1
  8
0
 10
126.5
 20
94.410987000000006
 30
0.0
 11
127.0
 21
95.5
 31
0.0
  0
LINE
  5
1F2
  8
0
 10
129.09999999999999
 20
95.5
 30
0.0
 11
129.59999999999999
 21
94.410987000000006
 31
0.0
  0
LINE
  5
1F3
  8
0
 10
129.59999999999999
 20
94.410987000000006
 30
0.0
 11
130.09999999999999
 21
95.5
 31
0.0
  0
LINE
  5
1F4
  8
0
 10
132.19999999999999
 20
95.5
 30
0.0
 11
132.69999999999999
 21
94.410987000000006
 31
0.0
  0
LINE
  5
1F5
  8
0
 10
132.69999999999999
 20
94.410987000000006
 30
0.0
 11
133.19999999999999
 21
95.5
 31
0.0
  0
LINE
  5
1F6
  8
0
 10
135.30000000000001
 20
95.5
 30
0.0
 11
135.80000000000001
 21
94.410987000000006
 31
0.0
  0
LINE
  5
1F7
  8
0
 10
135.30000000000001
 20
44.5
 30
0.0
 11
135.80000000000001
 21
45.589013000000001
 31
0.0
  0
LINE
  5
1F8
  8
0
 10
132.69999999999999
 20
45.589013000000001
 30
0.0
 11
133.19999999999999
 21
44.5
 31
0.0
  0
LINE
  5
1F9
  8
0
 10
132.19999999999999
 20
44.5
 30
0.0
 11
132.69999999999999
 21
45.589013000000001
 31
0.0
  0
LINE
  5
1FA
  8
0
 10
129.59999999999999
 20
45.589013000000001
 30
0.0
 11
130.09999999999999
 21
44.5
 31
0.0
  0
LINE
  5
1FB
  8
0
 10
129.09999999999999
 20
44.5
 30
0.0
 11
129.59999999999999
 21
45.589013000000001
 31
0.0
  0
LINE
  5
1FC
  8
0
 10
126.5
 20
45.589013000000001
 30
0.0
 11
127.0
 21
44.5
 31
0.0
  0
LINE
  5
1FD
  8
0
 10
126.0
 20
44.5
 30
0.0
 11
126.5
 21
45.589013000000001
 31
0.0
  0
LINE
  5
1FE
  8
0
 10
123.40000000000001
 20
45.589013000000001
 30
0.0
 11
123.90000000000001
 21
44.5
 31
0.0
  0
LINE
  5
1FF
  8
0
 10
122.90000000000001
 20
44.5
 30
0.0
 11
123.40000000000001
 21
45.589013000000001
 31
0.0
  0
LINE
  5
200
  8
0
 10
120.3
 20
45.589013000000001
 30
0.0
 11
120.8
 21
44.5
 31
0.0
  0
LINE
  5
201
  8
0
 10
119.8
 20
44.5
 30
0.0
 11
120.3
 21
45.589013000000001
 31
0.0
  0
LINE
  5
202
  8
0
 10
117.2
 20
45.589013000000001
 30
0.0
 11
117.7
 21
44.5
 31
0.0
  0
LINE
  5
203
  8
0
 10
116.7
 20
44.5
 30
0.0
 11
117.2
 21
45.589013000000001
 31
0.0
  0
LINE
  5
204
  8
0
 10
114.09999999999999
 20
45.589013000000001
 30
0.0
 11
114.59999999999999
 21
44.5
 31
0.0
  0
LINE
  5
205
  8
0
 10
133.19999999999999
 20
44.5
 30
0.0
 11
135.30000000000001
 21
44.5
 31
0.0
  0
LINE
  5
206
  8
0
 10
133.19999999999999
 20
69.0
 30
0.0
 11
135.30000000000001
 21
69.0
 31
0.0
  0
LINE
  5
207
  8
0
 10
133.19999999999999
 20
68.140814000000006
 30
0.0
 11
135.30000000000001
 21
68.140814000000006
 31
0.0
  0
LINE
  5
208
  8
0
 10
133.19999999999999
 20
66.153390000000002
 30
0.0
 11
135.30000000000001
 21
66.153390000000002
 31
0.0
  0
LINE
  5
209
  8
0
 10
133.19999999999999
 20
65.305008999999984
 30
0.0
 11
135.30000000000001
 21
65.305008999999984
 31
0.0
  0
LINE
  5
20A
  8
0
 10
133.19999999999999
 20
63.355153000000001
 30
0.0
 11
135.30000000000001
 21
63.355153000000001
 31
0.0
  0
LINE
  5
20B
  8
0
 10
133.19999999999999
 20
62.528246000000003
 30
0.0
 11
135.30000000000001
 21
62.528246000000003
 31
0.0
  0
LINE
  5
20C
  8
0
 10
133.19999999999999
 20
60.640479000000013
 30
0.0
 11
135.30000000000001
 21
60.640479000000013
 31
0.0
  0
LINE
  5
20D
  8
0
 10
133.19999999999999
 20
58.043506999999998
 30
0.0
 11
135.30000000000001
 21
58.043506999999998
 31
0.0
  0
LINE
  5
20E
  8
0
 10
133.19999999999999
 20
59.845443999999993
 30
0.0
 11
135.30000000000001
 21
59.845443999999993
 31
0.0
  0
LINE
  5
20F
  8
0
 10
133.19999999999999
 20
55.596893999999992
 30
0.0
 11
135.30000000000001
 21
55.596893999999992
 31
0.0
  0
LINE
  5
210
  8
0
 10
133.19999999999999
 20
57.290342000000003
 30
0.0
 11
135.30000000000001
 21
57.290342000000003
 31
0.0
  0
LINE
  5
211
  8
0
 10
133.19999999999999
 20
54.895071999999999
 30
0.0
 11
135.30000000000001
 21
54.895071999999999
 31
0.0
  0
LINE
  5
212
  8
0
 10
133.19999999999999
 20
53.331409000000001
 30
0.0
 11
135.30000000000001
 21
53.331409000000001
 31
0.0
  0
LINE
  5
213
  8
0
 10
133.19999999999999
 20
52.689754000000001
 30
0.0
 11
135.30000000000001
 21
52.689754000000001
 31
0.0
  0
LINE
  5
214
  8
0
 10
133.19999999999999
 20
51.275539999999992
 30
0.0
 11
135.30000000000001
 21
51.275539999999992
 31
0.0
  0
LINE
  5
215
  8
0
 10
133.19999999999999
 20
50.702123
 30
0.0
 11
135.30000000000001
 21
50.702123
 31
0.0
  0
LINE
  5
216
  8
0
 10
133.19999999999999
 20
49.455143
 30
0.0
 11
135.30000000000001
 21
49.455143
 31
0.0
  0
LINE
  5
217
  8
0
 10
133.19999999999999
 20
48.957174000000002
 30
0.0
 11
135.30000000000001
 21
48.957174000000002
 31
0.0
  0
LINE
  5
218
  8
0
 10
133.19999999999999
 20
47.89311
 30
0.0
 11
135.30000000000001
 21
47.89311
 31
0.0
  0
LINE
  5
219
  8
0
 10
133.19999999999999
 20
47.476849999999992
 30
0.0
 11
135.30000000000001
 21
47.476849999999992
 31
0.0
  0
LINE
  5
21A
  8
0
 10
133.19999999999999
 20
46.609082999999998
 30
0.0
 11
135.30000000000001
 21
46.609082999999998
 31
0.0
  0
LINE
  5
21B
  8
0
 10
133.19999999999999
 20
46.279769000000002
 30
0.0
 11
135.30000000000001
 21
46.279769000000002
 31
0.0
  0
LINE
  5
21C
  8
0
 10
133.19999999999999
 20
45.619211
 30
0.0
 11
135.30000000000001
 21
45.619211
 31
0.0
  0
LINE
  5
21D
  8
0
 10
133.19999999999999
 20
45.380983000000001
 30
0.0
 11
135.30000000000001
 21
45.380983000000001
 31
0.0
  0
LINE
  5
21E
  8
0
 10
133.19999999999999
 20
44.935941
 30
0.0
 11
135.30000000000001
 21
44.935941
 31
0.0
  0
LINE
  5
21F
  8
0
 10
133.19999999999999
 20
44.791794999999993
 30
0.0
 11
135.30000000000001
 21
44.791794999999993
 31
0.0
  0
LINE
  5
220
  8
0
 10
133.19999999999999
 20
44.567866000000002
 30
0.0
 11
135.30000000000001
 21
44.567866000000002
 31
0.0
  0
LINE
  5
221
  8
0
 10
133.19999999999999
 20
44.519615000000002
 30
0.0
 11
135.30000000000001
 21
44.519615000000002
 31
0.0
  0
LINE
  5
222
  8
0
 10
133.19999999999999
 20
68.140814000000006
 30
0.0
 11
133.19999999999999
 21
66.153390000000002
 31
0.0
  0
LINE
  5
223
  8
0
 10
135.30000000000001
 20
68.140814000000006
 30
0.0
 11
135.30000000000001
 21
66.153390000000002
 31
0.0
  0
LINE
  5
224
  8
0
 10
135.30000000000001
 20
65.305008999999984
 30
0.0
 11
135.30000000000001
 21
63.355153000000001
 31
0.0
  0
LINE
  5
225
  8
0
 10
133.19999999999999
 20
65.305008999999984
 30
0.0
 11
133.19999999999999
 21
63.355153000000001
 31
0.0
  0
LINE
  5
226
  8
0
 10
133.19999999999999
 20
62.528246000000003
 30
0.0
 11
133.19999999999999
 21
60.640479000000013
 31
0.0
  0
LINE
  5
227
  8
0
 10
135.30000000000001
 20
62.528246000000003
 30
0.0
 11
135.30000000000001
 21
60.640479000000013
 31
0.0
  0
LINE
  5
228
  8
0
 10
135.30000000000001
 20
59.845443999999993
 30
0.0
 11
135.30000000000001
 21
58.043506999999998
 31
0.0
  0
LINE
  5
229
  8
0
 10
133.19999999999999
 20
59.845443999999993
 30
0.0
 11
133.19999999999999
 21
58.043506999999998
 31
0.0
  0
LINE
  5
22A
  8
0
 10
135.30000000000001
 20
57.290342000000003
 30
0.0
 11
135.30000000000001
 21
55.596893999999992
 31
0.0
  0
LINE
  5
22B
  8
0
 10
133.19999999999999
 20
57.290342000000003
 30
0.0
 11
133.19999999999999
 21
55.596893999999992
 31
0.0
  0
LINE
  5
22C
  8
0
 10
135.30000000000001
 20
54.895071999999999
 30
0.0
 11
135.30000000000001
 21
53.331409000000001
 31
0.0
  0
LINE
  5
22D
  8
0
 10
133.19999999999999
 20
54.895071999999999
 30
0.0
 11
133.19999999999999
 21
53.331409000000001
 31
0.0
  0
LINE
  5
22E
  8
0
 10
135.30000000000001
 20
52.689754000000001
 30
0.0
 11
135.30000000000001
 21
51.275539999999992
 31
0.0
  0
LINE
  5
22F
  8
0
 10
133.19999999999999
 20
52.689754000000001
 30
0.0
 11
133.19999999999999
 21
51.275539999999992
 31
0.0
  0
LINE
  5
230
  8
0
 10
135.30000000000001
 20
50.702123
 30
0.0
 11
135.30000000000001
 21
49.455143
 31
0.0
  0
LINE
  5
231
  8
0
 10
133.19999999999999
 20
50.702123
 30
0.0
 11
133.19999999999999
 21
49.455143
 31
0.0
  0
LINE
  5
232
  8
0
 10
133.19999999999999
 20
48.957174000000002
 30
0.0
 11
133.19999999999999
 21
47.89311
 31
0.0
  0
LINE
  5
233
  8
0
 10
135.30000000000001
 20
48.957174000000002
 30
0.0
 11
135.30000000000001
 21
47.89311
 31
0.0
  0
LINE
  5
234
  8
0
 10
135.30000000000001
 20
47.476849999999992
 30
0.0
 11
135.30000000000001
 21
46.609082999999998
 31
0.0
  0
LINE
  5
235
  8
0
 10
133.19999999999999
 20
47.476849999999992
 30
0.0
 11
133.19999999999999
 21
46.609082999999998
 31
0.0
  0
LINE
  5
236
  8
0
 10
133.19999999999999
 20
46.279769000000002
 30
0.0
 11
133.19999999999999
 21
45.619211
 31
0.0
  0
LINE
  5
237
  8
0
 10
135.30000000000001
 20
46.279769000000002
 30
0.0
 11
135.30000000000001
 21
45.619211
 31
0.0
  0
LINE
  5
238
  8
0
 10
135.30000000000001
 20
45.380983000000001
 30
0.0
 11
135.30000000000001
 21
44.935941
 31
0.0
  0
LINE
  5
239
  8
0
 10
133.19999999999999
 20
45.380983000000001
 30
0.0
 11
133.19999999999999
 21
44.935941
 31
0.0
  0
LINE
  5
23A
  8
0
 10
133.19999999999999
 20
44.791794999999993
 30
0.0
 11
133.19999999999999
 21
44.567866000000002
 31
0.0
  0
LINE
  5
23B
  8
0
 10
135.30000000000001
 20
44.791794999999993
 30
0.0
 11
135.30000000000001
 21
44.567866000000002
 31
0.0
  0
LINE
  5
23C
  8
0
 10
135.30000000000001
 20
44.519615000000002
 30
0.0
 11
135.30000000000001
 21
44.5
 31
0.0
  0
LINE
  5
23D
  8
0
 10
133.19999999999999
 20
44.519615000000002
 30
0.0
 11
133.19999999999999
 21
44.5
 31
0.0
  0
LINE
  5
23E
  8
0
 10
130.09999999999999
 20
44.5
 30
0.0
 11
132.19999999999999
 21
44.5
 31
0.0
  0
LINE
  5
23F
  8
0
 10
130.09999999999999
 20
69.0
 30
0.0
 11
132.19999999999999
 21
69.0
 31
0.0
  0
LINE
  5
240
  8
0
 10
130.09999999999999
 20
68.140814000000006
 30
0.0
 11
132.19999999999999
 21
68.140814000000006
 31
0.0
  0
LINE
  5
241
  8
0
 10
130.09999999999999
 20
66.153390000000002
 30
0.0
 11
132.19999999999999
 21
66.153390000000002
 31
0.0
  0
LINE
  5
242
  8
0
 10
130.09999999999999
 20
65.305008999999984
 30
0.0
 11
132.19999999999999
 21
65.305008999999984
 31
0.0
  0
LINE
  5
243
  8
0
 10
130.09999999999999
 20
63.355153000000001
 30
0.0
 11
132.19999999999999
 21
63.355153000000001
 31
0.0
  0
LINE
  5
244
  8
0
 10
130.09999999999999
 20
62.528246000000003
 30
0.0
 11
132.19999999999999
 21
62.528246000000003
 31
0.0
  0
LINE
  5
245
  8
0
 10
130.09999999999999
 20
60.640479000000013
 30
0.0
 11
132.19999999999999
 21
60.640479000000013
 31
0.0
  0
LINE
  5
246
  8
0
 10
130.09999999999999
 20
58.043506999999998
 30
0.0
 11
132.19999999999999
 21
58.043506999999998
 31
0.0
  0
LINE
  5
247
  8
0
 10
130.09999999999999
 20
59.845443999999993
 30
0.0
 11
132.19999999999999
 21
59.845443999999993
 31
0.0
  0
LINE
  5
248
  8
0
 10
130.09999999999999
 20
55.596893999999992
 30
0.0
 11
132.19999999999999
 21
55.596893999999992
 31
0.0
  0
LINE
  5
249
  8
0
 10
130.09999999999999
 20
57.290342000000003
 30
0.0
 11
132.19999999999999
 21
57.290342000000003
 31
0.0
  0
LINE
  5
24A
  8
0
 10
130.09999999999999
 20
54.895071999999999
 30
0.0
 11
132.19999999999999
 21
54.895071999999999
 31
0.0
  0
LINE
  5
24B
  8
0
 10
130.09999999999999
 20
53.331409000000001
 30
0.0
 11
132.19999999999999
 21
53.331409000000001
 31
0.0
  0
LINE
  5
24C
  8
0
 10
130.09999999999999
 20
52.689754000000001
 30
0.0
 11
132.19999999999999
 21
52.689754000000001
 31
0.0
  0
LINE
  5
24D
  8
0
 10
130.09999999999999
 20
51.275539999999992
 30
0.0
 11
132.19999999999999
 21
51.275539999999992
 31
0.0
  0
LINE
  5
24E
  8
0
 10
130.09999999999999
 20
50.702123
 30
0.0
 11
132.19999999999999
 21
50.702123
 31
0.0
  0
LINE
  5
24F
  8
0
 10
130.09999999999999
 20
49.455143
 30
0.0
 11
132.19999999999999
 21
49.455143
 31
0.0
  0
LINE
  5
250
  8
0
 10
130.09999999999999
 20
48.957174000000002
 30
0.0
 11
132.19999999999999
 21
48.957174000000002
 31
0.0
  0
LINE
  5
251
  8
0
 10
130.09999999999999
 20
47.89311
 30
0.0
 11
132.19999999999999
 21
47.89311
 31
0.0
  0
LINE
  5
252
  8
0
 10
130.09999999999999
 20
47.476849999999992
 30
0.0
 11
132.19999999999999
 21
47.476849999999992
 31
0.0
  0
LINE
  5
253
  8
0
 10
130.09999999999999
 20
46.609082999999998
 30
0.0
 11
132.19999999999999
 21
46.609082999999998
 31
0.0
  0
LINE
  5
254
  8
0
 10
130.09999999999999
 20
46.279769000000002
 30
0.0
 11
132.19999999999999
 21
46.279769000000002
 31
0.0
  0
LINE
  5
255
  8
0
 10
130.09999999999999
 20
45.619211
 30
0.0
 11
132.19999999999999
 21
45.619211
 31
0.0
  0
LINE
  5
256
  8
0
 10
130.09999999999999
 20
45.380983000000001
 30
0.0
 11
132.19999999999999
 21
45.380983000000001
 31
0.0
  0
LINE
  5
257
  8
0
 10
130.09999999999999
 20
44.935941
 30
0.0
 11
132.19999999999999
 21
44.935941
 31
0.0
  0
LINE
  5
258
  8
0
 10
130.09999999999999
 20
44.791794999999993
 30
0.0
 11
132.19999999999999
 21
44.791794999999993
 31
0.0
  0
LINE
  5
259
  8
0
 10
130.09999999999999
 20
44.567866000000002
 30
0.0
 11
132.19999999999999
 21
44.567866000000002
 31
0.0
  0
LINE
  5
25A
  8
0
 10
130.09999999999999
 20
44.519615000000002
 30
0.0
 11
132.19999999999999
 21
44.519615000000002
 31
0.0
  0
LINE
  5
25B
  8
0
 10
130.09999999999999
 20
68.140814000000006
 30
0.0
 11
130.09999999999999
 21
66.153390000000002
 31
0.0
  0
LINE
  5
25C
  8
0
 10
132.19999999999999
 20
68.140814000000006
 30
0.0
 11
132.19999999999999
 21
66.153390000000002
 31
0.0
  0
LINE
  5
25D
  8
0
 10
132.19999999999999
 20
65.305008999999984
 30
0.0
 11
132.19999999999999
 21
63.355153000000001
 31
0.0
  0
LINE
  5
25E
  8
0
 10
130.09999999999999
 20
65.305008999999984
 30
0.0
 11
130.09999999999999
 21
63.355153000000001
 31
0.0
  0
LINE
  5
25F
  8
0
 10
130.09999999999999
 20
62.528246000000003
 30
0.0
 11
130.09999999999999
 21
60.640479000000013
 31
0.0
  0
LINE
  5
260
  8
0
 10
132.19999999999999
 20
62.528246000000003
 30
0.0
 11
132.19999999999999
 21
60.640479000000013
 31
0.0
  0
LINE
  5
261
  8
0
 10
132.19999999999999
 20
59.845443999999993
 30
0.0
 11
132.19999999999999
 21
58.043506999999998
 31
0.0
  0
LINE
  5
262
  8
0
 10
130.09999999999999
 20
59.845443999999993
 30
0.0
 11
130.09999999999999
 21
58.043506999999998
 31
0.0
  0
LINE
  5
263
  8
0
 10
132.19999999999999
 20
57.290342000000003
 30
0.0
 11
132.19999999999999
 21
55.596893999999992
 31
0.0
  0
LINE
  5
264
  8
0
 10
130.09999999999999
 20
57.290342000000003
 30
0.0
 11
130.09999999999999
 21
55.596893999999992
 31
0.0
  0
LINE
  5
265
  8
0
 10
132.19999999999999
 20
54.895071999999999
 30
0.0
 11
132.19999999999999
 21
53.331409000000001
 31
0.0
  0
LINE
  5
266
  8
0
 10
130.09999999999999
 20
54.895071999999999
 30
0.0
 11
130.09999999999999
 21
53.331409000000001
 31
0.0
  0
LINE
  5
267
  8
0
 10
132.19999999999999
 20
52.689754000000001
 30
0.0
 11
132.19999999999999
 21
51.275539999999992
 31
0.0
  0
LINE
  5
268
  8
0
 10
130.09999999999999
 20
52.689754000000001
 30
0.0
 11
130.09999999999999
 21
51.275539999999992
 31
0.0
  0
LINE
  5
269
  8
0
 10
132.19999999999999
 20
50.702123
 30
0.0
 11
132.19999999999999
 21
49.455143
 31
0.0
  0
LINE
  5
26A
  8
0
 10
130.09999999999999
 20
50.702123
 30
0.0
 11
130.09999999999999
 21
49.455143
 31
0.0
  0
LINE
  5
26B
  8
0
 10
130.09999999999999
 20
48.957174000000002
 30
0.0
 11
130.09999999999999
 21
47.89311
 31
0.0
  0
LINE
  5
26C
  8
0
 10
132.19999999999999
 20
48.957174000000002
 30
0.0
 11
132.19999999999999
 21
47.89311
 31
0.0
  0
LINE
  5
26D
  8
0
 10
132.19999999999999
 20
47.476849999999992
 30
0.0
 11
132.19999999999999
 21
46.609082999999998
 31
0.0
  0
LINE
  5
26E
  8
0
 10
130.09999999999999
 20
47.476849999999992
 30
0.0
 11
130.09999999999999
 21
46.609082999999998
 31
0.0
  0
LINE
  5
26F
  8
0
 10
130.09999999999999
 20
46.279769000000002
 30
0.0
 11
130.09999999999999
 21
45.619211
 31
0.0
  0
LINE
  5
270
  8
0
 10
132.19999999999999
 20
46.279769000000002
 30
0.0
 11
132.19999999999999
 21
45.619211
 31
0.0
  0
LINE
  5
271
  8
0
 10
132.19999999999999
 20
45.380983000000001
 30
0.0
 11
132.19999999999999
 21
44.935941
 31
0.0
  0
LINE
  5
272
  8
0
 10
130.09999999999999
 20
45.380983000000001
 30
0.0
 11
130.09999999999999
 21
44.935941
 31
0.0
  0
LINE
  5
273
  8
0
 10
130.09999999999999
 20
44.791794999999993
 30
0.0
 11
130.09999999999999
 21
44.567866000000002
 31
0.0
  0
LINE
  5
274
  8
0
 10
132.19999999999999
 20
44.791794999999993
 30
0.0
 11
132.19999999999999
 21
44.567866000000002
 31
0.0
  0
LINE
  5
275
  8
0
 10
132.19999999999999
 20
44.519615000000002
 30
0.0
 11
132.19999999999999
 21
44.5
 31
0.0
  0
LINE
  5
276
  8
0
 10
130.09999999999999
 20
44.519615000000002
 30
0.0
 11
130.09999999999999
 21
44.5
 31
0.0
  0
LINE
  5
277
  8
0
 10
127.0
 20
44.5
 30
0.0
 11
129.09999999999999
 21
44.5
 31
0.0
  0
LINE
  5
278
  8
0
 10
127.0
 20
69.0
 30
0.0
 11
129.09999999999999
 21
69.0
 31
0.0
  0
LINE
  5
279
  8
0
 10
127.0
 20
68.140814000000006
 30
0.0
 11
129.09999999999999
 21
68.140814000000006
 31
0.0
  0
LINE
  5
27A
  8
0
 10
127.0
 20
66.153390000000002
 30
0.0
 11
129.09999999999999
 21
66.153390000000002
 31
0.0
  0
LINE
  5
27B
  8
0
 10
127.0
 20
65.305008999999984
 30
0.0
 11
129.09999999999999
 21
65.305008999999984
 31
0.0
  0
LINE
  5
27C
  8
0
 10
127.0
 20
63.355153000000001
 30
0.0
 11
129.09999999999999
 21
63.355153000000001
 31
0.0
  0
LINE
  5
27D
  8
0
 10
127.0
 20
62.528246000000003
 30
0.0
 11
129.09999999999999
 21
62.528246000000003
 31
0.0
  0
LINE
  5
27E
  8
0
 10
127.0
 20
60.640479000000013
 30
0.0
 11
129.09999999999999
 21
60.640479000000013
 31
0.0
  0
LINE
  5
27F
  8
0
 10
127.0
 20
58.043506999999998
 30
0.0
 11
129.09999999999999
 21
58.043506999999998
 31
0.0
  0
LINE
  5
280
  8
0
 10
127.0
 20
59.845443999999993
 30
0.0
 11
129.09999999999999
 21
59.845443999999993
 31
0.0
  0
LINE
  5
281
  8
0
 10
127.0
 20
55.596893999999992
 30
0.0
 11
129.09999999999999
 21
55.596893999999992
 31
0.0
  0
LINE
  5
282
  8
0
 10
127.0
 20
57.290342000000003
 30
0.0
 11
129.09999999999999
 21
57.290342000000003
 31
0.0
  0
LINE
  5
283
  8
0
 10
127.0
 20
54.895071999999999
 30
0.0
 11
129.09999999999999
 21
54.895071999999999
 31
0.0
  0
LINE
  5
284
  8
0
 10
127.0
 20
53.331409000000001
 30
0.0
 11
129.09999999999999
 21
53.331409000000001
 31
0.0
  0
LINE
  5
285
  8
0
 10
127.0
 20
52.689754000000001
 30
0.0
 11
129.09999999999999
 21
52.689754000000001
 31
0.0
  0
LINE
  5
286
  8
0
 10
127.0
 20
51.275539999999992
 30
0.0
 11
129.09999999999999
 21
51.275539999999992
 31
0.0
  0
LINE
  5
287
  8
0
 10
127.0
 20
50.702123
 30
0.0
 11
129.09999999999999
 21
50.702123
 31
0.0
  0
LINE
  5
288
  8
0
 10
127.0
 20
49.455143
 30
0.0
 11
129.09999999999999
 21
49.455143
 31
0.0
  0
LINE
  5
289
  8
0
 10
127.0
 20
48.957174000000002
 30
0.0
 11
129.09999999999999
 21
48.957174000000002
 31
0.0
  0
LINE
  5
28A
  8
0
 10
127.0
 20
47.89311
 30
0.0
 11
129.09999999999999
 21
47.89311
 31
0.0
  0
LINE
  5
28B
  8
0
 10
127.0
 20
47.476849999999992
 30
0.0
 11
129.09999999999999
 21
47.476849999999992
 31
0.0
  0
LINE
  5
28C
  8
0
 10
127.0
 20
46.609082999999998
 30
0.0
 11
129.09999999999999
 21
46.609082999999998
 31
0.0
  0
LINE
  5
28D
  8
0
 10
127.0
 20
46.279769000000002
 30
0.0
 11
129.09999999999999
 21
46.279769000000002
 31
0.0
  0
LINE
  5
28E
  8
0
 10
127.0
 20
45.619211
 30
0.0
 11
129.09999999999999
 21
45.619211
 31
0.0
  0
LINE
  5
28F
  8
0
 10
127.0
 20
45.380983000000001
 30
0.0
 11
129.09999999999999
 21
45.380983000000001
 31
0.0
  0
LINE
  5
290
  8
0
 10
127.0
 20
44.935941
 30
0.0
 11
129.09999999999999
 21
44.935941
 31
0.0
  0
LINE
  5
291
  8
0
 10
127.0
 20
44.791794999999993
 30
0.0
 11
129.09999999999999
 21
44.791794999999993
 31
0.0
  0
LINE
  5
292
  8
0
 10
127.0
 20
44.567866000000002
 30
0.0
 11
129.09999999999999
 21
44.567866000000002
 31
0.0
  0
LINE
  5
293
  8
0
 10
127.0
 20
44.519615000000002
 30
0.0
 11
129.09999999999999
 21
44.519615000000002
 31
0.0
  0
LINE
  5
294
  8
0
 10
127.0
 20
68.140814000000006
 30
0.0
 11
127.0
 21
66.153390000000002
 31
0.0
  0
LINE
  5
295
  8
0
 10
129.09999999999999
 20
68.140814000000006
 30
0.0
 11
129.09999999999999
 21
66.153390000000002
 31
0.0
  0
LINE
  5
296
  8
0
 10
129.09999999999999
 20
65.305008999999984
 30
0.0
 11
129.09999999999999
 21
63.355153000000001
 31
0.0
  0
LINE
  5
297
  8
0
 10
127.0
 20
65.305008999999984
 30
0.0
 11
127.0
 21
63.355153000000001
 31
0.0
  0
LINE
  5
298
  8
0
 10
127.0
 20
62.528246000000003
 30
0.0
 11
127.0
 21
60.640479000000013
 31
0.0
  0
LINE
  5
299
  8
0
 10
129.09999999999999
 20
62.528246000000003
 30
0.0
 11
129.09999999999999
 21
60.640479000000013
 31
0.0
  0
LINE
  5
29A
  8
0
 10
129.09999999999999
 20
59.845443999999993
 30
0.0
 11
129.09999999999999
 21
58.043506999999998
 31
0.0
  0
LINE
  5
29B
  8
0
 10
127.0
 20
59.845443999999993
 30
0.0
 11
127.0
 21
58.043506999999998
 31
0.0
  0
LINE
  5
29C
  8
0
 10
129.09999999999999
 20
57.290342000000003
 30
0.0
 11
129.09999999999999
 21
55.596893999999992
 31
0.0
  0
LINE
  5
29D
  8
0
 10
127.0
 20
57.290342000000003
 30
0.0
 11
127.0
 21
55.596893999999992
 31
0.0
  0
LINE
  5
29E
  8
0
 10
129.09999999999999
 20
54.895071999999999
 30
0.0
 11
129.09999999999999
 21
53.331409000000001
 31
0.0
  0
LINE
  5
29F
  8
0
 10
127.0
 20
54.895071999999999
 30
0.0
 11
127.0
 21
53.331409000000001
 31
0.0
  0
LINE
  5
2A0
  8
0
 10
129.09999999999999
 20
52.689754000000001
 30
0.0
 11
129.09999999999999
 21
51.275539999999992
 31
0.0
  0
LINE
  5
2A1
  8
0
 10
127.0
 20
52.689754000000001
 30
0.0
 11
127.0
 21
51.275539999999992
 31
0.0
  0
LINE
  5
2A2
  8
0
 10
129.09999999999999
 20
50.702123
 30
0.0
 11
129.09999999999999
 21
49.455143
 31
0.0
  0
LINE
  5
2A3
  8
0
 10
127.0
 20
50.702123
 30
0.0
 11
127.0
 21
49.455143
 31
0.0
  0
LINE
  5
2A4
  8
0
 10
127.0
 20
48.957174000000002
 30
0.0
 11
127.0
 21
47.89311
 31
0.0
  0
LINE
  5
2A5
  8
0
 10
129.09999999999999
 20
48.957174000000002
 30
0.0
 11
129.09999999999999
 21
47.89311
 31
0.0
  0
LINE
  5
2A6
  8
0
 10
129.09999999999999
 20
47.476849999999992
 30
0.0
 11
129.09999999999999
 21
46.609082999999998
 31
0.0
  0
LINE
  5
2A7
  8
0
 10
127.0
 20
47.476849999999992
 30
0.0
 11
127.0
 21
46.609082999999998
 31
0.0
  0
LINE
  5
2A8
  8
0
 10
127.0
 20
46.279769000000002
 30
0.0
 11
127.0
 21
45.619211
 31
0.0
  0
LINE
  5
2A9
  8
0
 10
129.09999999999999
 20
46.279769000000002
 30
0.0
 11
129.09999999999999
 21
45.619211
 31
0.0
  0
LINE
  5
2AA
  8
0
 10
129.09999999999999
 20
45.380983000000001
 30
0.0
 11
129.09999999999999
 21
44.935941
 31
0.0
  0
LINE
  5
2AB
  8
0
 10
127.0
 20
45.380983000000001
 30
0.0
 11
127.0
 21
44.935941
 31
0.0
  0
LINE
  5
2AC
  8
0
 10
127.0
 20
44.791794999999993
 30
0.0
 11
127.0
 21
44.567866000000002
 31
0.0
  0
LINE
  5
2AD
  8
0
 10
129.09999999999999
 20
44.791794999999993
 30
0.0
 11
129.09999999999999
 21
44.567866000000002
 31
0.0
  0
LINE
  5
2AE
  8
0
 10
129.09999999999999
 20
44.519615000000002
 30
0.0
 11
129.09999999999999
 21
44.5
 31
0.0
  0
LINE
  5
2AF
  8
0
 10
127.0
 20
44.519615000000002
 30
0.0
 11
127.0
 21
44.5
 31
0.0
  0
LINE
  5
2B0
  8
0
 10
123.90000000000001
 20
44.5
 30
0.0
 11
126.0
 21
44.5
 31
0.0
  0
LINE
  5
2B1
  8
0
 10
123.90000000000001
 20
69.0
 30
0.0
 11
126.0
 21
69.0
 31
0.0
  0
LINE
  5
2B2
  8
0
 10
123.90000000000001
 20
68.140814000000006
 30
0.0
 11
126.0
 21
68.140814000000006
 31
0.0
  0
LINE
  5
2B3
  8
0
 10
123.90000000000001
 20
66.153390000000002
 30
0.0
 11
126.0
 21
66.153390000000002
 31
0.0
  0
LINE
  5
2B4
  8
0
 10
123.90000000000001
 20
65.305008999999984
 30
0.0
 11
126.0
 21
65.305008999999984
 31
0.0
  0
LINE
  5
2B5
  8
0
 10
123.90000000000001
 20
63.355153000000001
 30
0.0
 11
126.0
 21
63.355153000000001
 31
0.0
  0
LINE
  5
2B6
  8
0
 10
123.90000000000001
 20
62.528246000000003
 30
0.0
 11
126.0
 21
62.528246000000003
 31
0.0
  0
LINE
  5
2B7
  8
0
 10
123.90000000000001
 20
60.640479000000013
 30
0.0
 11
126.0
 21
60.640479000000013
 31
0.0
  0
LINE
  5
2B8
  8
0
 10
123.90000000000001
 20
58.043506999999998
 30
0.0
 11
126.0
 21
58.043506999999998
 31
0.0
  0
LINE
  5
2B9
  8
0
 10
123.90000000000001
 20
59.845443999999993
 30
0.0
 11
126.0
 21
59.845443999999993
 31
0.0
  0
LINE
  5
2BA
  8
0
 10
123.90000000000001
 20
55.596893999999992
 30
0.0
 11
126.0
 21
55.596893999999992
 31
0.0
  0
LINE
  5
2BB
  8
0
 10
123.90000000000001
 20
57.290342000000003
 30
0.0
 11
126.0
 21
57.290342000000003
 31
0.0
  0
LINE
  5
2BC
  8
0
 10
123.90000000000001
 20
54.895071999999999
 30
0.0
 11
126.0
 21
54.895071999999999
 31
0.0
  0
LINE
  5
2BD
  8
0
 10
123.90000000000001
 20
53.331409000000001
 30
0.0
 11
126.0
 21
53.331409000000001
 31
0.0
  0
LINE
  5
2BE
  8
0
 10
123.90000000000001
 20
52.689754000000001
 30
0.0
 11
126.0
 21
52.689754000000001
 31
0.0
  0
LINE
  5
2BF
  8
0
 10
123.90000000000001
 20
51.275539999999992
 30
0.0
 11
126.0
 21
51.275539999999992
 31
0.0
  0
LINE
  5
2C0
  8
0
 10
123.90000000000001
 20
50.702123
 30
0.0
 11
126.0
 21
50.702123
 31
0.0
  0
LINE
  5
2C1
  8
0
 10
123.90000000000001
 20
49.455143
 30
0.0
 11
126.0
 21
49.455143
 31
0.0
  0
LINE
  5
2C2
  8
0
 10
123.90000000000001
 20
48.957174000000002
 30
0.0
 11
126.0
 21
48.957174000000002
 31
0.0
  0
LINE
  5
2C3
  8
0
 10
123.90000000000001
 20
47.89311
 30
0.0
 11
126.0
 21
47.89311
 31
0.0
  0
LINE
  5
2C4
  8
0
 10
123.90000000000001
 20
47.476849999999992
 30
0.0
 11
126.0
 21
47.476849999999992
 31
0.0
  0
LINE
  5
2C5
  8
0
 10
123.90000000000001
 20
46.609082999999998
 30
0.0
 11
126.0
 21
46.609082999999998
 31
0.0
  0
LINE
  5
2C6
  8
0
 10
123.90000000000001
 20
46.279769000000002
 30
0.0
 11
126.0
 21
46.279769000000002
 31
0.0
  0
LINE
  5
2C7
  8
0
 10
123.90000000000001
 20
45.619211
 30
0.0
 11
126.0
 21
45.619211
 31
0.0
  0
LINE
  5
2C8
  8
0
 10
123.90000000000001
 20
45.380983000000001
 30
0.0
 11
126.0
 21
45.380983000000001
 31
0.0
  0
LINE
  5
2C9
  8
0
 10
123.90000000000001
 20
44.935941
 30
0.0
 11
126.0
 21
44.935941
 31
0.0
  0
LINE
  5
2CA
  8
0
 10
123.90000000000001
 20
44.791794999999993
 30
0.0
 11
126.0
 21
44.791794999999993
 31
0.0
  0
LINE
  5
2CB
  8
0
 10
123.90000000000001
 20
44.567866000000002
 30
0.0
 11
126.0
 21
44.567866000000002
 31
0.0
  0
LINE
  5
2CC
  8
0
 10
123.90000000000001
 20
44.519615000000002
 30
0.0
 11
126.0
 21
44.519615000000002
 31
0.0
  0
LINE
  5
2CD
  8
0
 10
123.90000000000001
 20
68.140814000000006
 30
0.0
 11
123.90000000000001
 21
66.153390000000002
 31
0.0
  0
LINE
  5
2CE
  8
0
 10
126.0
 20
68.140814000000006
 30
0.0
 11
126.0
 21
66.153390000000002
 31
0.0
  0
LINE
  5
2CF
  8
0
 10
126.0
 20
65.305008999999984
 30
0.0
 11
126.0
 21
63.355153000000001
 31
0.0
  0
LINE
  5
2D0
  8
0
 10
123.90000000000001
 20
65.305008999999984
 30
0.0
 11
123.90000000000001
 21
63.355153000000001
 31
0.0
  0
LINE
  5
2D1
  8
0
 10
123.90000000000001
 20
62.528246000000003
 30
0.0
 11
123.90000000000001
 21
60.640479000000013
 31
0.0
  0
LINE
  5
2D2
  8
0
 10
126.0
 20
62.528246000000003
 30
0.0
 11
126.0
 21
60.640479000000013
 31
0.0
  0
LINE
  5
2D3
  8
0
 10
126.0
 20
59.845443999999993
 30
0.0
 11
126.0
 21
58.043506999999998
 31
0.0
  0
LINE
  5
2D4
  8
0
 10
123.90000000000001
 20
59.845443999999993
 30
0.0
 11
123.90000000000001
 21
58.043506999999998
 31
0.0
  0
LINE
  5
2D5
  8
0
 10
126.0
 20
57.290342000000003
 30
0.0
 11
126.0
 21
55.596893999999992
 31
0.0
  0
LINE
  5
2D6
  8
0
 10
123.90000000000001
 20
57.290342000000003
 30
0.0
 11
123.90000000000001
 21
55.596893999999992
 31
0.0
  0
LINE
  5
2D7
  8
0
 10
126.0
 20
54.895071999999999
 30
0.0
 11
126.0
 21
53.331409000000001
 31
0.0
  0
LINE
  5
2D8
  8
0
 10
123.90000000000001
 20
54.895071999999999
 30
0.0
 11
123.90000000000001
 21
53.331409000000001
 31
0.0
  0
LINE
  5
2D9
  8
0
 10
126.0
 20
52.689754000000001
 30
0.0
 11
126.0
 21
51.275539999999992
 31
0.0
  0
LINE
  5
2DA
  8
0
 10
123.90000000000001
 20
52.689754000000001
 30
0.0
 11
123.90000000000001
 21
51.275539999999992
 31
0.0
  0
LINE
  5
2DB
  8
0
 10
126.0
 20
50.702123
 30
0.0
 11
126.0
 21
49.455143
 31
0.0
  0
LINE
  5
2DC
  8
0
 10
123.90000000000001
 20
50.702123
 30
0.0
 11
123.90000000000001
 21
49.455143
 31
0.0
  0
LINE
  5
2DD
  8
0
 10
123.90000000000001
 20
48.957174000000002
 30
0.0
 11
123.90000000000001
 21
47.89311
 31
0.0
  0
LINE
  5
2DE
  8
0
 10
126.0
 20
48.957174000000002
 30
0.0
 11
126.0
 21
47.89311
 31
0.0
  0
LINE
  5
2DF
  8
0
 10
126.0
 20
47.476849999999992
 30
0.0
 11
126.0
 21
46.609082999999998
 31
0.0
  0
LINE
  5
2E0
  8
0
 10
123.90000000000001
 20
47.476849999999992
 30
0.0
 11
123.90000000000001
 21
46.609082999999998
 31
0.0
  0
LINE
  5
2E1
  8
0
 10
123.90000000000001
 20
46.279769000000002
 30
0.0
 11
123.90000000000001
 21
45.619211
 31
0.0
  0
LINE
  5
2E2
  8
0
 10
126.0
 20
46.279769000000002
 30
0.0
 11
126.0
 21
45.619211
 31
0.0
  0
LINE
  5
2E3
  8
0
 10
126.0
 20
45.380983000000001
 30
0.0
 11
126.0
 21
44.935941
 31
0.0
  0
LINE
  5
2E4
  8
0
 10
123.90000000000001
 20
45.380983000000001
 30
0.0
 11
123.90000000000001
 21
44.935941
 31
0.0
  0
LINE
  5
2E5
  8
0
 10
123.90000000000001
 20
44.791794999999993
 30
0.0
 11
123.90000000000001
 21
44.567866000000002
 31
0.0
  0
LINE
  5
2E6
  8
0
 10
126.0
 20
44.791794999999993
 30
0.0
 11
126.0
 21
44.567866000000002
 31
0.0
  0
LINE
  5
2E7
  8
0
 10
126.0
 20
44.519615000000002
 30
0.0
 11
126.0
 21
44.5
 31
0.0
  0
LINE
  5
2E8
  8
0
 10
123.90000000000001
 20
44.519615000000002
 30
0.0
 11
123.90000000000001
 21
44.5
 31
0.0
  0
LINE
  5
2E9
  8
0
 10
120.8
 20
44.5
 30
0.0
 11
122.90000000000001
 21
44.5
 31
0.0
  0
LINE
  5
2EA
  8
0
 10
120.8
 20
69.0
 30
0.0
 11
122.90000000000001
 21
69.0
 31
0.0
  0
LINE
  5
2EB
  8
0
 10
120.8
 20
68.140814000000006
 30
0.0
 11
122.90000000000001
 21
68.140814000000006
 31
0.0
  0
LINE
  5
2EC
  8
0
 10
120.8
 20
66.153390000000002
 30
0.0
 11
122.90000000000001
 21
66.153390000000002
 31
0.0
  0
LINE
  5
2ED
  8
0
 10
120.8
 20
65.305008999999984
 30
0.0
 11
122.90000000000001
 21
65.305008999999984
 31
0.0
  0
LINE
  5
2EE
  8
0
 10
120.8
 20
63.355153000000001
 30
0.0
 11
122.90000000000001
 21
63.355153000000001
 31
0.0
  0
LINE
  5
2EF
  8
0
 10
120.8
 20
62.528246000000003
 30
0.0
 11
122.90000000000001
 21
62.528246000000003
 31
0.0
  0
LINE
  5
2F0
  8
0
 10
120.8
 20
60.640479000000013
 30
0.0
 11
122.90000000000001
 21
60.640479000000013
 31
0.0
  0
LINE
  5
2F1
  8
0
 10
120.8
 20
58.043506999999998
 30
0.0
 11
122.90000000000001
 21
58.043506999999998
 31
0.0
  0
LINE
  5
2F2
  8
0
 10
120.8
 20
59.845443999999993
 30
0.0
 11
122.90000000000001
 21
59.845443999999993
 31
0.0
  0
LINE
  5
2F3
  8
0
 10
120.8
 20
55.596893999999992
 30
0.0
 11
122.90000000000001
 21
55.596893999999992
 31
0.0
  0
LINE
  5
2F4
  8
0
 10
120.8
 20
57.290342000000003
 30
0.0
 11
122.90000000000001
 21
57.290342000000003
 31
0.0
  0
LINE
  5
2F5
  8
0
 10
120.8
 20
54.895071999999999
 30
0.0
 11
122.90000000000001
 21
54.895071999999999
 31
0.0
  0
LINE
  5
2F6
  8
0
 10
120.8
 20
53.331409000000001
 30
0.0
 11
122.90000000000001
 21
53.331409000000001
 31
0.0
  0
LINE
  5
2F7
  8
0
 10
120.8
 20
52.689754000000001
 30
0.0
 11
122.90000000000001
 21
52.689754000000001
 31
0.0
  0
LINE
  5
2F8
  8
0
 10
120.8
 20
51.275539999999992
 30
0.0
 11
122.90000000000001
 21
51.275539999999992
 31
0.0
  0
LINE
  5
2F9
  8
0
 10
120.8
 20
50.702123
 30
0.0
 11
122.90000000000001
 21
50.702123
 31
0.0
  0
LINE
  5
2FA
  8
0
 10
120.8
 20
49.455143
 30
0.0
 11
122.90000000000001
 21
49.455143
 31
0.0
  0
LINE
  5
2FB
  8
0
 10
120.8
 20
48.957174000000002
 30
0.0
 11
122.90000000000001
 21
48.957174000000002
 31
0.0
  0
LINE
  5
2FC
  8
0
 10
120.8
 20
47.89311
 30
0.0
 11
122.90000000000001
 21
47.89311
 31
0.0
  0
LINE
  5
2FD
  8
0
 10
120.8
 20
47.476849999999992
 30
0.0
 11
122.90000000000001
 21
47.476849999999992
 31
0.0
  0
LINE
  5
2FE
  8
0
 10
120.8
 20
46.609082999999998
 30
0.0
 11
122.90000000000001
 21
46.609082999999998
 31
0.0
  0
LINE
  5
2FF
  8
0
 10
120.8
 20
46.279769000000002
 30
0.0
 11
122.90000000000001
 21
46.279769000000002
 31
0.0
  0
LINE
  5
300
  8
0
 10
120.8
 20
45.619211
 30
0.0
 11
122.90000000000001
 21
45.619211
 31
0.0
  0
LINE
  5
301
  8
0
 10
120.8
 20
45.380983000000001
 30
0.0
 11
122.90000000000001
 21
45.380983000000001
 31
0.0
  0
LINE
  5
302
  8
0
 10
120.8
 20
44.935941
 30
0.0
 11
122.90000000000001
 21
44.935941
 31
0.0
  0
LINE
  5
303
  8
0
 10
120.8
 20
44.791794999999993
 30
0.0
 11
122.90000000000001
 21
44.791794999999993
 31
0.0
  0
LINE
  5
304
  8
0
 10
120.8
 20
44.567866000000002
 30
0.0
 11
122.90000000000001
 21
44.567866000000002
 31
0.0
  0
LINE
  5
305
  8
0
 10
120.8
 20
44.519615000000002
 30
0.0
 11
122.90000000000001
 21
44.519615000000002
 31
0.0
  0
LINE
  5
306
  8
0
 10
120.8
 20
68.140814000000006
 30
0.0
 11
120.8
 21
66.153390000000002
 31
0.0
  0
LINE
  5
307
  8
0
 10
122.90000000000001
 20
68.140814000000006
 30
0.0
 11
122.90000000000001
 21
66.153390000000002
 31
0.0
  0
LINE
  5
308
  8
0
 10
122.90000000000001
 20
65.305008999999984
 30
0.0
 11
122.90000000000001
 21
63.355153000000001
 31
0.0
  0
LINE
  5
309
  8
0
 10
120.8
 20
65.305008999999984
 30
0.0
 11
120.8
 21
63.355153000000001
 31
0.0
  0
LINE
  5
30A
  8
0
 10
120.8
 20
62.528246000000003
 30
0.0
 11
120.8
 21
60.640479000000013
 31
0.0
  0
LINE
  5
30B
  8
0
 10
122.90000000000001
 20
62.528246000000003
 30
0.0
 11
122.90000000000001
 21
60.640479000000013
 31
0.0
  0
LINE
  5
30C
  8
0
 10
122.90000000000001
 20
59.845443999999993
 30
0.0
 11
122.90000000000001
 21
58.043506999999998
 31
0.0
  0
LINE
  5
30D
  8
0
 10
120.8
 20
59.845443999999993
 30
0.0
 11
120.8
 21
58.043506999999998
 31
0.0
  0
LINE
  5
30E
  8
0
 10
122.90000000000001
 20
57.290342000000003
 30
0.0
 11
122.90000000000001
 21
55.596893999999992
 31
0.0
  0
LINE
  5
30F
  8
0
 10
120.8
 20
57.290342000000003
 30
0.0
 11
120.8
 21
55.596893999999992
 31
0.0
  0
LINE
  5
310
  8
0
 10
122.90000000000001
 20
54.895071999999999
 30
0.0
 11
122.90000000000001
 21
53.331409000000001
 31
0.0
  0
LINE
  5
311
  8
0
 10
120.8
 20
54.895071999999999
 30
0.0
 11
120.8
 21
53.331409000000001
 31
0.0
  0
LINE
  5
312
  8
0
 10
122.90000000000001
 20
52.689754000000001
 30
0.0
 11
122.90000000000001
 21
51.275539999999992
 31
0.0
  0
LINE
  5
313
  8
0
 10
120.8
 20
52.689754000000001
 30
0.0
 11
120.8
 21
51.275539999999992
 31
0.0
  0
LINE
  5
314
  8
0
 10
122.90000000000001
 20
50.702123
 30
0.0
 11
122.90000000000001
 21
49.455143
 31
0.0
  0
LINE
  5
315
  8
0
 10
120.8
 20
50.702123
 30
0.0
 11
120.8
 21
49.455143
 31
0.0
  0
LINE
  5
316
  8
0
 10
120.8
 20
48.957174000000002
 30
0.0
 11
120.8
 21
47.89311
 31
0.0
  0
LINE
  5
317
  8
0
 10
122.90000000000001
 20
48.957174000000002
 30
0.0
 11
122.90000000000001
 21
47.89311
 31
0.0
  0
LINE
  5
318
  8
0
 10
122.90000000000001
 20
47.476849999999992
 30
0.0
 11
122.90000000000001
 21
46.609082999999998
 31
0.0
  0
LINE
  5
319
  8
0
 10
120.8
 20
47.476849999999992
 30
0.0
 11
120.8
 21
46.609082999999998
 31
0.0
  0
LINE
  5
31A
  8
0
 10
120.8
 20
46.279769000000002
 30
0.0
 11
120.8
 21
45.619211
 31
0.0
  0
LINE
  5
31B
  8
0
 10
122.90000000000001
 20
46.279769000000002
 30
0.0
 11
122.90000000000001
 21
45.619211
 31
0.0
  0
LINE
  5
31C
  8
0
 10
122.90000000000001
 20
45.380983000000001
 30
0.0
 11
122.90000000000001
 21
44.935941
 31
0.0
  0
LINE
  5
31D
  8
0
 10
120.8
 20
45.380983000000001
 30
0.0
 11
120.8
 21
44.935941
 31
0.0
  0
LINE
  5
31E
  8
0
 10
120.8
 20
44.791794999999993
 30
0.0
 11
120.8
 21
44.567866000000002
 31
0.0
  0
LINE
  5
31F
  8
0
 10
122.90000000000001
 20
44.791794999999993
 30
0.0
 11
122.90000000000001
 21
44.567866000000002
 31
0.0
  0
LINE
  5
320
  8
0
 10
122.90000000000001
 20
44.519615000000002
 30
0.0
 11
122.90000000000001
 21
44.5
 31
0.0
  0
LINE
  5
321
  8
0
 10
120.8
 20
44.519615000000002
 30
0.0
 11
120.8
 21
44.5
 31
0.0
  0
LINE
  5
322
  8
0
 10
117.7
 20
44.5
 30
0.0
 11
119.8
 21
44.5
 31
0.0
  0
LINE
  5
323
  8
0
 10
117.7
 20
69.0
 30
0.0
 11
119.8
 21
69.0
 31
0.0
  0
LINE
  5
324
  8
0
 10
117.7
 20
68.140814000000006
 30
0.0
 11
119.8
 21
68.140814000000006
 31
0.0
  0
LINE
  5
325
  8
0
 10
117.7
 20
66.153390000000002
 30
0.0
 11
119.8
 21
66.153390000000002
 31
0.0
  0
LINE
  5
326
  8
0
 10
117.7
 20
65.305008999999984
 30
0.0
 11
119.8
 21
65.305008999999984
 31
0.0
  0
LINE
  5
327
  8
0
 10
117.7
 20
63.355153000000001
 30
0.0
 11
119.8
 21
63.355153000000001
 31
0.0
  0
LINE
  5
328
  8
0
 10
117.7
 20
62.528246000000003
 30
0.0
 11
119.8
 21
62.528246000000003
 31
0.0
  0
LINE
  5
329
  8
0
 10
117.7
 20
60.640479000000013
 30
0.0
 11
119.8
 21
60.640479000000013
 31
0.0
  0
LINE
  5
32A
  8
0
 10
117.7
 20
58.043506999999998
 30
0.0
 11
119.8
 21
58.043506999999998
 31
0.0
  0
LINE
  5
32B
  8
0
 10
117.7
 20
59.845443999999993
 30
0.0
 11
119.8
 21
59.845443999999993
 31
0.0
  0
LINE
  5
32C
  8
0
 10
117.7
 20
55.596893999999992
 30
0.0
 11
119.8
 21
55.596893999999992
 31
0.0
  0
LINE
  5
32D
  8
0
 10
117.7
 20
57.290342000000003
 30
0.0
 11
119.8
 21
57.290342000000003
 31
0.0
  0
LINE
  5
32E
  8
0
 10
117.7
 20
54.895071999999999
 30
0.0
 11
119.8
 21
54.895071999999999
 31
0.0
  0
LINE
  5
32F
  8
0
 10
117.7
 20
53.331409000000001
 30
0.0
 11
119.8
 21
53.331409000000001
 31
0.0
  0
LINE
  5
330
  8
0
 10
117.7
 20
52.689754000000001
 30
0.0
 11
119.8
 21
52.689754000000001
 31
0.0
  0
LINE
  5
331
  8
0
 10
117.7
 20
51.275539999999992
 30
0.0
 11
119.8
 21
51.275539999999992
 31
0.0
  0
LINE
  5
332
  8
0
 10
117.7
 20
50.702123
 30
0.0
 11
119.8
 21
50.702123
 31
0.0
  0
LINE
  5
333
  8
0
 10
117.7
 20
49.455143
 30
0.0
 11
119.8
 21
49.455143
 31
0.0
  0
LINE
  5
334
  8
0
 10
117.7
 20
48.957174000000002
 30
0.0
 11
119.8
 21
48.957174000000002
 31
0.0
  0
LINE
  5
335
  8
0
 10
117.7
 20
47.89311
 30
0.0
 11
119.8
 21
47.89311
 31
0.0
  0
LINE
  5
336
  8
0
 10
117.7
 20
47.476849999999992
 30
0.0
 11
119.8
 21
47.476849999999992
 31
0.0
  0
LINE
  5
337
  8
0
 10
117.7
 20
46.609082999999998
 30
0.0
 11
119.8
 21
46.609082999999998
 31
0.0
  0
LINE
  5
338
  8
0
 10
117.7
 20
46.279769000000002
 30
0.0
 11
119.8
 21
46.279769000000002
 31
0.0
  0
LINE
  5
339
  8
0
 10
117.7
 20
45.619211
 30
0.0
 11
119.8
 21
45.619211
 31
0.0
  0
LINE
  5
33A
  8
0
 10
117.7
 20
45.380983000000001
 30
0.0
 11
119.8
 21
45.380983000000001
 31
0.0
  0
LINE
  5
33B
  8
0
 10
117.7
 20
44.935941
 30
0.0
 11
119.8
 21
44.935941
 31
0.0
  0
LINE
  5
33C
  8
0
 10
117.7
 20
44.791794999999993
 30
0.0
 11
119.8
 21
44.791794999999993
 31
0.0
  0
LINE
  5
33D
  8
0
 10
117.7
 20
44.567866000000002
 30
0.0
 11
119.8
 21
44.567866000000002
 31
0.0
  0
LINE
  5
33E
  8
0
 10
117.7
 20
44.519615000000002
 30
0.0
 11
119.8
 21
44.519615000000002
 31
0.0
  0
LINE
  5
33F
  8
0
 10
117.7
 20
68.140814000000006
 30
0.0
 11
117.7
 21
66.153390000000002
 31
0.0
  0
LINE
  5
340
  8
0
 10
119.8
 20
68.140814000000006
 30
0.0
 11
119.8
 21
66.153390000000002
 31
0.0
  0
LINE
  5
341
  8
0
 10
119.8
 20
65.305008999999984
 30
0.0
 11
119.8
 21
63.355153000000001
 31
0.0
  0
LINE
  5
342
  8
0
 10
117.7
 20
65.305008999999984
 30
0.0
 11
117.7
 21
63.355153000000001
 31
0.0
  0
LINE
  5
343
  8
0
 10
117.7
 20
62.528246000000003
 30
0.0
 11
117.7
 21
60.640479000000013
 31
0.0
  0
LINE
  5
344
  8
0
 10
119.8
 20
62.528246000000003
 30
0.0
 11
119.8
 21
60.640479000000013
 31
0.0
  0
LINE
  5
345
  8
0
 10
119.8
 20
59.845443999999993
 30
0.0
 11
119.8
 21
58.043506999999998
 31
0.0
  0
LINE
  5
346
  8
0
 10
117.7
 20
59.845443999999993
 30
0.0
 11
117.7
 21
58.043506999999998
 31
0.0
  0
LINE
  5
347
  8
0
 10
119.8
 20
57.290342000000003
 30
0.0
 11
119.8
 21
55.596893999999992
 31
0.0
  0
LINE
  5
348
  8
0
 10
117.7
 20
57.290342000000003
 30
0.0
 11
117.7
 21
55.596893999999992
 31
0.0
  0
LINE
  5
349
  8
0
 10
119.8
 20
54.895071999999999
 30
0.0
 11
119.8
 21
53.331409000000001
 31
0.0
  0
LINE
  5
34A
  8
0
 10
117.7
 20
54.895071999999999
 30
0.0
 11
117.7
 21
53.331409000000001
 31
0.0
  0
LINE
  5
34B
  8
0
 10
119.8
 20
52.689754000000001
 30
0.0
 11
119.8
 21
51.275539999999992
 31
0.0
  0
LINE
  5
34C
  8
0
 10
117.7
 20
52.689754000000001
 30
0.0
 11
117.7
 21
51.275539999999992
 31
0.0
  0
LINE
  5
34D
  8
0
 10
119.8
 20
50.702123
 30
0.0
 11
119.8
 21
49.455143
 31
0.0
  0
LINE
  5
34E
  8
0
 10
117.7
 20
50.702123
 30
0.0
 11
117.7
 21
49.455143
 31
0.0
  0
LINE
  5
34F
  8
0
 10
117.7
 20
48.957174000000002
 30
0.0
 11
117.7
 21
47.89311
 31
0.0
  0
LINE
  5
350
  8
0
 10
119.8
 20
48.957174000000002
 30
0.0
 11
119.8
 21
47.89311
 31
0.0
  0
LINE
  5
351
  8
0
 10
119.8
 20
47.476849999999992
 30
0.0
 11
119.8
 21
46.609082999999998
 31
0.0
  0
LINE
  5
352
  8
0
 10
117.7
 20
47.476849999999992
 30
0.0
 11
117.7
 21
46.609082999999998
 31
0.0
  0
LINE
  5
353
  8
0
 10
117.7
 20
46.279769000000002
 30
0.0
 11
117.7
 21
45.619211
 31
0.0
  0
LINE
  5
354
  8
0
 10
119.8
 20
46.279769000000002
 30
0.0
 11
119.8
 21
45.619211
 31
0.0
  0
LINE
  5
355
  8
0
 10
119.8
 20
45.380983000000001
 30
0.0
 11
119.8
 21
44.935941
 31
0.0
  0
LINE
  5
356
  8
0
 10
117.7
 20
45.380983000000001
 30
0.0
 11
117.7
 21
44.935941
 31
0.0
  0
LINE
  5
357
  8
0
 10
117.7
 20
44.791794999999993
 30
0.0
 11
117.7
 21
44.567866000000002
 31
0.0
  0
LINE
  5
358
  8
0
 10
119.8
 20
44.791794999999993
 30
0.0
 11
119.8
 21
44.567866000000002
 31
0.0
  0
LINE
  5
359
  8
0
 10
119.8
 20
44.519615000000002
 30
0.0
 11
119.8
 21
44.5
 31
0.0
  0
LINE
  5
35A
  8
0
 10
117.7
 20
44.519615000000002
 30
0.0
 11
117.7
 21
44.5
 31
0.0
  0
LINE
  5
35B
  8
0
 10
114.59999999999999
 20
44.519615000000002
 30
0.0
 11
114.59999999999999
 21
44.5
 31
0.0
  0
LINE
  5
35C
  8
0
 10
116.7
 20
44.519615000000002
 30
0.0
 11
116.7
 21
44.5
 31
0.0
  0
LINE
  5
35D
  8
0
 10
116.7
 20
44.791794999999993
 30
0.0
 11
116.7
 21
44.567866000000002
 31
0.0
  0
LINE
  5
35E
  8
0
 10
114.59999999999999
 20
44.791794999999993
 30
0.0
 11
114.59999999999999
 21
44.567866000000002
 31
0.0
  0
LINE
  5
35F
  8
0
 10
114.59999999999999
 20
45.380983000000001
 30
0.0
 11
114.59999999999999
 21
44.935941
 31
0.0
  0
LINE
  5
360
  8
0
 10
116.7
 20
45.380983000000001
 30
0.0
 11
116.7
 21
44.935941
 31
0.0
  0
LINE
  5
361
  8
0
 10
116.7
 20
46.279769000000002
 30
0.0
 11
116.7
 21
45.619211
 31
0.0
  0
LINE
  5
362
  8
0
 10
114.59999999999999
 20
46.279769000000002
 30
0.0
 11
114.59999999999999
 21
45.619211
 31
0.0
  0
LINE
  5
363
  8
0
 10
114.59999999999999
 20
47.476849999999992
 30
0.0
 11
114.59999999999999
 21
46.609082999999998
 31
0.0
  0
LINE
  5
364
  8
0
 10
116.7
 20
47.476849999999992
 30
0.0
 11
116.7
 21
46.609082999999998
 31
0.0
  0
LINE
  5
365
  8
0
 10
116.7
 20
48.957174000000002
 30
0.0
 11
116.7
 21
47.89311
 31
0.0
  0
LINE
  5
366
  8
0
 10
114.59999999999999
 20
48.957174000000002
 30
0.0
 11
114.59999999999999
 21
47.89311
 31
0.0
  0
LINE
  5
367
  8
0
 10
114.59999999999999
 20
50.702123
 30
0.0
 11
114.59999999999999
 21
49.455143
 31
0.0
  0
LINE
  5
368
  8
0
 10
116.7
 20
50.702123
 30
0.0
 11
116.7
 21
49.455143
 31
0.0
  0
LINE
  5
369
  8
0
 10
114.59999999999999
 20
52.689754000000001
 30
0.0
 11
114.59999999999999
 21
51.275539999999992
 31
0.0
  0
LINE
  5
36A
  8
0
 10
116.7
 20
52.689754000000001
 30
0.0
 11
116.7
 21
51.275539999999992
 31
0.0
  0
LINE
  5
36B
  8
0
 10
114.59999999999999
 20
54.895071999999999
 30
0.0
 11
114.59999999999999
 21
53.331409000000001
 31
0.0
  0
LINE
  5
36C
  8
0
 10
116.7
 20
54.895071999999999
 30
0.0
 11
116.7
 21
53.331409000000001
 31
0.0
  0
LINE
  5
36D
  8
0
 10
114.59999999999999
 20
57.290342000000003
 30
0.0
 11
114.59999999999999
 21
55.596893999999992
 31
0.0
  0
LINE
  5
36E
  8
0
 10
116.7
 20
57.290342000000003
 30
0.0
 11
116.7
 21
55.596893999999992
 31
0.0
  0
LINE
  5
36F
  8
0
 10
114.59999999999999
 20
59.845443999999993
 30
0.0
 11
114.59999999999999
 21
58.043506999999998
 31
0.0
  0
LINE
  5
370
  8
0
 10
116.7
 20
59.845443999999993
 30
0.0
 11
116.7
 21
58.043506999999998
 31
0.0
  0
LINE
  5
371
  8
0
 10
116.7
 20
62.528246000000003
 30
0.0
 11
116.7
 21
60.640479000000013
 31
0.0
  0
LINE
  5
372
  8
0
 10
114.59999999999999
 20
62.528246000000003
 30
0.0
 11
114.59999999999999
 21
60.640479000000013
 31
0.0
  0
LINE
  5
373
  8
0
 10
114.59999999999999
 20
65.305008999999984
 30
0.0
 11
114.59999999999999
 21
63.355153000000001
 31
0.0
  0
LINE
  5
374
  8
0
 10
116.7
 20
65.305008999999984
 30
0.0
 11
116.7
 21
63.355153000000001
 31
0.0
  0
LINE
  5
375
  8
0
 10
116.7
 20
68.140814000000006
 30
0.0
 11
116.7
 21
66.153390000000002
 31
0.0
  0
LINE
  5
376
  8
0
 10
114.59999999999999
 20
68.140814000000006
 30
0.0
 11
114.59999999999999
 21
66.153390000000002
 31
0.0
  0
LINE
  5
377
  8
0
 10
114.59999999999999
 20
44.519615000000002
 30
0.0
 11
116.7
 21
44.519615000000002
 31
0.0
  0
LINE
  5
378
  8
0
 10
114.59999999999999
 20
44.567866000000002
 30
0.0
 11
116.7
 21
44.567866000000002
 31
0.0
  0
LINE
  5
379
  8
0
 10
114.59999999999999
 20
44.791794999999993
 30
0.0
 11
116.7
 21
44.791794999999993
 31
0.0
  0
LINE
  5
37A
  8
0
 10
114.59999999999999
 20
44.935941
 30
0.0
 11
116.7
 21
44.935941
 31
0.0
  0
LINE
  5
37B
  8
0
 10
114.59999999999999
 20
45.380983000000001
 30
0.0
 11
116.7
 21
45.380983000000001
 31
0.0
  0
LINE
  5
37C
  8
0
 10
114.59999999999999
 20
45.619211
 30
0.0
 11
116.7
 21
45.619211
 31
0.0
  0
LINE
  5
37D
  8
0
 10
114.59999999999999
 20
46.279769000000002
 30
0.0
 11
116.7
 21
46.279769000000002
 31
0.0
  0
LINE
  5
37E
  8
0
 10
114.59999999999999
 20
46.609082999999998
 30
0.0
 11
116.7
 21
46.609082999999998
 31
0.0
  0
LINE
  5
37F
  8
0
 10
114.59999999999999
 20
47.476849999999992
 30
0.0
 11
116.7
 21
47.476849999999992
 31
0.0
  0
LINE
  5
380
  8
0
 10
114.59999999999999
 20
47.89311
 30
0.0
 11
116.7
 21
47.89311
 31
0.0
  0
LINE
  5
381
  8
0
 10
114.59999999999999
 20
48.957174000000002
 30
0.0
 11
116.7
 21
48.957174000000002
 31
0.0
  0
LINE
  5
382
  8
0
 10
114.59999999999999
 20
49.455143
 30
0.0
 11
116.7
 21
49.455143
 31
0.0
  0
LINE
  5
383
  8
0
 10
114.59999999999999
 20
50.702123
 30
0.0
 11
116.7
 21
50.702123
 31
0.0
  0
LINE
  5
384
  8
0
 10
114.59999999999999
 20
51.275539999999992
 30
0.0
 11
116.7
 21
51.275539999999992
 31
0.0
  0
LINE
  5
385
  8
0
 10
114.59999999999999
 20
52.689754000000001
 30
0.0
 11
116.7
 21
52.689754000000001
 31
0.0
  0
LINE
  5
386
  8
0
 10
114.59999999999999
 20
53.331409000000001
 30
0.0
 11
116.7
 21
53.331409000000001
 31
0.0
  0
LINE
  5
387
  8
0
 10
114.59999999999999
 20
54.895071999999999
 30
0.0
 11
116.7
 21
54.895071999999999
 31
0.0
  0
LINE
  5
388
  8
0
 10
114.59999999999999
 20
57.290342000000003
 30
0.0
 11
116.7
 21
57.290342000000003
 31
0.0
  0
LINE
  5
389
  8
0
 10
114.59999999999999
 20
55.596893999999992
 30
0.0
 11
116.7
 21
55.596893999999992
 31
0.0
  0
LINE
  5
38A
  8
0
 10
114.59999999999999
 20
59.845443999999993
 30
0.0
 11
116.7
 21
59.845443999999993
 31
0.0
  0
LINE
  5
38B
  8
0
 10
114.59999999999999
 20
58.043506999999998
 30
0.0
 11
116.7
 21
58.043506999999998
 31
0.0
  0
LINE
  5
38C
  8
0
 10
114.59999999999999
 20
60.640479000000013
 30
0.0
 11
116.7
 21
60.640479000000013
 31
0.0
  0
LINE
  5
38D
  8
0
 10
114.59999999999999
 20
62.528246000000003
 30
0.0
 11
116.7
 21
62.528246000000003
 31
0.0
  0
LINE
  5
38E
  8
0
 10
114.59999999999999
 20
63.355153000000001
 30
0.0
 11
116.7
 21
63.355153000000001
 31
0.0
  0
LINE
  5
38F
  8
0
 10
114.59999999999999
 20
65.305008999999984
 30
0.0
 11
116.7
 21
65.305008999999984
 31
0.0
  0
LINE
  5
390
  8
0
 10
114.59999999999999
 20
66.153390000000002
 30
0.0
 11
116.7
 21
66.153390000000002
 31
0.0
  0
LINE
  5
391
  8
0
 10
114.59999999999999
 20
68.140814000000006
 30
0.0
 11
116.7
 21
68.140814000000006
 31
0.0
  0
LINE
  5
392
  8
0
 10
114.59999999999999
 20
69.0
 30
0.0
 11
116.7
 21
69.0
 31
0.0
  0
LINE
  5
393
  8
0
 10
114.59999999999999
 20
44.5
 30
0.0
 11
116.7
 21
44.5
 31
0.0
  0
ARC
  5
394
  8
0
 10
136.0
 20
47.755470000000003
 30
0.0
 40
2.0
 50
270.0
 51
360.0
  0
LINE
  5
395
  8
0
 10
135.80000000000001
 20
45.755470000000003
 30
0.0
 11
136.0
 21
45.755470000000003
 31
0.0
  0
LINE
  5
396
  8
0
 10
153.69999999999999
 20
82.0
 30
0.0
 11
153.69999999999999
 21
58.0
 31
0.0
  0
LINE
  5
397
  8
0
 10
154.69999999999999
 20
61.0
 30
0.0
 11
155.0
 21
61.0
 31
0.0
  0
LINE
  5
398
  8
2
 10
138.5
 20
61.0
 30
0.0
 11
154.69999999999999
 21
61.0
 31
0.0
  0
LINE
  5
399
  8
2
 10
138.5
 20
79.0
 30
0.0
 11
154.69999999999999
 21
79.0
 31
0.0
  0
LINE
  5
39A
  8
0
 10
154.69999999999999
 20
79.0
 30
0.0
 11
155.0
 21
79.0
 31
0.0
  0
LINE
  5
39B
  8
2
 10
154.0
 20
74.0
 30
0.0
 11
155.0
 21
75.0
 31
0.0
  0
LINE
  5
39C
  8
2
 10
137.5
 20
74.0
 30
0.0
 11
154.0
 21
74.0
 31
0.0
  0
LINE
  5
39D
  8
2
 10
137.5
 20
78.0
 30
0.0
 11
138.5
 21
78.0
 31
0.0
  0
LINE
  5
39E
  8
2
 10
138.5
 20
78.0
 30
0.0
 11
138.5
 21
79.0
 31
0.0
  0
LINE
  5
3AD
  8
0
 10
147.75
 20
69.278311999999985
 30
0.0
 11
147.75
 21
70.721688
 31
0.0
  0
LINE
  5
3AE
  8
0
 10
147.75
 20
70.721688
 30
0.0
 11
149.0
 21
71.443376000000001
 31
0.0
  0
LINE
  5
3AF
  8
0
 10
149.0
 20
71.443376000000001
 30
0.0
 11
150.25
 21
70.721688
 31
0.0
  0
LINE
  5
3B0
  8
0
 10
150.25
 20
70.721688
 30
0.0
 11
150.25
 21
69.278311999999985
 31
0.0
  0
LINE
  5
3B1
  8
0
 10
150.25
 20
69.278311999999985
 30
0.0
 11
149.0
 21
68.556623999999985
 31
0.0
  0
LINE
  5
3B2
  8
0
 10
149.0
 20
68.556623999999985
 30
0.0
 11
147.75
 21
69.278311999999985
 31
0.0
  0
CIRCLE
  5
3B3
  8
3
 10
149.0
 20
70.0
 30
0.0
 40
2.0669999999999988
  0
CIRCLE
  5
3B4
  8
0
 10
149.0
 20
70.0
 30
0.0
 40
2.5
  0
LINE
  5
3B5
  8
1
 10
149.0
 20
77.5
 30
0.0
 11
149.0
 21
62.5
 31
0.0
  0
LINE
  5
3B6
  8
1
 10
83.0
 20
70.0
 30
0.0
 11
27.0
 21
70.0
 31
0.0
  0
LINE
  5
3B7
  8
1
 10
55.0
 20
98.0
 30
0.0
 11
55.0
 21
42.0
 31
0.0
  0
CIRCLE
  5
3B8
  8
0
 10
55.0
 20
70.0
 30
0.0
 40
24.75
  0
ARC
  5
3B9
  8
0
 10
55.0
 20
70.0
 30
0.0
 40
25.5
 50
87.752530000000007
 51
92.247469999999979
  0
LINE
  5
3BA
  8
0
 10
56.264524999999999
 20
94.717675
 30
0.0
 11
56.0
 21
95.480384999999998
 31
0.0
  0
LINE
  5
3BB
  8
0
 10
53.735475000000001
 20
94.717675
 30
0.0
 11
54.0
 21
95.480384999999998
 31
0.0
  0
LINE
  5
3BC
  8
0
 10
50.975924999999997
 20
94.420674000000005
 30
0.0
 11
51.153390000000002
 21
95.208205000000007
 31
0.0
  0
LINE
  5
3BD
  8
0
 10
53.489072
 20
94.703838000000005
 30
0.0
 11
53.140813999999999
 21
95.432133999999991
 31
0.0
  0
ARC
  5
3BE
  8
0
 10
55.0
 20
70.0
 30
0.0
 40
25.5
 50
94.181101999999996
 51
98.676041000000012
  0
LINE
  5
3BF
  8
0
 10
48.266978999999999
 20
93.816568000000004
 30
0.0
 11
48.355153000000001
 21
94.619016999999999
 31
0.0
  0
LINE
  5
3C0
  8
0
 10
50.732619999999997
 20
94.379334999999983
 30
0.0
 11
50.305008999999998
 21
95.064059
 31
0.0
  0
ARC
  5
3C1
  8
0
 10
55.0
 20
70.0
 30
0.0
 40
25.5
 50
100.609673
 51
105.104612
  0
LINE
  5
3C2
  8
0
 10
45.642704999999999
 20
92.912956000000008
 30
0.0
 11
45.640478999999999
 21
93.720231000000013
 31
0.0
  0
LINE
  5
3C3
  8
0
 10
48.029833000000011
 20
93.748248000000004
 30
0.0
 11
47.528246000000003
 21
94.380788999999993
 31
0.0
  0
ARC
  5
3C4
  8
0
 10
55.0
 20
70.0
 30
0.0
 40
25.5
 50
107.038245
 51
111.53318400000001
  0
LINE
  5
3C5
  8
0
 10
43.136105000000001
 20
91.721198999999999
 30
0.0
 11
43.043506999999991
 21
92.523150000000015
 31
0.0
  0
LINE
  5
3C6
  8
0
 10
45.414700000000003
 20
92.818512999999996
 30
0.0
 11
44.845443999999993
 21
93.390917000000002
 31
0.0
  0
ARC
  5
3C7
  8
0
 10
55.0
 20
70.0
 30
0.0
 40
25.5
 50
113.46681599999999
 51
117.961755
  0
LINE
  5
3C8
  8
0
 10
40.778699999999994
 20
90.256286000000003
 30
0.0
 11
40.596893999999992
 21
91.042826000000005
 31
0.0
  0
LINE
  5
3C9
  8
0
 10
42.920107999999992
 20
91.601821999999984
 30
0.0
 11
42.290342000000003
 21
92.106890000000007
 31
0.0
  0
ARC
  5
3CA
  8
0
 10
55.0
 20
70.0
 30
0.0
 40
25.5
 50
119.895388
 51
124.390327
  0
LINE
  5
3CB
  8
0
 10
38.600135999999999
 20
88.536637999999996
 30
0.0
 11
38.331409000000001
 21
89.297877
 31
0.0
  0
LINE
  5
3CC
  8
0
 10
40.577427
 20
90.113474999999994
 30
0.0
 11
39.895071999999999
 21
90.544856999999979
 31
0.0
  0
ARC
  5
3CD
  8
0
 10
55.0
 20
70.0
 30
0.0
 40
25.5
 50
126.323959
 51
130.81889799999999
  0
LINE
  5
3CE
  8
0
 10
36.627809999999997
 20
86.583881999999988
 30
0.0
 11
36.275539999999999
 21
87.310245999999992
 31
0.0
  0
LINE
  5
3CF
  8
0
 10
38.416117999999997
 20
88.372190000000003
 30
0.0
 11
37.689754000000001
 21
88.724459999999993
 31
0.0
  0
ARC
  5
3D0
  8
0
 10
55.0
 20
70.0
 30
0.0
 40
25.5
 50
132.75253000000001
 51
137.24746999999999
  0
LINE
  5
3D1
  8
0
 10
34.886524999999999
 20
84.422572999999986
 30
0.0
 11
34.455143
 21
85.104927999999987
 31
0.0
  0
LINE
  5
3D2
  8
0
 10
36.463361999999996
 20
86.399864000000008
 30
0.0
 11
35.702123
 21
86.668591000000006
 31
0.0
  0
ARC
  5
3D3
  8
0
 10
55.0
 20
70.0
 30
0.0
 40
25.5
 50
139.18110200000001
 51
143.676041
  0
LINE
  5
3D4
  8
0
 10
33.398178000000001
 20
82.079892000000001
 30
0.0
 11
32.89311
 21
82.70965799999999
 31
0.0
  0
LINE
  5
3D5
  8
0
 10
34.743714000000011
 20
84.221300000000014
 30
0.0
 11
33.957174000000002
 21
84.403106000000008
 31
0.0
  0
ARC
  5
3D6
  8
0
 10
55.0
 20
70.0
 30
0.0
 40
25.5
 50
145.60967299999999
 51
150.104612
  0
LINE
  5
3D7
  8
0
 10
32.181486999999997
 20
79.585300000000004
 30
0.0
 11
31.609082999999998
 21
80.154556000000014
 31
0.0
  0
LINE
  5
3D8
  8
0
 10
33.278801000000001
 20
81.863894999999999
 30
0.0
 11
32.476849999999999
 21
81.956493000000009
 31
0.0
  0
ARC
  5
3D9
  8
0
 10
55.0
 20
70.0
 30
0.0
 40
25.5
 50
152.03824499999999
 51
156.53318400000001
  0
LINE
  5
3DA
  8
0
 10
31.25175200000001
 20
76.970167000000004
 30
0.0
 11
30.619211
 21
77.471754000000004
 31
0.0
  0
LINE
  5
3DB
  8
0
 10
32.087043999999999
 20
79.357294999999993
 30
0.0
 11
31.279769000000002
 21
79.359521000000001
 31
0.0
  0
ARC
  5
3DC
  8
0
 10
55.0
 20
70.0
 30
0.0
 40
25.5
 50
158.46681599999999
 51
162.96175500000001
  0
LINE
  5
3DD
  8
0
 10
30.620664999999999
 20
74.267380000000003
 30
0.0
 11
29.935941
 21
74.694991000000002
 31
0.0
  0
LINE
  5
3DE
  8
0
 10
31.183432
 20
76.733020999999994
 30
0.0
 11
30.380983000000001
 21
76.644846999999999
 31
0.0
  0
ARC
  5
3DF
  8
0
 10
55.0
 20
70.0
 30
0.0
 40
25.5
 50
164.895388
 51
169.39032700000001
  0
LINE
  5
3E0
  8
0
 10
30.296161999999999
 20
71.510928000000007
 30
0.0
 11
29.567865999999999
 21
71.859185999999994
 31
0.0
  0
LINE
  5
3E1
  8
0
 10
30.579325999999998
 20
74.024074999999996
 30
0.0
 11
29.791795
 21
73.846609999999998
 31
0.0
  0
ARC
  5
3E2
  8
0
 10
55.0
 20
70.0
 30
0.0
 40
25.5
 50
171.323959
 51
175.81889799999999
  0
LINE
  5
3E3
  8
0
 10
30.282325
 20
68.735474999999994
 30
0.0
 11
29.519615000000002
 21
69.0
 31
0.0
  0
LINE
  5
3E4
  8
0
 10
30.282325
 20
71.264525000000006
 30
0.0
 11
29.519615000000002
 21
71.0
 31
0.0
  0
ARC
  5
3E5
  8
0
 10
55.0
 20
70.0
 30
0.0
 40
25.5
 50
177.75253000000001
 51
182.24746999999999
  0
LINE
  5
3E6
  8
0
 10
30.579325999999998
 20
65.975925000000004
 30
0.0
 11
29.791795
 21
66.153390000000002
 31
0.0
  0
LINE
  5
3E7
  8
0
 10
30.296161999999999
 20
68.489071999999993
 30
0.0
 11
29.567865999999999
 21
68.140814000000006
 31
0.0
  0
ARC
  5
3E8
  8
0
 10
55.0
 20
70.0
 30
0.0
 40
25.5
 50
184.18110200000001
 51
188.676041
  0
LINE
  5
3E9
  8
0
 10
31.183432
 20
63.266978999999999
 30
0.0
 11
30.380983000000001
 21
63.355153000000001
 31
0.0
  0
LINE
  5
3EA
  8
0
 10
30.620664999999999
 20
65.732619999999983
 30
0.0
 11
29.935941
 21
65.305008999999984
 31
0.0
  0
ARC
  5
3EB
  8
0
 10
55.0
 20
70.0
 30
0.0
 40
25.5
 50
190.6096729999999
 51
195.104612
  0
LINE
  5
3EC
  8
0
 10
32.087043999999999
 20
60.642705000000007
 30
0.0
 11
31.279769000000002
 21
60.640479000000013
 31
0.0
  0
LINE
  5
3ED
  8
0
 10
31.25175200000001
 20
63.029833000000004
 30
0.0
 11
30.619211
 21
62.528246000000003
 31
0.0
  0
ARC
  5
3EE
  8
0
 10
55.0
 20
70.0
 30
0.0
 40
25.5
 50
197.03824499999999
 51
201.53318400000001
  0
LINE
  5
3EF
  8
0
 10
33.278801000000001
 20
58.136105000000008
 30
0.0
 11
32.476849999999999
 21
58.043506999999998
 31
0.0
  0
LINE
  5
3F0
  8
0
 10
32.181486999999997
 20
60.414700000000003
 30
0.0
 11
31.609082999999998
 21
59.845443999999993
 31
0.0
  0
ARC
  5
3F1
  8
0
 10
55.0
 20
70.0
 30
0.0
 40
25.5
 50
203.46681599999999
 51
207.96175500000001
  0
LINE
  5
3F2
  8
0
 10
34.743714000000011
 20
55.778700000000001
 30
0.0
 11
33.957174000000002
 21
55.596893999999992
 31
0.0
  0
LINE
  5
3F3
  8
0
 10
33.398178000000001
 20
57.920107999999992
 30
0.0
 11
32.89311
 21
57.290342000000003
 31
0.0
  0
ARC
  5
3F4
  8
0
 10
55.0
 20
70.0
 30
0.0
 40
25.5
 50
209.895388
 51
214.39032700000001
  0
LINE
  5
3F5
  8
0
 10
36.463361999999996
 20
53.600135999999999
 30
0.0
 11
35.702123
 21
53.331409000000001
 31
0.0
  0
LINE
  5
3F6
  8
0
 10
34.886524999999999
 20
55.577427
 30
0.0
 11
34.455143
 21
54.895071999999999
 31
0.0
  0
ARC
  5
3F7
  8
0
 10
55.0
 20
70.0
 30
0.0
 40
25.5
 50
216.323959
 51
220.81889799999999
  0
LINE
  5
3F8
  8
0
 10
38.416117999999997
 20
51.62780999999999
 30
0.0
 11
37.689754000000001
 21
51.275539999999992
 31
0.0
  0
LINE
  5
3F9
  8
0
 10
36.627809999999997
 20
53.416117999999997
 30
0.0
 11
36.275539999999999
 21
52.689754000000001
 31
0.0
  0
ARC
  5
3FA
  8
0
 10
55.0
 20
70.0
 30
0.0
 40
25.5
 50
222.75253000000001
 51
227.24746999999999
  0
LINE
  5
3FB
  8
0
 10
40.577427
 20
49.886524999999999
 30
0.0
 11
39.895071999999999
 21
49.455143
 31
0.0
  0
LINE
  5
3FC
  8
0
 10
38.600135999999999
 20
51.463361999999996
 30
0.0
 11
38.331409000000001
 21
50.702123
 31
0.0
  0
ARC
  5
3FD
  8
0
 10
55.0
 20
70.0
 30
0.0
 40
25.5
 50
229.18110200000001
 51
233.676041
  0
LINE
  5
3FE
  8
0
 10
42.920107999999992
 20
48.398178000000001
 30
0.0
 11
42.290342000000003
 21
47.89311
 31
0.0
  0
LINE
  5
3FF
  8
0
 10
40.778699999999994
 20
49.743713999999997
 30
0.0
 11
40.596893999999992
 21
48.957174000000002
 31
0.0
  0
ARC
  5
400
  8
0
 10
55.0
 20
70.0
 30
0.0
 40
25.5
 50
235.60967299999999
 51
240.104612
  0
LINE
  5
401
  8
0
 10
45.414700000000003
 20
47.18148699999999
 30
0.0
 11
44.845443999999993
 21
46.609082999999998
 31
0.0
  0
LINE
  5
402
  8
0
 10
43.136105000000001
 20
48.278801000000001
 30
0.0
 11
43.043506999999991
 21
47.476849999999992
 31
0.0
  0
ARC
  5
403
  8
0
 10
55.0
 20
70.0
 30
0.0
 40
25.5
 50
242.03824499999999
 51
246.53318400000001
  0
LINE
  5
404
  8
0
 10
48.029833000000011
 20
46.251752000000003
 30
0.0
 11
47.528246000000003
 21
45.619211
 31
0.0
  0
LINE
  5
405
  8
0
 10
45.642704999999999
 20
47.087043999999999
 30
0.0
 11
45.640478999999999
 21
46.279769000000002
 31
0.0
  0
ARC
  5
406
  8
0
 10
55.0
 20
70.0
 30
0.0
 40
25.5
 50
248.46681599999999
 51
252.96175500000001
  0
LINE
  5
407
  8
0
 10
50.732619999999997
 20
45.620665000000002
 30
0.0
 11
50.305008999999998
 21
44.935941
 31
0.0
  0
LINE
  5
408
  8
0
 10
48.266978999999999
 20
46.183432000000003
 30
0.0
 11
48.355153000000001
 21
45.380983000000001
 31
0.0
  0
ARC
  5
409
  8
0
 10
55.0
 20
70.0
 30
0.0
 40
25.5
 50
254.895388
 51
259.39032700000001
  0
LINE
  5
40A
  8
0
 10
53.489072
 20
45.296162000000002
 30
0.0
 11
53.140813999999999
 21
44.567866000000002
 31
0.0
  0
LINE
  5
40B
  8
0
 10
50.975924999999997
 20
45.579326000000002
 30
0.0
 11
51.153390000000002
 21
44.791794999999993
 31
0.0
  0
ARC
  5
40C
  8
0
 10
55.0
 20
70.0
 30
0.0
 40
25.5
 50
261.323959
 51
265.81889799999999
  0
LINE
  5
40D
  8
0
 10
56.264524999999999
 20
45.282325
 30
0.0
 11
56.0
 21
44.519615000000002
 31
0.0
  0
LINE
  5
40E
  8
0
 10
53.735475000000001
 20
45.282325
 30
0.0
 11
54.0
 21
44.519615000000002
 31
0.0
  0
ARC
  5
40F
  8
0
 10
55.0
 20
70.0
 30
0.0
 40
25.5
 50
267.75252999999998
 51
272.24747000000002
  0
LINE
  5
410
  8
0
 10
59.024075000000003
 20
45.579326000000002
 30
0.0
 11
58.846609999999998
 21
44.791794999999993
 31
0.0
  0
LINE
  5
411
  8
0
 10
56.510928
 20
45.296162000000002
 30
0.0
 11
56.859186000000001
 21
44.567866000000002
 31
0.0
  0
ARC
  5
412
  8
0
 10
55.0
 20
70.0
 30
0.0
 40
25.5
 50
274.18110200000001
 51
278.676041
  0
LINE
  5
413
  8
0
 10
61.733020999999987
 20
46.183432000000003
 30
0.0
 11
61.644846999999999
 21
45.380983000000001
 31
0.0
  0
LINE
  5
414
  8
0
 10
59.267380000000003
 20
45.620665000000002
 30
0.0
 11
59.694991000000002
 21
44.935941
 31
0.0
  0
ARC
  5
415
  8
0
 10
55.0
 20
70.0
 30
0.0
 40
25.5
 50
280.60967299999999
 51
285.10461199999997
  0
LINE
  5
416
  8
0
 10
64.357294999999993
 20
47.087043999999999
 30
0.0
 11
64.359521000000001
 21
46.279769000000002
 31
0.0
  0
LINE
  5
417
  8
0
 10
61.970166999999996
 20
46.251752000000003
 30
0.0
 11
62.471753999999997
 21
45.619211
 31
0.0
  0
ARC
  5
418
  8
0
 10
55.0
 20
70.0
 30
0.0
 40
25.5
 50
287.03824500000002
 51
291.53318400000001
  0
LINE
  5
419
  8
0
 10
66.863894999999999
 20
48.278801000000001
 30
0.0
 11
66.956493000000009
 21
47.476849999999992
 31
0.0
  0
LINE
  5
41A
  8
0
 10
64.585300000000004
 20
47.18148699999999
 30
0.0
 11
65.154555999999999
 21
46.609082999999998
 31
0.0
  0
ARC
  5
41B
  8
0
 10
55.0
 20
70.0
 30
0.0
 40
25.5
 50
293.46681599999999
 51
297.96175499999998
  0
LINE
  5
41C
  8
0
 10
69.221299999999999
 20
49.743713999999997
 30
0.0
 11
69.403105999999994
 21
48.957174000000002
 31
0.0
  0
LINE
  5
41D
  8
0
 10
67.079892000000001
 20
48.398178000000001
 30
0.0
 11
67.70965799999999
 21
47.89311
 31
0.0
  0
ARC
  5
41E
  8
0
 10
55.0
 20
70.0
 30
0.0
 40
25.5
 50
299.89538800000003
 51
304.39032700000001
  0
LINE
  5
41F
  8
0
 10
71.399864000000008
 20
51.463361999999996
 30
0.0
 11
71.668591000000006
 21
50.702123
 31
0.0
  0
LINE
  5
420
  8
0
 10
69.422573
 20
49.886524999999999
 30
0.0
 11
70.104928000000001
 21
49.455143
 31
0.0
  0
ARC
  5
421
  8
0
 10
55.0
 20
70.0
 30
0.0
 40
25.5
 50
306.323959
 51
310.81889799999999
  0
LINE
  5
422
  8
0
 10
73.372190000000003
 20
53.416117999999997
 30
0.0
 11
73.724459999999993
 21
52.689754000000001
 31
0.0
  0
LINE
  5
423
  8
0
 10
71.583881999999988
 20
51.62780999999999
 30
0.0
 11
72.310245999999992
 21
51.275539999999992
 31
0.0
  0
ARC
  5
424
  8
0
 10
55.0
 20
70.0
 30
0.0
 40
25.5
 50
312.75252999999998
 51
317.24747000000002
  0
LINE
  5
425
  8
0
 10
75.113474999999994
 20
55.577427
 30
0.0
 11
75.544856999999993
 21
54.895071999999999
 31
0.0
  0
LINE
  5
426
  8
0
 10
73.536637999999996
 20
53.600135999999999
 30
0.0
 11
74.297877
 21
53.331409000000001
 31
0.0
  0
ARC
  5
427
  8
0
 10
55.0
 20
70.0
 30
0.0
 40
25.5
 50
319.18110200000001
 51
323.676041
  0
LINE
  5
428
  8
0
 10
76.601821999999999
 20
57.920107999999992
 30
0.0
 11
77.106890000000007
 21
57.290342000000003
 31
0.0
  0
LINE
  5
429
  8
0
 10
75.256286000000003
 20
55.778700000000001
 30
0.0
 11
76.042826000000005
 21
55.596893999999992
 31
0.0
  0
ARC
  5
42A
  8
0
 10
55.0
 20
70.0
 30
0.0
 40
25.5
 50
325.60967299999999
 51
330.10461199999997
  0
LINE
  5
42B
  8
0
 10
77.818512999999996
 20
60.414700000000003
 30
0.0
 11
78.390917000000002
 21
59.845443999999993
 31
0.0
  0
LINE
  5
42C
  8
0
 10
76.721198999999999
 20
58.136105000000008
 30
0.0
 11
77.523150000000001
 21
58.043506999999998
 31
0.0
  0
ARC
  5
42D
  8
0
 10
55.0
 20
70.0
 30
0.0
 40
25.5
 50
332.03824500000002
 51
336.53318400000001
  0
LINE
  5
42E
  8
0
 10
78.748248000000004
 20
63.029833000000004
 30
0.0
 11
79.380788999999993
 21
62.528246000000003
 31
0.0
  0
LINE
  5
42F
  8
0
 10
77.912956000000008
 20
60.642705000000007
 30
0.0
 11
78.720231000000013
 21
60.640479000000013
 31
0.0
  0
ARC
  5
430
  8
0
 10
55.0
 20
70.0
 30
0.0
 40
25.5
 50
338.46681599999999
 51
342.96175499999998
  0
LINE
  5
431
  8
0
 10
79.379334999999983
 20
65.732619999999983
 30
0.0
 11
80.064059
 21
65.305008999999984
 31
0.0
  0
LINE
  5
432
  8
0
 10
78.816568000000004
 20
63.266978999999999
 30
0.0
 11
79.619016999999999
 21
63.355153000000001
 31
0.0
  0
ARC
  5
433
  8
0
 10
55.0
 20
70.0
 30
0.0
 40
25.5
 50
344.89538800000003
 51
349.39032700000001
  0
LINE
  5
434
  8
0
 10
79.703838000000005
 20
68.489071999999993
 30
0.0
 11
80.432133999999991
 21
68.140814000000006
 31
0.0
  0
LINE
  5
435
  8
0
 10
79.420674000000005
 20
65.975925000000004
 30
0.0
 11
80.208205000000007
 21
66.153390000000002
 31
0.0
  0
ARC
  5
436
  8
0
 10
55.0
 20
70.0
 30
0.0
 40
25.5
 50
351.323959
 51
355.81889799999999
  0
LINE
  5
437
  8
0
 10
79.717675
 20
71.264525000000006
 30
0.0
 11
80.480384999999998
 21
71.0
 31
0.0
  0
LINE
  5
438
  8
0
 10
79.717675
 20
68.735474999999994
 30
0.0
 11
80.480384999999998
 21
69.0
 31
0.0
  0
ARC
  5
439
  8
0
 10
55.0
 20
70.0
 30
0.0
 40
25.5
 50
357.75252999999998
 51
2.247469999999999
  0
LINE
  5
43A
  8
0
 10
79.420674000000005
 20
74.024074999999996
 30
0.0
 11
80.208205000000007
 21
73.846609999999998
 31
0.0
  0
LINE
  5
43B
  8
0
 10
79.703838000000005
 20
71.510928000000007
 30
0.0
 11
80.432133999999991
 21
71.859185999999994
 31
0.0
  0
ARC
  5
43C
  8
0
 10
55.0
 20
70.0
 30
0.0
 40
25.5
 50
4.1811020000000001
 51
8.6760409999999997
  0
LINE
  5
43D
  8
0
 10
78.816568000000004
 20
76.733020999999994
 30
0.0
 11
79.619016999999999
 21
76.644846999999999
 31
0.0
  0
LINE
  5
43E
  8
0
 10
79.379334999999983
 20
74.267380000000003
 30
0.0
 11
80.064059
 21
74.694991000000002
 31
0.0
  0
ARC
  5
43F
  8
0
 10
55.0
 20
70.0
 30
0.0
 40
25.5
 50
10.609673000000001
 51
15.104611999999999
  0
LINE
  5
440
  8
0
 10
77.912956000000008
 20
79.357294999999993
 30
0.0
 11
78.720231000000013
 21
79.359521000000001
 31
0.0
  0
LINE
  5
441
  8
0
 10
78.748248000000004
 20
76.970167000000004
 30
0.0
 11
79.380788999999993
 21
77.471754000000004
 31
0.0
  0
ARC
  5
442
  8
0
 10
55.0
 20
70.0
 30
0.0
 40
25.5
 50
17.038245
 51
21.533183999999999
  0
LINE
  5
443
  8
0
 10
76.721198999999999
 20
81.863894999999999
 30
0.0
 11
77.523150000000001
 21
81.956493000000009
 31
0.0
  0
LINE
  5
444
  8
0
 10
77.818512999999996
 20
79.585300000000004
 30
0.0
 11
78.390917000000002
 21
80.154556000000014
 31
0.0
  0
ARC
  5
445
  8
0
 10
55.0
 20
70.0
 30
0.0
 40
25.5
 50
23.466816000000001
 51
27.961755
  0
LINE
  5
446
  8
0
 10
75.256286000000003
 20
84.221300000000014
 30
0.0
 11
76.042826000000005
 21
84.403106000000008
 31
0.0
  0
LINE
  5
447
  8
0
 10
76.601821999999999
 20
82.079892000000001
 30
0.0
 11
77.106890000000007
 21
82.70965799999999
 31
0.0
  0
ARC
  5
448
  8
0
 10
55.0
 20
70.0
 30
0.0
 40
25.5
 50
29.895388000000001
 51
34.390326999999999
  0
LINE
  5
449
  8
0
 10
73.536637999999996
 20
86.399864000000008
 30
0.0
 11
74.297877
 21
86.668591000000006
 31
0.0
  0
LINE
  5
44A
  8
0
 10
75.113474999999994
 20
84.422572999999986
 30
0.0
 11
75.544856999999993
 21
85.104927999999987
 31
0.0
  0
ARC
  5
44B
  8
0
 10
55.0
 20
70.0
 30
0.0
 40
25.5
 50
36.323959000000009
 51
40.81889799999999
  0
LINE
  5
44C
  8
0
 10
71.583881999999988
 20
88.372190000000003
 30
0.0
 11
72.310245999999992
 21
88.724459999999993
 31
0.0
  0
LINE
  5
44D
  8
0
 10
73.372190000000003
 20
86.583881999999988
 30
0.0
 11
73.724459999999993
 21
87.310245999999992
 31
0.0
  0
ARC
  5
44E
  8
0
 10
55.0
 20
70.0
 30
0.0
 40
25.5
 50
42.75253
 51
47.247469999999993
  0
LINE
  5
44F
  8
0
 10
69.422573
 20
90.113474999999994
 30
0.0
 11
70.104928000000001
 21
90.544856999999979
 31
0.0
  0
LINE
  5
450
  8
0
 10
71.399864000000008
 20
88.536637999999996
 30
0.0
 11
71.668591000000006
 21
89.297877
 31
0.0
  0
ARC
  5
451
  8
0
 10
55.0
 20
70.0
 30
0.0
 40
25.5
 50
49.181102000000003
 51
53.676041000000012
  0
LINE
  5
452
  8
0
 10
67.079892000000001
 20
91.601821999999984
 30
0.0
 11
67.70965799999999
 21
92.106890000000007
 31
0.0
  0
LINE
  5
453
  8
0
 10
69.221299999999999
 20
90.256286000000003
 30
0.0
 11
69.403105999999994
 21
91.042826000000005
 31
0.0
  0
ARC
  5
454
  8
0
 10
55.0
 20
70.0
 30
0.0
 40
25.5
 50
55.609673000000001
 51
60.10461200000001
  0
LINE
  5
455
  8
0
 10
64.585300000000004
 20
92.818512999999996
 30
0.0
 11
65.154555999999999
 21
93.390917000000002
 31
0.0
  0
LINE
  5
456
  8
0
 10
66.863894999999999
 20
91.721198999999999
 30
0.0
 11
66.956493000000009
 21
92.523150000000015
 31
0.0
  0
ARC
  5
457
  8
0
 10
55.0
 20
70.0
 30
0.0
 40
25.5
 50
62.038244999999989
 51
66.533183999999991
  0
LINE
  5
458
  8
0
 10
61.970166999999996
 20
93.748248000000004
 30
0.0
 11
62.471753999999997
 21
94.380788999999993
 31
0.0
  0
LINE
  5
459
  8
0
 10
64.357294999999993
 20
92.912956000000008
 30
0.0
 11
64.359521000000001
 21
93.720231000000013
 31
0.0
  0
ARC
  5
45A
  8
0
 10
55.0
 20
70.0
 30
0.0
 40
25.5
 50
68.466816000000009
 51
72.961755000000011
  0
LINE
  5
45B
  8
0
 10
59.267380000000003
 20
94.379334999999983
 30
0.0
 11
59.694991000000002
 21
95.064059
 31
0.0
  0
LINE
  5
45C
  8
0
 10
61.733020999999987
 20
93.816568000000004
 30
0.0
 11
61.644846999999999
 21
94.619016999999999
 31
0.0
  0
ARC
  5
45D
  8
0
 10
55.0
 20
70.0
 30
0.0
 40
25.5
 50
74.895387999999997
 51
79.390326999999999
  0
LINE
  5
45E
  8
0
 10
56.510928
 20
94.703838000000005
 30
0.0
 11
56.859186000000001
 21
95.432133999999991
 31
0.0
  0
LINE
  5
45F
  8
0
 10
59.024075000000003
 20
94.420674000000005
 30
0.0
 11
58.846609999999998
 21
95.208205000000007
 31
0.0
  0
ARC
  5
460
  8
0
 10
55.0
 20
70.0
 30
0.0
 40
25.5
 50
81.323959000000002
 51
85.818898000000004
  0
LINE
  5
461
  8
0
 10
55.0
 20
54.75
 30
0.0
 11
55.0
 21
49.0
 31
0.0
  0
LINE
  5
462
  8
0
 10
55.0
 20
91.0
 30
0.0
 11
55.0
 21
85.25
 31
0.0
  0
LINE
  5
463
  8
3
 10
72.999999999999631
 20
70.0
 30
0.0
 11
76.0
 21
70.0
 31
0.0
  0
LINE
  5
464
  8
3
 10
34.0
 20
70.0
 30
0.0
 11
39.75
 21
70.0
 31
0.0
  0
CIRCLE
  5
465
  8
0
 10
55.0
 20
70.0
 30
0.0
 40
21.0
  0
LINE
  5
466
  8
3
 10
69.383421999999996
 20
59.549832000000002
 30
0.0
 11
71.989356999999984
 21
57.656509999999997
 31
0.0
  0
LINE
  5
467
  8
3
 10
40.616577999999997
 20
59.549832000000002
 30
0.0
 11
38.010643000000002
 21
57.656509999999997
 31
0.0
  0
CIRCLE
  5
468
  8
0
 10
69.0
 20
61.0
 30
0.0
 40
1.5
  0
LINE
  5
469
  8
0
 10
69.25
 20
62.5
 30
0.0
 11
69.25
 21
59.520980000000002
 31
0.0
  0
LINE
  5
46A
  8
0
 10
68.75
 20
62.5
 30
0.0
 11
68.75
 21
59.520980000000002
 31
0.0
  0
LINE
  5
46B
  8
0
 10
41.25
 20
62.5
 30
0.0
 11
41.25
 21
59.520980000000002
 31
0.0
  0
LINE
  5
46C
  8
0
 10
40.75
 20
62.5
 30
0.0
 11
40.75
 21
59.520980000000002
 31
0.0
  0
CIRCLE
  5
46D
  8
0
 10
41.0
 20
61.0
 30
0.0
 40
1.5
  0
LINE
  5
46E
  8
0
 10
53.717948999999997
 20
65.147435999999999
 30
0.0
 11
54.179487000000002
 21
65.147435999999999
 31
0.0
  0
LINE
  5
46F
  8
0
 10
57.5
 20
63.352564000000001
 30
0.0
 11
56.987179000000012
 21
63.352564000000001
 31
0.0
  0
LINE
  5
470
  8
0
 10
56.794871999999998
 20
64.762821000000002
 30
0.0
 11
56.487179000000012
 21
64.762821000000002
 31
0.0
  0
ARC
  5
471
  8
0
 10
53.205128000000002
 20
64.057692000000003
 30
0.0
 40
0.7051280000000001
 50
90.0
 51
270.0
  0
LINE
  5
472
  8
0
 10
53.666666999999997
 20
64.301282
 30
0.0
 11
53.666666999999997
 21
64.762821000000002
 31
0.0
  0
ARC
  5
473
  8
0
 10
53.205128000000002
 20
64.057692000000003
 30
0.0
 40
0.24359
 50
90.0
 51
140.83328900000001
  0
LINE
  5
474
  8
0
 10
53.615384999999989
 20
63.903845999999987
 30
0.0
 11
53.615384999999989
 21
64.211538000000004
 31
0.0
  0
LINE
  5
475
  8
0
 10
53.016269999999992
 20
64.211538000000004
 30
0.0
 11
53.615384999999989
 21
64.211538000000004
 31
0.0
  0
LINE
  5
476
  8
0
 10
53.016269999999992
 20
63.903845999999987
 30
0.0
 11
53.615384999999989
 21
63.903845999999987
 31
0.0
  0
LINE
  5
477
  8
0
 10
53.205128000000002
 20
64.301282
 30
0.0
 11
53.666666999999997
 21
64.301282
 31
0.0
  0
LINE
  5
478
  8
0
 10
53.205128000000002
 20
63.814103000000003
 30
0.0
 11
53.717948999999997
 21
63.814103000000003
 31
0.0
  0
ARC
  5
479
  8
0
 10
53.205128000000002
 20
64.057692000000003
 30
0.0
 40
0.24359
 50
219.16671099999999
 51
270.0
  0
LINE
  5
47A
  8
0
 10
53.487178999999998
 20
63.352564000000001
 30
0.0
 11
53.205128000000002
 21
63.352564000000001
 31
0.0
  0
LINE
  5
47B
  8
0
 10
53.717948999999997
 20
64.057692000000003
 30
0.0
 11
53.717948999999997
 21
65.147435999999999
 31
0.0
  0
LINE
  5
47C
  8
0
 10
54.179487000000002
 20
64.057692000000003
 30
0.0
 11
54.179487000000002
 21
65.147435999999999
 31
0.0
  0
ARC
  5
47D
  8
0
 10
54.999051000000001
 20
64.008382999999995
 30
0.0
 40
1.2820510000000001
 50
177.79580000000001
 51
210.766392
  0
ARC
  5
47E
  8
0
 10
55.075496999999999
 20
64.007121999999995
 30
0.0
 40
0.897436
 50
176.76967999999999
 51
226.83313899999999
  0
LINE
  5
47F
  8
0
 10
53.666666999999997
 20
64.762821000000002
 30
0.0
 11
53.205128000000002
 21
64.762821000000002
 31
0.0
  0
LINE
  5
480
  8
0
 10
55.397435999999999
 20
64.762821000000002
 30
0.0
 11
54.935896999999997
 21
64.762821000000002
 31
0.0
  0
LINE
  5
481
  8
0
 10
55.166666999999997
 20
63.352564000000001
 30
0.0
 11
54.935896999999997
 21
63.352564000000001
 31
0.0
  0
ARC
  5
482
  8
0
 10
54.935896999999997
 20
64.057692000000003
 30
0.0
 40
0.24359
 50
219.16671099999999
 51
270.0
  0
LINE
  5
483
  8
0
 10
54.935896999999997
 20
63.814103000000003
 30
0.0
 11
55.615385000000003
 21
63.814103000000003
 31
0.0
  0
LINE
  5
484
  8
0
 10
54.935896999999997
 20
64.301282
 30
0.0
 11
55.397435999999999
 21
64.301282
 31
0.0
  0
LINE
  5
485
  8
0
 10
54.747039000000001
 20
63.903845999999987
 30
0.0
 11
55.346153999999999
 21
63.903845999999987
 31
0.0
  0
LINE
  5
486
  8
0
 10
54.747039000000001
 20
64.211538000000004
 30
0.0
 11
55.346153999999999
 21
64.211538000000004
 31
0.0
  0
LINE
  5
487
  8
0
 10
55.346153999999999
 20
63.903845999999987
 30
0.0
 11
55.346153999999999
 21
64.211538000000004
 31
0.0
  0
ARC
  5
488
  8
0
 10
54.935896999999997
 20
64.057692000000003
 30
0.0
 40
0.24359
 50
90.0
 51
140.83328900000001
  0
LINE
  5
489
  8
0
 10
55.397435999999999
 20
64.301282
 30
0.0
 11
55.397435999999999
 21
64.762821000000002
 31
0.0
  0
ARC
  5
48A
  8
0
 10
54.935896999999997
 20
64.057692000000003
 30
0.0
 40
0.7051280000000001
 50
90.0
 51
270.0
  0
LINE
  5
48B
  8
0
 10
56.179487000000002
 20
64.301282
 30
0.0
 11
56.179487000000002
 21
64.762821000000002
 31
0.0
  0
LINE
  5
48C
  8
0
 10
55.910255999999997
 20
64.301282
 30
0.0
 11
56.179487000000002
 21
64.301282
 31
0.0
  0
ARC
  5
48D
  8
0
 10
55.910255999999997
 20
64.301282
 30
0.0
 40
0.461538
 50
90.0
 51
234.90036799999999
  0
ARC
  5
48E
  8
0
 10
55.615385000000003
 20
63.814103000000003
 30
0.0
 40
0.461538
 50
270.0
 51
54.900368000000007
  0
LINE
  5
48F
  8
0
 10
55.858974000000003
 20
64.233668000000009
 30
0.0
 11
55.858974000000003
 21
64.25
 31
0.0
  0
ARC
  5
490
  8
0
 10
55.910255999999997
 20
64.25
 30
0.0
 40
0.051282
 50
90.0
 51
180.0
  0
ARC
  5
491
  8
0
 10
55.910255999999997
 20
64.233668000000009
 30
0.0
 40
0.051282
 50
180.0
 51
234.90036799999999
  0
ARC
  5
492
  8
0
 10
55.615385000000003
 20
63.865385000000003
 30
0.0
 40
0.051282
 50
270.0
 51
0.0
  0
ARC
  5
493
  8
0
 10
55.615385000000003
 20
63.881715999999997
 30
0.0
 40
0.051282
 50
0.0
 51
54.900368000000007
  0
LINE
  5
494
  8
0
 10
53.897435999999999
 20
63.352564000000001
 30
0.0
 11
54.461537999999997
 21
63.352564000000001
 31
0.0
  0
LINE
  5
495
  8
0
 10
55.397435999999999
 20
63.814103000000003
 30
0.0
 11
55.397435999999999
 21
63.352564000000001
 31
0.0
  0
ARC
  5
496
  8
0
 10
55.858617000000002
 20
63.589832999999999
 30
0.0
 40
0.512821
 50
154.06662
 51
177.860893
  0
ARC
  5
497
  8
0
 10
54.179130000000008
 20
63.589832999999999
 30
0.0
 40
0.512821
 50
154.06662
 51
177.860893
  0
LINE
  5
498
  8
0
 10
56.179487000000002
 20
64.301282
 30
0.0
 11
56.769230999999998
 21
64.301282
 31
0.0
  0
LINE
  5
499
  8
0
 10
57.423076999999999
 20
64.185896999999997
 30
0.0
 11
57.423076999999999
 21
63.55769200000001
 31
0.0
  0
ARC
  5
49A
  8
0
 10
56.80211400000001
 20
64.140221999999994
 30
0.0
 40
0.62264
 50
4.2068469999999989
 51
90.666449999999983
  0
ARC
  5
49B
  8
0
 10
55.718306000000013
 20
64.525552000000005
 30
0.0
 40
0.512821
 50
334.06662
 51
357.86089300000009
  0
ARC
  5
49C
  8
0
 10
56.487179000000012
 20
64.506410000000002
 30
0.0
 40
0.25641
 50
90.0
 51
180.0
  0
LINE
  5
49D
  8
0
 10
56.179487000000002
 20
64.762821000000002
 30
0.0
 11
55.910255999999997
 21
64.762821000000002
 31
0.0
  0
ARC
  5
49E
  8
0
 10
57.678612000000001
 20
63.536530999999997
 30
0.0
 40
0.25641
 50
175.26603700000001
 51
225.84605300000001
  0
ARC
  5
49F
  8
0
 10
56.653845999999987
 20
63.878205000000001
 30
0.0
 40
0.5256410000000001
 50
140.64330100000001
 51
303.57748700000002
  0
LINE
  5
4A0
  8
0
 10
56.247413999999999
 20
64.211538000000004
 30
0.0
 11
56.964086000000002
 21
64.211538000000004
 31
0.0
  0
LINE
  5
4A1
  8
0
 10
56.645593999999988
 20
63.903845999999987
 30
0.0
 11
56.983376
 21
63.903845999999987
 31
0.0
  0
LINE
  5
4A2
  8
0
 10
55.615385000000003
 20
63.352564000000001
 30
0.0
 11
55.397435999999999
 21
63.352564000000001
 31
0.0
  0
LINE
  5
4A3
  8
0
 10
55.666666999999997
 20
63.881715999999997
 30
0.0
 11
55.666666999999997
 21
63.865385000000003
 31
0.0
  0
ARC
  5
4A4
  8
0
 10
57.192284999999991
 20
63.506439999999998
 30
0.0
 40
0.25641
 50
194.9543699999999
 51
216.878174
  0
ARC
  5
4A5
  8
0
 10
56.769230999999998
 20
64.044871999999998
 30
0.0
 40
0.25641
 50
235.43967799999999
 51
326.63298700000001
  0
ARC
  5
4A6
  8
0
 10
56.769230999999998
 20
64.044871999999998
 30
0.0
 40
0.25641
 50
40.541601999999997
 51
90.0
  0
ARC
  5
4A7
  8
0
 10
56.645593999999988
 20
63.865385000000003
 30
0.0
 40
0.038462
 50
90.0
 51
235.43967799999999
  0
LINE
  5
4A8
  8
0
 10
53.666666999999997
 20
63.608973999999989
 30
0.0
 11
53.666666999999997
 21
63.532051000000003
 31
0.0
  0
ARC
  5
4A9
  8
0
 10
53.487178999999998
 20
63.532051000000003
 30
0.0
 40
0.179487
 50
270.0
 51
0.0
  0
LINE
  5
4AA
  8
0
 10
55.346153999999999
 20
63.608973999999989
 30
0.0
 11
55.346153999999999
 21
63.532051000000003
 31
0.0
  0
ARC
  5
4AB
  8
0
 10
55.166666999999997
 20
63.532051000000003
 30
0.0
 40
0.179487
 50
270.0
 51
0.0
  0
TEXT
  5
4AC
  8
0
 10
52.94166666666667
 20
61.25
 30
0.0
 40
1.0
  1
CLAYTON
 41
0.65
  7
06500
 72
     1
 11
55.0
 21
61.25
 31
0.0
  0
TEXT
  5
4AD
  8
0
 10
53.464285714285708
 20
75.299999999999997
 30
0.0
 40
1.5
  1
10
 72
     1
 11
55.0
 21
75.299999999999997
 31
0.0
  0
TEXT
  5
4AE
  8
0
 10
54.392857142857139
 20
77.0
 30
0.0
 40
1.5
  1
1
 72
     1
 11
55.0
 21
77.0
 31
0.0
  0
LINE
  5
4AF
  8
0
 10
56.5
 20
77.0
 30
0.0
 11
53.5
 21
77.0
 31
0.0
  0
TEXT
  5
4B0
  8
0
 10
60.990173142857152
 20
78.612712000000002
 30
0.0
 40
3.0
  1
9
 72
     4
 11
62.347315999999999
 21
80.112712000000016
 31
0.0
  0
TEXT
  5
4B1
  8
0
 10
65.45963457142858
 20
72.362712000000002
 30
0.0
 40
3.0
  1
8
 72
     4
 11
66.888206000000011
 21
73.862712000000002
 31
0.0
  0
TEXT
  5
4B2
  8
0
 10
65.45963457142858
 20
64.637287999999998
 30
0.0
 40
3.0
  1
7
 72
     4
 11
66.888206000000011
 21
66.137287999999998
 31
0.0
  0
TEXT
  5
4B3
  8
0
 10
60.847316000000014
 20
58.387287999999998
 30
0.0
 40
3.0
  1
6
 72
     4
 11
62.347315999999999
 21
59.887287999999998
 31
0.0
  0
TEXT
  5
4B4
  8
0
 10
53.571428571428569
 20
56.0
 30
0.0
 40
3.0
  1
5
 72
     4
 11
55.0
 21
57.5
 31
0.0
  0
TEXT
  5
4B5
  8
0
 10
46.152684000000001
 20
58.387287999999998
 30
0.0
 40
3.0
  1
4
 72
     4
 11
47.652684000000001
 21
59.887287999999998
 31
0.0
  0
TEXT
  5
4B6
  8
0
 10
41.683222571428573
 20
64.637287999999998
 30
0.0
 40
3.0
  1
3
 72
     4
 11
43.111794000000003
 21
66.137287999999998
 31
0.0
  0
TEXT
  5
4B7
  8
0
 10
41.683222571428573
 20
72.362712000000002
 30
0.0
 40
3.0
  1
2
 72
     4
 11
43.111794000000003
 21
73.862712000000002
 31
0.0
  0
TEXT
  5
4B8
  8
0
 10
46.438398285714293
 20
78.612712000000002
 30
0.0
 40
3.0
  1
1
 72
     4
 11
47.652684000000001
 21
80.112712000000016
 31
0.0
  0
TEXT
  5
4B9
  8
0
 10
53.571428571428569
 20
81.0
 30
0.0
 40
3.0
  1
0
 72
     4
 11
55.0
 21
82.5
 31
0.0
  0
LINE
  5
4BA
  8
3
 10
42.662491354210417
 20
78.963725811015607
 30
0.0
 11
38.010643000000002
 21
82.343489999999989
 31
0.0
  0
LINE
  5
4BB
  8
0
 10
63.963724999999997
 20
82.337508999999997
 30
0.0
 11
67.343490000000003
 21
86.989356999999984
 31
0.0
  0
LINE
  5
4BC
  8
0
 10
69.503612000000004
 20
74.712508999999997
 30
0.0
 11
74.972187000000005
 21
76.489356999999998
 31
0.0
  0
LINE
  5
4BD
  8
3
 10
67.337508999999997
 20
61.036275000000003
 30
0.0
 11
67.502324000000002
 21
60.916530000000002
 31
0.0
  0
LINE
  5
4BE
  8
0
 10
69.503612000000004
 20
65.287491000000003
 30
0.0
 11
74.972187000000005
 21
63.510643000000002
 31
0.0
  0
LINE
  5
4BF
  8
3
 10
59.712508999999997
 20
55.496388000000003
 30
0.0
 11
61.489356999999998
 21
50.027813000000002
 31
0.0
  0
LINE
  5
4C0
  8
0
 10
63.963724999999997
 20
57.662491000000003
 30
0.0
 11
67.343490000000003
 21
53.010643000000002
 31
0.0
  0
LINE
  5
4C1
  8
3
 10
50.287490999999989
 20
55.496388000000003
 30
0.0
 11
48.510643000000002
 21
50.027813000000002
 31
0.0
  0
LINE
  5
4C2
  8
3
 10
42.662490999999989
 20
61.036275000000003
 30
0.0
 11
42.497675999999998
 21
60.916530000000002
 31
0.0
  0
LINE
  5
4C3
  8
0
 10
46.036275000000003
 20
57.662491000000003
 30
0.0
 11
42.656509999999997
 21
53.010643000000002
 31
0.0
  0
LINE
  5
4C4
  8
0
 10
40.496388000000003
 20
65.287491000000003
 30
0.0
 11
35.027813000000002
 21
63.510643000000002
 31
0.0
  0
LINE
  5
4C5
  8
3
 10
67.337508999999997
 20
78.963724999999997
 30
0.0
 11
71.989356999999984
 21
82.343489999999989
 31
0.0
  0
LINE
  5
4C6
  8
0
 10
40.496388000000003
 20
74.712508999999997
 30
0.0
 11
35.027813000000002
 21
76.489356999999998
 31
0.0
  0
LINE
  5
4C7
  8
3
 10
50.287490999999989
 20
84.503612000000004
 30
0.0
 11
48.510643000000002
 21
89.972187000000005
 31
0.0
  0
LINE
  5
4C8
  8
0
 10
46.036275000000003
 20
82.337508999999997
 30
0.0
 11
42.656509999999997
 21
86.989356999999984
 31
0.0
  0
LINE
  5
4C9
  8
3
 10
59.712508999999997
 20
84.503612000000004
 30
0.0
 11
61.489356999999998
 21
89.972187000000005
 31
0.0
  0
TEXT
  5
616
  8
0
 62
     3
 10
0.0
 20
0.0
 30
0.0
 40
10.0
  1
DGK50L-1/10
  7
STANDARD1
  0
POLYLINE
  5
84E
  8
0
 66
     1
 10
0.0
 20
0.0
 30
0.0
 70
     1
 40
1.0
 41
1.0
  0
VERTEX
  5
84F
  8
0
 10
55.293892626146231
 20
70.404508497187479
 30
0.0
 42
-1.0
 50
306.00000000000011
  0
VERTEX
  5
850
  8
0
 10
54.706107373853769
 20
69.595491502812521
 30
0.0
 42
-1.0
 50
306.00000000000011
  0
SEQEND
  5
851
  8
0
  0
INSERT
  5
852
  8
0
  6
CONTINUOUS
  2
*U0
 10
0.0
 20
0.0
 30
0.0
1001
GRADIENTCOLOR1ACI
1070
     5
1001
GRADIENTCOLOR2ACI
1070
     2
1001
ACAD
1002
{
1000
R14_HATCH_DATA
1000
852
1011
1.0
1021
0.0
1031
0.0
1021
0.0
1031
0.0
1011
0.0
1021
0.0
1031
0.0
1021
1.0
1031
0.0
1011
0.0
1021
0.0
1031
0.0
1021
0.0
1031
1.0
1040
0.0
1010
0.0
1020
0.0
1030
1.0
1000
SOLID
1070
     1
1070
     0
1071
        1
1071
        7
1070
     0
1070
     1
1071
        5
1040
41.6349021371744
1040
76.809857496093187
1040
54.999999999999972
1040
72.263333462912968
1040
54.999999999999972
1040
72.249999999999986
1040
50.599999999999987
1040
72.799999999999997
1040
50.599999999999987
1040
70.482681339278614
1071
        0
1070
     1
1070
     1
1040
0.0316551413203258
1071
        1
1040
49.035074586281638
1040
73.330226927209637
1040
0.0
1002
}
  0
LINE
  5
853
  8
0
 10
53.05000000000004
 20
72.481249999999974
 30
0.0
 11
53.05000000000004
 21
67.518749999999969
 31
0.0
  0
LINE
  5
854
  8
0
 10
53.250000000000021
 20
72.481249999999974
 30
0.0
 11
53.249999999999972
 21
67.518749999999969
 31
0.0
  0
LINE
  5
855
  8
0
 10
56.749999999999972
 20
72.018749999999969
 30
0.0
 11
56.749999999999972
 21
67.981249999999946
 31
0.0
  0
LINE
  5
856
  8
0
 10
56.94999999999996
 20
72.018749999999969
 30
0.0
 11
56.949999999999903
 21
67.981249999999946
 31
0.0
  0
LINE
  5
857
  8
0
 10
72.999999999999972
 20
69.999999999999957
 30
0.0
 11
50.599999999999881
 21
72.799999999999997
 31
0.0
  0
INSERT
  5
858
  8
0
  6
CONTINUOUS
  2
*U1
 10
0.0
 20
0.0
 30
0.0
1001
GRADIENTCOLOR1ACI
1070
     5
1001
GRADIENTCOLOR2ACI
1070
     2
1001
ACAD
1002
{
1000
R14_HATCH_DATA
1000
858
1011
1.0
1021
0.0
1031
0.0
1021
0.0
1031
0.0
1011
0.0
1021
0.0
1031
0.0
1021
1.0
1031
0.0
1011
0.0
1021
0.0
1031
0.0
1021
0.0
1031
1.0
1040
0.0
1010
0.0
1020
0.0
1030
1.0
1000
SOLID
1070
     1
1070
     0
1071
        2
1071
        7
1070
     0
1070
     1
1071
        4
1040
54.999999999999972
1040
67.377352706400714
1040
54.999999999999972
1040
67.750000000000014
1040
59.049733467391967
1040
68.256216683424
1040
57.649255307158079
1040
65.50762353341851
1071
        0
1071
        7
1070
     0
1070
     1
1071
        3
1040
54.551436202729029
1040
67.693929525341105
1040
54.999999999999972
1040
67.750000000000014
1040
54.999999999999972
1040
67.377352706400714
1071
        0
1070
     1
1070
     1
1040
0.012846470666508
1071
        2
1040
57.161410396551872
1040
67.136478223960225
1040
0.0
1040
54.844184920867832
1040
67.569408595646664
1040
0.0
1002
}
  0
LINE
  5
859
  8
0
 10
72.999999999999972
 20
69.999999999999957
 30
0.0
 11
50.599999999999987
 21
67.200000000000003
 31
0.0
  0
LINE
  5
85A
  8
0
 10
50.599999999999987
 20
72.799999999999997
 30
0.0
 11
50.599999999999987
 21
67.200000000000003
 31
0.0
  0
LINE
  5
85B
  8
0
 10
54.551436202729029
 20
67.693929525341105
 30
0.0
 11
57.649255307158079
 21
65.50762353341851
 31
0.0
  0
LINE
  5
85C
  8
0
 10
55.061964551825241
 20
72.242254431021806
 30
0.0
 11
41.634902137174578
 21
76.80985749609313
 31
0.0
  0
LINE
  5
85D
  8
0
 10
41.634902137174457
 20
76.809857496093187
 30
0.0
 11
50.599999999999987
 21
70.482681339278614
 31
0.0
  0
LINE
  5
85E
  8
0
 10
57.649255307158079
 20
65.50762353341851
 30
0.0
 11
59.049733467391967
 21
68.256216683424
 31
0.0
  0
ENDSEC
  0
EOF
