  0
SECTION
  2
HEADER
  9
$ACADVER
  1
AC1009
  9
$INSBASE
 10
0.0
 20
0.0
 30
0.0
  9
$EXTMIN
 10
0.0
 20
-2.960436562073669
 30
0.0
  9
$EXTMAX
 10
226.45493884734901
 20
224.03444185374869
 30
0.0
  9
$LIMMIN
 10
0.0
 20
0.0
  9
$LIMMAX
 10
375.0
 20
270.0
  9
$ORTHOMODE
 70
     1
  9
$REGENMODE
 70
     1
  9
$FILLMODE
 70
     1
  9
$QTEXTMODE
 70
     0
  9
$MIRRTEXT
 70
     0
  9
$DRAGMODE
 70
     2
  9
$LTSCALE
 40
10.0
  9
$OSMODE
 70
    37
  9
$ATTMODE
 70
     1
  9
$TEXTSIZE
 40
1.0
  9
$TRACEWID
 40
0.05
  9
$TEXTSTYLE
  7
08000
  9
$CLAYER
  8
0
  9
$CELTYPE
  6
BYLAYER
  9
$CECOLOR
 62
   256
  9
$DIMSCALE
 40
1.0
  9
$DIMASZ
 40
3.0
  9
$DIMEXO
 40
2.0
  9
$DIMDLI
 40
0.38
  9
$DIMRND
 40
0.0
  9
$DIMDLE
 40
0.0
  9
$DIMEXE
 40
2.0
  9
$DIMTP
 40
0.0
  9
$DIMTM
 40
0.0
  9
$DIMTXT
 40
3.2000000000000002
  9
$DIMCEN
 40
0.0
  9
$DIMTSZ
 40
0.0
  9
$DIMTOL
 70
     0
  9
$DIMLIM
 70
     0
  9
$DIMTIH
 70
     0
  9
$DIMTOH
 70
     0
  9
$DIMSE1
 70
     0
  9
$DIMSE2
 70
     0
  9
$DIMTAD
 70
     1
  9
$DIMZIN
 70
     0
  9
$DIMBLK
  1

  9
$DIMASO
 70
     0
  9
$DIMSHO
 70
     0
  9
$DIMPOST
  1

  9
$DIMAPOST
  1

  9
$DIMALT
 70
     0
  9
$DIMALTD
 70
     2
  9
$DIMALTF
 40
25.399999999999999
  9
$DIMLFAC
 40
1.0
  9
$DIMTOFL
 70
     0
  9
$DIMTVP
 40
1.6000000000000001
  9
$DIMTIX
 70
     1
  9
$DIMSOXD
 70
     0
  9
$DIMSAH
 70
     0
  9
$DIMBLK1
  1

  9
$DIMBLK2
  1

  9
$DIMSTYLE
  2
STANDARD
  9
$DIMCLRD
 70
     0
  9
$DIMCLRE
 70
     0
  9
$DIMCLRT
 70
     0
  9
$DIMTFAC
 40
1.0
  9
$DIMGAP
 40
0.09
  9
$LUNITS
 70
     2
  9
$LUPREC
 70
     1
  9
$SKETCHINC
 40
0.1
  9
$FILLETRAD
 40
0.0
  9
$AUNITS
 70
     0
  9
$AUPREC
 70
     1
  9
$MENU
  1
E:\r13\win\SUPPORT\ACAD
  9
$ELEVATION
 40
0.0
  9
$PELEVATION
 40
0.0
  9
$THICKNESS
 40
0.0
  9
$LIMCHECK
 70
     0
  9
$BLIPMODE
 70
     0
  9
$CHAMFERA
 40
0.0
  9
$CHAMFERB
 40
0.0
  9
$SKPOLY
 70
     0
  9
$TDCREATE
 40
2449839.7921990752
  9
$TDUPDATE
 40
2457534.4790969221
  9
$TDINDWG
 40
0.2107048958
  9
$TDUSRTIMER
 40
0.2107048958
  9
$USRTIMER
 70
     1
  9
$ANGBASE
 50
0.0
  9
$ANGDIR
 70
     0
  9
$PDMODE
 70
     0
  9
$PDSIZE
 40
0.0
  9
$PLINEWID
 40
0.0
  9
$COORDS
 70
     1
  9
$SPLFRAME
 70
     0
  9
$SPLINETYPE
 70
     6
  9
$SPLINESEGS
 70
     8
  9
$ATTDIA
 70
     0
  9
$ATTREQ
 70
     1
  9
$HANDLING
 70
     1
  9
$HANDSEED
  5
247D
  9
$SURFTAB1
 70
     6
  9
$SURFTAB2
 70
     6
  9
$SURFTYPE
 70
     6
  9
$SURFU
 70
     6
  9
$SURFV
 70
     6
  9
$UCSNAME
  2

  9
$UCSORG
 10
0.0
 20
0.0
 30
0.0
  9
$UCSXDIR
 10
1.0
 20
0.0
 30
0.0
  9
$UCSYDIR
 10
0.0
 20
1.0
 30
0.0
  9
$PUCSNAME
  2

  9
$PUCSORG
 10
0.0
 20
0.0
 30
0.0
  9
$PUCSXDIR
 10
1.0
 20
0.0
 30
0.0
  9
$PUCSYDIR
 10
0.0
 20
1.0
 30
0.0
  9
$USERI1
 70
     0
  9
$USERI2
 70
     1
  9
$USERI3
 70
     0
  9
$USERI4
 70
     0
  9
$USERI5
 70
     0
  9
$USERR1
 40
0.0
  9
$USERR2
 40
0.0
  9
$USERR3
 40
0.0
  9
$USERR4
 40
0.0
  9
$USERR5
 40
0.0
  9
$WORLDVIEW
 70
     1
  9
$SHADEDGE
 70
     3
  9
$SHADEDIF
 70
    70
  9
$TILEMODE
 70
     1
  9
$MAXACTVP
 70
    16
  9
$PLIMCHECK
 70
     0
  9
$PEXTMIN
 10
1.0000000000000000E+020
 20
1.0000000000000000E+020
 30
1.0000000000000000E+020
  9
$PEXTMAX
 10
-1.0000000000000000E+020
 20
-1.0000000000000000E+020
 30
-1.0000000000000000E+020
  9
$PLIMMIN
 10
0.0
 20
0.0
  9
$PLIMMAX
 10
12.0
 20
9.0
  9
$UNITMODE
 70
     0
  9
$VISRETAIN
 70
     0
  9
$PLINEGEN
 70
     0
  9
$PSLTSCALE
 70
     0
  0
ENDSEC
  0
SECTION
  2
TABLES
  0
TABLE
  2
VPORT
 70
     1
  0
VPORT
  2
*ACTIVE
 70
     0
 10
0.0
 20
0.0
 11
1.0
 21
1.0
 12
171.2267064242572
 22
110.5398236715976
 13
0.0
 23
0.0
 14
10.0
 24
10.0
 15
10.0
 25
10.0
 16
0.0
 26
0.0
 36
1.0
 17
0.0
 27
0.0
 37
0.0
 40
228.8544461004455
 41
1.816239316239316
 42
50.0
 43
0.0
 44
0.0
 50
0.0
 51
0.0
 71
     0
 72
   100
 73
     1
 74
     0
 75
     0
 76
     0
 77
     0
 78
     2
  0
ENDTAB
  0
TABLE
  2
LTYPE
 70
     4
  0
LTYPE
  2
CONTINUOUS
 70
     0
  3
Solid Line
 72
    65
 73
     0
 40
0.0
  0
LTYPE
  2
CENTER
 70
     0
  3
____ _ ____ _ ____ _ ____ _ ____ _ ____ _ ____
 72
    65
 73
     4
 40
2.0
 49
1.25
 49
-0.25
 49
0.25
 49
-0.25
  0
LTYPE
  2
HIDDEN
 70
     0
  3
_ _ _ _ _ _ _ _ _ _ _ _ _ _ _ _ _ _ _ _ _ _ _
 72
    65
 73
     2
 40
0.375
 49
0.25
 49
-0.125
  0
LTYPE
  2
PHANTOM2
 70
     0
  3
___ _ _ ___ _ _ ___ _ _ ___ _ _
 72
    65
 73
     6
 40
1.25
 49
0.625
 49
-0.125
 49
0.125
 49
-0.125
 49
0.125
 49
-0.125
  0
ENDTAB
  0
TABLE
  2
LAYER
 70
     5
  0
LAYER
  2
0
 70
     0
 62
     7
  6
CONTINUOUS
  0
LAYER
  2
1
 70
     0
 62
     1
  6
CENTER
  0
LAYER
  2
3
 70
     0
 62
     3
  6
CONTINUOUS
  0
LAYER
  2
2
 70
     0
 62
     2
  6
HIDDEN
  0
LAYER
  2
DEFPOINTS
 70
     0
 62
     7
  6
CONTINUOUS
  0
ENDTAB
  0
TABLE
  2
STYLE
 70
     5
  0
STYLE
  2
STANDARD
 70
     0
 40
0.0
 41
1.0
 50
0.0
 71
     0
 42
4.0
  3
ROMANS
  4

  0
STYLE
  2
06500
 70
     0
 40
0.0
 41
1.0
 50
0.0
 71
     0
 42
1.0
  3
romans.shx
  4

  0
STYLE
  2
08000
 70
     0
 40
0.0
 41
1.0
 50
0.0
 71
     0
 42
1.0
  3
romans.shx
  4

  0
STYLE
  2
STANDARD1
 70
     0
 40
0.0
 41
1.0
 50
0.0
 71
     0
 42
3.0
  3
txt
  4

  0
STYLE
  2
07500
 70
     0
 40
0.0
 41
1.0
 50
0.0
 71
     0
 42
3.0000000000000502
  3
romans.shx
  4

  0
ENDTAB
  0
TABLE
  2
VIEW
 70
     1
  0
VIEW
  2
ALL
 70
     0
 40
270.33333299999998
 10
220.87176500000001
 20
134.83333300000001
 41
441.74353000000002
 11
0.0
 21
0.0
 31
1.0
 12
0.0
 22
0.0
 32
0.0
 42
0.0
 43
0.0
 44
0.0
 50
0.0
 71
     0
  0
ENDTAB
  0
TABLE
  2
UCS
 70
     0
  0
ENDTAB
  0
TABLE
  2
APPID
 70
     7
  0
APPID
  2
ACAD
 70
     0
  0
APPID
  2
ACAD_EXEMPT_FROM_CAD_STANDARDS
 70
     0
  0
APPID
  2
ACAD_MLEADERVER
 70
     0
  0
APPID
  2
ACAD_NAV_VCDISPLAY
 70
     0
  0
APPID
  2
ACAD_DSTYLE_DIMRADIAL_EXTENSION
 70
     0
  0
APPID
  2
ACAD_DSTYLE_DIMJAG
 70
     0
  0
APPID
  2
ACAD_DSTYLE_DIMTALN
 70
     0
  0
ENDTAB
  0
TABLE
  2
DIMSTYLE
 70
     1
  0
DIMSTYLE
  2
STANDARD
 70
     0
  3

  4

  5

  6

  7

 40
1.0
 41
0.18
 42
0.0625
 43
0.38
 44
0.18
 45
0.0
 46
0.0
 47
0.0
 48
0.0
140
0.18
141
0.09
142
0.0
143
25.399999999999999
144
1.0
145
0.0
146
1.0
147
0.09
 71
     0
 72
     0
 73
     1
 74
     1
 75
     0
 76
     0
 77
     0
 78
     0
170
     0
171
     2
172
     0
173
     0
174
     0
175
     0
176
     0
177
     0
178
     0
  0
ENDTAB
  0
ENDSEC
  0
SECTION
  2
BLOCKS
  0
BLOCK
  8
0
  2
$MODEL_SPACE
 70
     0
 10
0.0
 20
0.0
 30
0.0
  3
$MODEL_SPACE
  1

  0
ENDBLK
  5
1EA
  8
0
  0
BLOCK
 67
     1
  8
0
  2
$PAPER_SPACE
 70
     0
 10
0.0
 20
0.0
 30
0.0
  3
$PAPER_SPACE
  1

  0
ENDBLK
  5
1E8
 67
     1
  8
0
  0
ENDSEC
  0
SECTION
  2
ENTITIES
  0
TEXT
  5
541
  8
0
 62
     3
 10
0.0
 20
0.0
 30
0.0
 40
10.0
  1
DFK70R-1/30
  7
STANDARD1
  0
ARC
  5
134F
  8
0
 10
121.97131777490399
 20
234.2962013731518
 30
0.0
 40
35.002896954953343
 50
214.14864249132839
 51
253.85135750867059
  0
ARC
  5
1353
  8
0
 10
144.9863526796471
 20
163.45514381088361
 30
0.0
 40
34.999999999999311
 50
142.14693031691129
 51
181.85306968308751
  0
ARC
  5
1357
  8
0
 10
84.727469423674165
 20
119.67450243530929
 30
0.0
 40
34.99999999999892
 50
70.146930316915245
 51
109.8530696830847
  0
ARC
  5
135B
  8
0
 10
24.468035145172959
 20
163.45496477281119
 30
0.0
 40
35.000544945446428
 50
358.14725241665371
 51
37.852747583344872
  0
ARC
  5
135F
  8
0
 10
47.483621073369932
 20
234.29620137187749
 30
0.0
 40
35.002896953471812
 50
286.14864249045462
 51
325.85135750954851
  0
LINE
  5
13BD
  8
0
 10
186.45132248859929
 20
154.64774033840061
 30
0.0
 11
186.55493884734889
 21
155.03444185374869
 31
0.0
  0
LINE
  5
13BE
  8
0
 10
186.55493884734889
 20
211.0344418537486
 30
0.0
 11
184.6099441462099
 21
218.2932608988512
 31
0.0
  0
LINE
  5
13BF
  8
0
 10
172.23057604502421
 20
218.293260898851
 30
0.0
 11
169.45493884734901
 21
207.93444185374861
 31
0.0
  0
LINE
  5
13C0
  8
0
 10
169.45493884734901
 20
158.13444185374871
 30
0.0
 11
170.3891977026349
 21
154.64774033840061
 31
0.0
  0
LINE
  5
13C1
  8
0
 10
204.55493884734889
 20
155.0344418537486
 30
0.0
 11
205.55493884734889
 21
156.0344418537486
 31
0.0
  0
LINE
  5
13C2
  8
0
 10
205.55493884734889
 20
210.03444185374869
 30
0.0
 11
204.55493884734889
 21
211.0344418537486
 31
0.0
  0
LINE
  5
13C3
  8
0
 10
186.55493884734889
 20
155.0344418537486
 30
0.0
 11
204.55493884734889
 21
155.0344418537486
 31
0.0
  0
LINE
  5
13C4
  8
0
 10
204.55493884734889
 20
211.0344418537486
 30
0.0
 11
186.55493884734889
 21
211.0344418537486
 31
0.0
  0
LINE
  5
13C5
  8
0
 10
172.05037228054309
 20
152.0
 30
0.0
 11
184.79419590388241
 21
152.0
 31
0.0
  0
ARC
  5
13C6
  8
0
 10
206.55493884734889
 20
170.0344418537486
 30
0.0
 40
1.0
 50
90.0
 51
180.0
  0
ARC
  5
13C7
  8
0
 10
206.55493884734889
 20
196.0344418537486
 30
0.0
 40
1.0
 50
180.0
 51
270.0
  0
LINE
  5
13C8
  8
0
 10
220.1549388473488
 20
171.0344418537486
 30
0.0
 11
221.1549388473488
 21
172.0344418537486
 31
0.0
  0
LINE
  5
13C9
  8
0
 10
221.1549388473488
 20
194.0344418537486
 30
0.0
 11
220.1549388473488
 21
195.0344418537486
 31
0.0
  0
LINE
  5
13CA
  8
0
 10
206.55493884734889
 20
195.0344418537486
 30
0.0
 11
220.1549388473488
 21
195.0344418537486
 31
0.0
  0
LINE
  5
13CB
  8
0
 10
212.95493884734901
 20
171.0344418537486
 30
0.0
 11
206.55493884734889
 21
171.0344418537486
 31
0.0
  0
LINE
  5
13CC
  8
0
 10
220.1549388473488
 20
171.0344418537486
 30
0.0
 11
217.95452676903849
 21
171.0344418537486
 31
0.0
  0
LINE
  5
13CD
  8
0
 10
221.1549388473488
 20
174.0344418537486
 30
0.0
 11
221.45493884734901
 21
174.0344418537486
 31
0.0
  0
LINE
  5
13CE
  8
0
 10
221.45493884734901
 20
192.03444185374869
 30
0.0
 11
221.1549388473488
 21
192.03444185374869
 31
0.0
  0
LINE
  5
13CF
  8
0
 10
183.6440183199208
 20
219.0344418537486
 30
0.0
 11
173.1965018713133
 21
219.0344418537486
 31
0.0
  0
ARC
  5
13D0
  8
0
 10
183.6440183199208
 20
218.03444185374869
 30
0.0
 40
0.9999999999999896
 50
15.000000000005411
 51
90.025246296185855
  0
ARC
  5
13D1
  8
0
 10
173.1965018713133
 20
218.03444185374869
 30
0.0
 40
1.0000000000000151
 50
90.023088767200704
 51
165.00000000000259
  0
LINE
  5
13D2
  8
0
 10
217.54365406251699
 20
171.11365706891661
 30
0.0
 11
217.4644388473491
 21
171.0344418537486
 31
0.0
  0
LINE
  5
13D3
  8
0
 10
213.4454388473489
 20
171.0344418537486
 30
0.0
 11
213.3661622776236
 21
171.1137184234739
 31
0.0
  0
POLYLINE
  5
13D4
  8
0
 66
     1
 10
0.0
 20
0.0
 30
0.0
 70
   128
  0
VERTEX
  5
23F9
  8
0
 10
186.4437083848581
 20
154.64978053134919
 30
0.0
  0
VERTEX
  5
23FA
  8
0
 10
186.44426374719589
 20
154.6507100525445
 30
0.0
  0
VERTEX
  5
23FB
  8
0
 10
186.3270141119026
 20
154.45297052557049
 30
0.0
  0
VERTEX
  5
23FC
  8
0
 10
186.09098878703
 20
154.0457530318993
 30
0.0
  0
VERTEX
  5
23FD
  8
0
 10
185.74739458471251
 20
153.43105591807279
 30
0.0
  0
VERTEX
  5
23FE
  8
0
 10
185.30133646151049
 20
152.5943338745129
 30
0.0
  0
SEQEND
  5
23FF
  8
0
  0
POLYLINE
  5
13D5
  8
0
 66
     1
 10
0.0
 20
0.0
 30
0.0
 70
   128
  0
VERTEX
  5
2400
  8
0
 10
184.6099441462099
 20
152.1504904735927
 30
0.0
  0
VERTEX
  5
2401
  8
0
 10
184.69044345330869
 20
152.0392419856469
 30
0.0
  0
VERTEX
  5
2402
  8
0
 10
184.88146741567169
 20
152.02778104227951
 30
0.0
  0
VERTEX
  5
2403
  8
0
 10
185.12514691284031
 20
152.2907342505107
 30
0.0
  0
VERTEX
  5
2404
  8
0
 10
185.30133646151049
 20
152.5943338745129
 30
0.0
  0
SEQEND
  5
2405
  8
0
  0
ARC
  5
13D7
  8
0
 10
251.39883280474601
 20
150.65007999659761
 30
0.0
 40
67.120374048538295
 50
169.98443660568611
 51
174.30332372303189
  0
ARC
  5
13D8
  8
0
 10
130.36679143099619
 20
173.62793117755621
 30
0.0
 40
56.085626033647308
 50
348.37185674482441
 51
11.62814325517852
  0
ARC
  5
13D9
  8
0
 10
221.6068144169833
 20
192.65077929715309
 30
0.0
 40
37.116837287260097
 50
184.60786898666049
 51
192.00198505525381
  0
ARC
  5
13DB
  8
0
 10
191.58011273476109
 20
197.62151025469649
 30
0.0
 40
6.981630954868379
 50
154.06987725585731
 51
176.71635828673769
  0
POLYLINE
  5
13DC
  8
0
 66
     1
 10
0.0
 20
0.0
 30
0.0
 70
   128
  0
VERTEX
  5
2406
  8
0
 10
185.30133646151049
 20
200.67440057379429
 30
0.0
  0
VERTEX
  5
2407
  8
0
 10
185.7285000333197
 20
201.50386839790991
 30
0.0
  0
VERTEX
  5
2408
  8
0
 10
186.07026779136839
 20
202.52470774083039
 30
0.0
  0
VERTEX
  5
2409
  8
0
 10
186.31648101985471
 20
203.77214452970199
 30
0.0
  0
VERTEX
  5
240A
  8
0
 10
186.44313142187249
 20
205.2108540829272
 30
0.0
  0
VERTEX
  5
240B
  8
0
 10
186.4436758855079
 20
206.76224086237701
 30
0.0
  0
VERTEX
  5
240C
  8
0
 10
186.32701386952769
 20
208.46832759096779
 30
0.0
  0
VERTEX
  5
240D
  8
0
 10
186.08970643482209
 20
210.37620575569241
 30
0.0
  0
VERTEX
  5
240E
  8
0
 10
185.74739410016011
 20
212.4189584030639
 30
0.0
  0
VERTEX
  5
240F
  8
0
 10
185.30133646151049
 20
214.64761246532319
 30
0.0
  0
SEQEND
  5
2410
  8
0
  0
ARC
  5
13DD
  8
0
 10
411.90937236369172
 20
262.87943114581532
 30
0.0
 40
231.68407426638561
 50
191.16462449968341
 51
192.01567342032109
  0
LINE
  5
13DF
  8
0
 10
186.55493884734889
 20
155.0344418537486
 30
0.0
 11
186.55493884734881
 21
211.0344418537486
 31
0.0
  0
ARC
  5
13E0
  8
0
 10
164.99326301190311
 20
197.55189007202699
 30
0.0
 40
7.2525271373255382
 50
3.7118643123839519
 51
25.50190014509835
  0
LINE
  5
13E1
  8
0
 10
185.30133646151049
 20
200.67440057379429
 30
0.0
 11
171.53918372972359
 21
200.67440057379429
 31
0.0
  0
ARC
  5
13E2
  8
0
 10
142.61845821531529
 20
206.4709792233165
 30
0.0
 40
42.833165808620492
 50
343.29530085064118
 51
348.62281669394798
  0
ARC
  5
13E3
  8
0
 10
156.121971399594
 20
185.88945734350051
 30
0.0
 40
28.737593667141951
 50
7.5573195649609737
 51
16.724036050644191
  0
LINE
  5
13E4
  8
0
 10
185.30133646151049
 20
184.9324970638053
 30
0.0
 11
171.53918372972359
 21
184.9324970638053
 31
0.0
  0
ARC
  5
13E5
  8
0
 10
135.35999749799501
 20
192.6323442357085
 30
0.0
 40
36.989473676449748
 50
347.9852673006107
 51
355.40487865747951
  0
ARC
  5
13E6
  8
0
 10
201.25619719943299
 20
185.77379619833249
 30
0.0
 40
29.285816438312999
 50
163.3619415532965
 51
172.35670283109661
  0
ARC
  5
13E7
  8
0
 10
212.36193187527689
 20
206.00578464803269
 30
0.0
 40
40.917917135474767
 50
191.2524042169716
 51
196.8294782383924
  0
LINE
  5
13EA
  8
0
 10
169.45493884734901
 20
158.13444185374871
 30
0.0
 11
169.45493884734819
 21
207.9344418537452
 31
0.0
  0
POLYLINE
  5
13EB
  8
0
 66
     1
 10
0.0
 20
0.0
 30
0.0
 70
   128
  0
VERTEX
  5
2411
  8
0
 10
171.53918372972359
 20
214.64761246532319
 30
0.0
  0
VERTEX
  5
2412
  8
0
 10
171.11202118316689
 20
212.52027557481281
 30
0.0
  0
VERTEX
  5
2413
  8
0
 10
170.77025395756729
 20
210.507661279389
 30
0.0
  0
VERTEX
  5
2414
  8
0
 10
170.52404066736449
 20
208.57102345754299
 30
0.0
  0
VERTEX
  5
2415
  8
0
 10
170.39738944905929
 20
206.78695726284809
 30
0.0
  0
VERTEX
  5
2416
  8
0
 10
170.3968436687498
 20
205.233495433249
 30
0.0
  0
VERTEX
  5
2417
  8
0
 10
170.51350448941389
 20
203.84636251090521
 30
0.0
  0
VERTEX
  5
2418
  8
0
 10
170.75081089530181
 20
202.60078977359629
 30
0.0
  0
VERTEX
  5
2419
  8
0
 10
171.09312242797409
 20
201.5492203086047
 30
0.0
  0
VERTEX
  5
241A
  8
0
 10
171.53918372972359
 20
200.67440057379429
 30
0.0
  0
SEQEND
  5
241B
  8
0
  0
ARC
  5
13EC
  8
0
 10
226.85842558284841
 20
173.6279311775566
 30
0.0
 40
56.462480720218657
 50
168.4505402557775
 51
191.5494597442254
  0
ARC
  5
13ED
  8
0
 10
105.4253992728668
 20
150.64783254720709
 30
0.0
 40
67.13680480977834
 50
5.6972050198264421
 51
10.015034651466911
  0
POLYLINE
  5
13EF
  8
0
 66
     1
 10
0.0
 20
0.0
 30
0.0
 70
   128
  0
VERTEX
  5
241C
  8
0
 10
171.53918372972359
 20
152.5943338745129
 30
0.0
  0
VERTEX
  5
241D
  8
0
 10
171.80818683863501
 20
152.16474252660919
 30
0.0
  0
VERTEX
  5
241E
  8
0
 10
172.0383565848594
 20
152.00067413163629
 30
0.0
  0
VERTEX
  5
241F
  8
0
 10
172.23057604502421
 20
152.1504904735927
 30
0.0
  0
SEQEND
  5
2420
  8
0
  0
ARC
  5
13F0
  8
0
 10
137.2424969653209
 20
134.87816760125571
 30
0.0
 40
38.602140749409983
 50
27.318895489702101
 51
30.80978464221155
  0
ARC
  5
13F1
  8
0
 10
-54.450759334662507
 20
262.7526656519363
 30
0.0
 40
231.05313351766389
 50
347.98316457129653
 51
348.83653750870491
  0
LINE
  5
13F2
  8
0
 10
185.30133646151049
 20
162.32336529130751
 30
0.0
 11
171.53918372972359
 21
162.32336529130751
 31
0.0
  0
LINE
  5
13F4
  8
0
 10
204.55493884734889
 20
155.0344418537486
 30
0.0
 11
204.55493884734889
 21
211.0344418537486
 31
0.0
  0
LINE
  5
13F6
  8
0
 10
205.55493884734889
 20
156.0344418537486
 30
0.0
 11
205.55493884734901
 21
210.0344418537486
 31
0.0
  0
LINE
  5
13F7
  8
0
 10
185.30133646151049
 20
214.64761246532319
 30
0.0
 11
171.53918372972359
 21
214.64761246532319
 31
0.0
  0
ARC
  5
13F8
  8
0
 10
154.4398466148011
 20
163.06292002893059
 30
0.0
 40
20.870821077753899
 50
328.47599234569628
 51
333.98801338739497
  0
ARC
  5
13F9
  8
0
 10
183.35778365430059
 20
158.6327450440175
 30
0.0
 40
11.205247585615851
 50
186.76609117504211
 51
204.9287788196049
  0
ARC
  5
13FA
  8
0
 10
173.57098906242089
 20
158.60769316356939
 30
0.0
 40
11.11466761525296
 50
334.99657812398499
 51
353.308551881271
  0
ARC
  5
13FB
  8
0
 10
200.10057246020659
 20
161.80010124559979
 30
0.0
 40
18.250330233002281
 50
205.61588769834091
 51
211.92010656857931
  0
LINE
  5
13FC
  8
0
 10
220.15493884734889
 20
171.03444185374869
 30
0.0
 11
220.1549388473488
 21
195.0344418537486
 31
0.0
  0
LINE
  5
13FE
  8
0
 10
221.15493884734869
 20
172.03444185374849
 30
0.0
 11
221.1549388473488
 21
194.0344418537486
 31
0.0
  0
ARC
  5
1400
  8
0
 10
215.4547328081938
 20
159.17369776807789
 30
0.0
 40
12.12131263982778
 50
78.098412817796884
 51
101.9015871821732
  0
LINE
  5
1401
  8
0
 10
221.45493884734901
 20
174.0344418537486
 30
0.0
 11
221.45493884734901
 21
192.03444185374869
 31
0.0
  0
ARC
  5
1403
  8
0
 10
183.53361378191559
 20
217.9623014849208
 30
0.0
 40
1.077809877706841
 50
3.0024493922329158
 51
84.120643054668946
  0
ARC
  5
1404
  8
0
 10
173.30010751008709
 20
217.9687672936661
 30
0.0
 40
1.0706990223181081
 50
95.552885275665929
 51
177.32402227704051
  0
LINE
  5
1405
  8
0
 10
217.46443884734899
 20
171.0344418537486
 30
0.0
 11
213.4454388473489
 21
171.0344418537486
 31
0.0
  0
LINE
  5
1407
  8
0
 10
184.60994414621169
 20
218.01875570864939
 30
0.0
 11
184.60994414621169
 21
218.29326089884481
 31
0.0
  0
LINE
  5
1408
  8
0
 10
172.23057604502421
 20
218.01875570865789
 30
0.0
 11
172.23057604502421
 21
218.2932608988512
 31
0.0
  0
LINE
  5
140B
  8
0
 10
53.469120423004817
 20
85.773071983388036
 30
0.0
 11
56.727469423674172
 21
84.899999999999864
 31
0.0
  0
LINE
  5
140C
  8
0
 10
112.7274694236739
 20
84.900000000000091
 30
0.0
 11
115.99333404946969
 21
85.775085789071454
 31
0.0
  0
LINE
  5
140D
  8
0
 10
115.9874322730909
 20
100.2958530906069
 30
0.0
 11
109.627469423674
 21
102.0000000000001
 31
0.0
  0
LINE
  5
140E
  8
0
 10
59.827469423674067
 20
101.9999999999999
 30
0.0
 11
53.461604797878863
 21
100.2942717143922
 31
0.0
  0
LINE
  5
140F
  8
0
 10
59.445052864069787
 20
99.915755117625167
 30
0.0
 11
59.445052864069787
 21
86.209115408742946
 31
0.0
  0
LINE
  5
1410
  8
0
 10
110.00988598327829
 20
86.206357294193481
 30
0.0
 11
110.00988598327829
 21
99.915755117625395
 31
0.0
  0
LINE
  5
1411
  8
0
 10
56.727469423674172
 20
66.899999999999864
 30
0.0
 11
57.727469423674158
 21
65.899999999999864
 31
0.0
  0
LINE
  5
1412
  8
0
 10
111.72746942367409
 20
65.900000000000091
 30
0.0
 11
112.72746942367409
 21
66.900000000000091
 31
0.0
  0
LINE
  5
1413
  8
0
 10
56.727469423674172
 20
84.899999999999864
 30
0.0
 11
56.727469423674172
 21
66.899999999999864
 31
0.0
  0
LINE
  5
1414
  8
0
 10
112.72746942367409
 20
66.900000000000091
 30
0.0
 11
112.72746942367409
 21
84.900000000000091
 31
0.0
  0
ARC
  5
1415
  8
0
 10
71.727469423674165
 20
64.899999999999977
 30
0.0
 40
1.0
 50
0.0
 51
90.0
  0
ARC
  5
1416
  8
0
 10
97.727469423674165
 20
64.900000000000091
 30
0.0
 40
1.0
 50
90.0
 51
180.0
  0
LINE
  5
1417
  8
0
 10
72.727469423674165
 20
51.299999999999947
 30
0.0
 11
73.727469423674165
 21
50.299999999999947
 31
0.0
  0
LINE
  5
1418
  8
0
 10
95.727469423674165
 20
50.300000000000068
 30
0.0
 11
96.727469423674165
 21
51.300000000000061
 31
0.0
  0
LINE
  5
1419
  8
0
 10
72.727469423674165
 20
64.899999999999977
 30
0.0
 11
72.727469423674165
 21
51.299999999999947
 31
0.0
  0
LINE
  5
141A
  8
0
 10
96.727469423674165
 20
51.300000000000061
 30
0.0
 11
96.727469423674165
 21
64.900000000000091
 31
0.0
  0
LINE
  5
141B
  8
0
 10
75.727469423674165
 20
50.299999999999947
 30
0.0
 11
75.727469423674165
 21
50.0
 31
0.0
  0
LINE
  5
141C
  8
0
 10
93.727469423674165
 20
50.0
 30
0.0
 11
93.727469423674165
 21
50.300000000000068
 31
0.0
  0
LINE
  5
141D
  8
0
 10
50.0
 20
99.020246242361623
 30
0.0
 11
50.0
 21
87.052905158465933
 31
0.0
  0
LINE
  5
141E
  8
0
 10
119.4549388473481
 20
87.049111261101643
 30
0.0
 11
119.4549388473481
 21
99.01645234499756
 31
0.0
  0
LINE
  5
141F
  8
0
 10
96.613793414477414
 20
86.153602385838454
 30
0.0
 11
96.613793414477414
 21
99.915755117625395
 31
0.0
  0
ARC
  5
1420
  8
0
 10
84.727469423673924
 20
147.3058071542543
 30
0.0
 40
62.296684069480072
 50
259.00041573039857
 51
280.99958426960143
  0
LINE
  5
1421
  8
0
 10
72.84114543287069
 20
86.153602385838454
 30
0.0
 11
72.84114543287069
 21
99.915755117625281
 31
0.0
  0
ARC
  5
1422
  8
0
 10
84.727469423674165
 20
38.76355034920698
 30
0.0
 40
62.296684069482488
 50
79.000415730398615
 51
100.9995842696014
  0
ARC
  5
1423
  8
0
 10
54.909589731535561
 20
97.546745967766469
 30
0.0
 40
11.73347022528837
 50
245.79305658976821
 51
256.16663894512391
  0
POLYLINE
  5
1424
  8
0
 66
     1
 10
0.0
 20
0.0
 30
0.0
 70
   128
  0
VERTEX
  5
2421
  8
0
 10
52.104130259489011
 20
86.153602385838212
 30
0.0
  0
VERTEX
  5
2422
  8
0
 10
53.270234616148173
 20
85.826764679300368
 30
0.0
  0
VERTEX
  5
2423
  8
0
 10
54.352261540799873
 20
85.544581295118064
 30
0.0
  0
VERTEX
  5
2424
  8
0
 10
55.665999301426382
 20
85.24773779702673
 30
0.0
  0
VERTEX
  5
2425
  8
0
 10
56.544539117297518
 20
85.095323853263139
 30
0.0
  0
VERTEX
  5
2426
  8
0
 10
57.316821667685637
 20
85.011808341627997
 30
0.0
  0
VERTEX
  5
2427
  8
0
 10
57.94567743489619
 20
84.99986978684251
 30
0.0
  0
VERTEX
  5
2428
  8
0
 10
58.469942656911371
 20
85.054659281609474
 30
0.0
  0
VERTEX
  5
2429
  8
0
 10
59.004883947129201
 20
85.231840000510601
 30
0.0
  0
VERTEX
  5
242A
  8
0
 10
59.276165161074907
 20
85.440509438059735
 30
0.0
  0
VERTEX
  5
242B
  8
0
 10
59.430255985902022
 20
85.707539809786113
 30
0.0
  0
VERTEX
  5
242C
  8
0
 10
59.450282487098782
 20
86.153602385838326
 30
0.0
  0
SEQEND
  5
242D
  8
0
  0
POLYLINE
  5
1425
  8
0
 66
     1
 10
0.0
 20
0.0
 30
0.0
 70
   128
  0
VERTEX
  5
242E
  8
0
 10
60.611699340983023
 20
86.844994701138944
 30
0.0
  0
VERTEX
  5
242F
  8
0
 10
60.246552863101208
 20
86.764821942690546
 30
0.0
  0
VERTEX
  5
2430
  8
0
 10
59.94590955459762
 20
86.670978776911852
 30
0.0
  0
VERTEX
  5
2431
  8
0
 10
59.723066796932009
 20
86.569188627243875
 30
0.0
  0
VERTEX
  5
2432
  8
0
 10
59.564116151592771
 20
86.455269108326092
 30
0.0
  0
VERTEX
  5
2433
  8
0
 10
59.470263001122241
 20
86.327534093313034
 30
0.0
  0
VERTEX
  5
2434
  8
0
 10
59.445876162357543
 20
86.187728585209015
 30
0.0
  0
VERTEX
  5
2435
  8
0
 10
59.450282487098782
 20
86.153602385838326
 30
0.0
  0
SEQEND
  5
2436
  8
0
  0
ARC
  5
1427
  8
0
 10
63.084808598553991
 20
33.178211853588209
 30
0.0
 40
53.866298466379519
 50
79.564917773790455
 51
85.067107475802715
  0
ARC
  5
1428
  8
0
 10
106.38009133239279
 20
33.10438269967495
 30
0.0
 40
53.940710825241531
 50
94.936690631369771
 51
100.4312841190426
  0
POLYLINE
  5
142A
  8
0
 66
     1
 10
0.0
 20
0.0
 30
0.0
 70
   128
  0
VERTEX
  5
2437
  8
0
 10
110.0046563602495
 20
86.153602385838454
 30
0.0
  0
VERTEX
  5
2438
  8
0
 10
109.9223750410021
 20
86.422606387992687
 30
0.0
  0
VERTEX
  5
2439
  8
0
 10
109.5556871054889
 20
86.652776747290304
 30
0.0
  0
VERTEX
  5
243A
  8
0
 10
108.84323950636529
 20
86.844994701139044
 30
0.0
  0
SEQEND
  5
243B
  8
0
  0
POLYLINE
  5
142B
  8
0
 66
     1
 10
0.0
 20
0.0
 30
0.0
 70
   128
  0
VERTEX
  5
243C
  8
0
 10
110.0046563602495
 20
86.153602385838454
 30
0.0
  0
VERTEX
  5
243D
  8
0
 10
110.0184847792811
 20
85.727660922518908
 30
0.0
  0
VERTEX
  5
243E
  8
0
 10
110.2334670112125
 20
85.384670678349494
 30
0.0
  0
VERTEX
  5
243F
  8
0
 10
110.6629248969313
 20
85.138884314528696
 30
0.0
  0
VERTEX
  5
2440
  8
0
 10
111.3095084981328
 20
85.011807260700266
 30
0.0
  0
VERTEX
  5
2441
  8
0
 10
112.12073403053409
 20
85.010675337453222
 30
0.0
  0
VERTEX
  5
2442
  8
0
 10
113.1250261630293
 20
85.127925422023509
 30
0.0
  0
VERTEX
  5
2443
  8
0
 10
114.338204847561
 20
85.363951132324004
 30
0.0
  0
VERTEX
  5
2444
  8
0
 10
115.7392488370778
 20
85.707545635230858
 30
0.0
  0
VERTEX
  5
2445
  8
0
 10
117.35080858785931
 20
86.153602385838454
 30
0.0
  0
SEQEND
  5
2446
  8
0
  0
ARC
  5
142C
  8
0
 10
114.58077555725021
 20
97.443977547078035
 30
0.0
 40
11.62521631077027
 50
283.78492746323872
 51
294.25537700187238
  0
LINE
  5
142D
  8
0
 10
56.727469423674172
 20
84.899999999999864
 30
0.0
 11
112.72746942367409
 21
84.900000000000091
 31
0.0
  0
LINE
  5
142E
  8
0
 10
59.827469423674067
 20
101.9999999999999
 30
0.0
 11
109.627469423674
 21
102.0000000000001
 31
0.0
  0
ARC
  5
142F
  8
0
 10
114.54534911580861
 20
88.522611535684959
 30
0.0
 40
11.733470225301049
 50
65.793056589775304
 51
76.166638945117157
  0
POLYLINE
  5
1430
  8
0
 66
     1
 10
0.0
 20
0.0
 30
0.0
 70
   128
  0
VERTEX
  5
2447
  8
0
 10
117.35080858785911
 20
99.915755117625281
 30
0.0
  0
VERTEX
  5
2448
  8
0
 10
115.8154314155188
 20
100.3416949644723
 30
0.0
  0
VERTEX
  5
2449
  8
0
 10
114.43035747701509
 20
100.68468434789391
 30
0.0
  0
VERTEX
  5
244A
  8
0
 10
113.1926683429437
 20
100.93047080686431
 30
0.0
  0
VERTEX
  5
244B
  8
0
 10
112.1381171796624
 20
101.0575491618356
 30
0.0
  0
VERTEX
  5
244C
  8
0
 10
111.3232842605514
 20
101.05868317312689
 30
0.0
  0
VERTEX
  5
244D
  8
0
 10
110.6951128337234
 20
100.9414349953428
 30
0.0
  0
VERTEX
  5
244E
  8
0
 10
110.2565056126802
 20
100.70541092084569
 30
0.0
  0
VERTEX
  5
244F
  8
0
 10
110.0246828614461
 20
100.36181769367749
 30
0.0
  0
VERTEX
  5
2450
  8
0
 10
110.0046563602493
 20
99.915755117625395
 30
0.0
  0
SEQEND
  5
2451
  8
0
  0
POLYLINE
  5
1431
  8
0
 66
     1
 10
0.0
 20
0.0
 30
0.0
 70
   128
  0
VERTEX
  5
2452
  8
0
 10
108.8432395063744
 20
99.224362802326596
 30
0.0
  0
VERTEX
  5
2453
  8
0
 10
109.508045940717
 20
99.398008575761196
 30
0.0
  0
VERTEX
  5
2454
  8
0
 10
109.89033704813529
 20
99.613627751388776
 30
0.0
  0
VERTEX
  5
2455
  8
0
 10
110.0091027298599
 20
99.881081137863944
 30
0.0
  0
VERTEX
  5
2456
  8
0
 10
110.0046563602493
 20
99.915755117625395
 30
0.0
  0
SEQEND
  5
2457
  8
0
  0
ARC
  5
1433
  8
0
 10
106.3701302487875
 20
152.891145649826
 30
0.0
 40
53.866298466329539
 50
259.5649177737838
 51
265.06710747580928
  0
ARC
  5
1434
  8
0
 10
63.074847514971218
 20
152.96497480368129
 30
0.0
 40
53.940710825132889
 50
274.93669063138282
 51
280.43128411904922
  0
POLYLINE
  5
1436
  8
0
 66
     1
 10
0.0
 20
0.0
 30
0.0
 70
   128
  0
VERTEX
  5
2458
  8
0
 10
59.450282487098782
 20
99.915755117625167
 30
0.0
  0
VERTEX
  5
2459
  8
0
 10
59.457380328491347
 20
99.77636925456693
 30
0.0
  0
VERTEX
  5
245A
  8
0
 10
59.532563806345927
 20
99.646751115471034
 30
0.0
  0
VERTEX
  5
245B
  8
0
 10
59.679739726003838
 20
99.525948436121553
 30
0.0
  0
VERTEX
  5
245C
  8
0
 10
59.899251741859189
 20
99.416580756173516
 30
0.0
  0
VERTEX
  5
245D
  8
0
 10
60.214011707696038
 20
99.313174312317642
 30
0.0
  0
VERTEX
  5
245E
  8
0
 10
60.611699340982803
 20
99.224362802324677
 30
0.0
  0
SEQEND
  5
245F
  8
0
  0
POLYLINE
  5
1437
  8
0
 66
     1
 10
0.0
 20
0.0
 30
0.0
 70
   128
  0
VERTEX
  5
2460
  8
0
 10
59.450282487098782
 20
99.915755117625167
 30
0.0
  0
VERTEX
  5
2461
  8
0
 10
59.458484650424452
 20
100.2425941020304
 30
0.0
  0
VERTEX
  5
2462
  8
0
 10
59.354393766903058
 20
100.5247783652502
 30
0.0
  0
VERTEX
  5
2463
  8
0
 10
59.0334616711284
 20
100.82162227878111
 30
0.0
  0
VERTEX
  5
2464
  8
0
 10
58.65035921211642
 20
100.97403582529159
 30
0.0
  0
VERTEX
  5
2465
  8
0
 10
58.14543034921531
 20
101.0575502427633
 30
0.0
  0
VERTEX
  5
2466
  8
0
 10
57.554553084563622
 20
101.0694872177815
 30
0.0
  0
VERTEX
  5
2467
  8
0
 10
56.855490673932991
 20
101.0146962304236
 30
0.0
  0
VERTEX
  5
2468
  8
0
 10
55.746693698699339
 20
100.8375137279714
 30
0.0
  0
VERTEX
  5
2469
  8
0
 10
54.782738803791517
 20
100.6288431614478
 30
0.0
  0
VERTEX
  5
246A
  8
0
 10
53.715690010270229
 20
100.36181186823271
 30
0.0
  0
VERTEX
  5
246B
  8
0
 10
52.104130259489011
 20
99.915755117625054
 30
0.0
  0
SEQEND
  5
246C
  8
0
  0
ARC
  5
1438
  8
0
 10
54.865111651189871
 20
88.651637819077436
 30
0.0
 40
11.59755822407279
 50
103.7724074083625
 51
114.2678970567066
  0
ARC
  5
1439
  8
0
 10
70.224463366727605
 20
107.013907154408
 30
0.0
 40
20.324218223286291
 50
250.879667275895
 51
262.912363411554
  0
ARC
  5
143A
  8
0
 10
23.938911697721782
 20
204.05944006418281
 30
0.0
 40
122.81742366331309
 50
287.37329328124099
 51
288.82387614823739
  0
ARC
  5
143B
  8
0
 10
21.833781632257111
 20
-24.43127488069047
 30
0.0
 40
129.59337804308461
 50
71.214048505250531
 51
72.588782065265036
  0
ARC
  5
143C
  8
0
 10
70.178624208326937
 20
79.252370358574808
 30
0.0
 40
20.123158147241771
 50
97.027299111740163
 51
109.18067020074029
  0
ARC
  5
143D
  8
0
 10
99.230475480390623
 20
79.055450348067325
 30
0.0
 40
20.324218224295532
 50
70.879667276198333
 51
82.912363411252116
  0
ARC
  5
143E
  8
0
 10
145.51602670395911
 20
-17.990081197234069
 30
0.0
 40
122.81742222895519
 50
107.37329327274369
 51
108.8238761566883
  0
ARC
  5
143F
  8
0
 10
147.86748580333821
 20
211.2543386927787
 30
0.0
 40
130.38625951946361
 50
251.21822859523459
 51
252.58460197529021
  0
ARC
  5
1440
  8
0
 10
99.276314639467046
 20
106.8169871429599
 30
0.0
 40
20.123158145273258
 50
277.02729911120201
 51
289.1806702013472
  0
LINE
  5
1441
  8
0
 10
56.727469423674172
 20
66.899999999999864
 30
0.0
 11
112.72746942367409
 21
66.900000000000091
 31
0.0
  0
LINE
  5
1442
  8
0
 10
57.727469423674158
 20
65.899999999999864
 30
0.0
 11
111.72746942367409
 21
65.900000000000091
 31
0.0
  0
LINE
  5
1445
  8
0
 10
72.727469423674165
 20
51.299999999999947
 30
0.0
 11
96.727469423674165
 21
51.300000000000061
 31
0.0
  0
LINE
  5
1446
  8
0
 10
73.727469423674165
 20
50.299999999999947
 30
0.0
 11
95.727469423674165
 21
50.300000000000068
 31
0.0
  0
LINE
  5
1447
  8
0
 10
75.727469423674165
 20
50.0
 30
0.0
 11
93.727469423674165
 21
50.0
 31
0.0
  0
POLYLINE
  5
1448
  8
0
 66
     1
 10
0.0
 20
0.0
 30
0.0
 70
   128
  0
VERTEX
  5
246D
  8
0
 10
50.098473088285111
 20
86.844994701138816
 30
0.0
  0
VERTEX
  5
246E
  8
0
 10
50.008460686402941
 20
86.973174012455615
 30
0.0
  0
VERTEX
  5
246F
  8
0
 10
50.012049775484229
 20
87.052905158465933
 30
0.0
  0
SEQEND
  5
2470
  8
0
  0
POLYLINE
  5
1449
  8
0
 66
     1
 10
0.0
 20
0.0
 30
0.0
 70
   128
  0
VERTEX
  5
2471
  8
0
 10
50.005571578181609
 20
99.020246242361623
 30
0.0
  0
VERTEX
  5
2472
  8
0
 10
50.000454503822773
 20
99.040695010618947
 30
0.0
  0
VERTEX
  5
2473
  8
0
 10
50.098473088287847
 20
99.224362802326254
 30
0.0
  0
SEQEND
  5
2474
  8
0
  0
POLYLINE
  5
144A
  8
0
 66
     1
 10
0.0
 20
0.0
 30
0.0
 70
   128
  0
VERTEX
  5
2475
  8
0
 10
119.4493672691669
 20
87.049111261101643
 30
0.0
  0
VERTEX
  5
2476
  8
0
 10
119.45448434352549
 20
87.028662492846252
 30
0.0
  0
VERTEX
  5
2477
  8
0
 10
119.356465759063
 20
86.844994701139044
 30
0.0
  0
SEQEND
  5
2478
  8
0
  0
POLYLINE
  5
144B
  8
0
 66
     1
 10
0.0
 20
0.0
 30
0.0
 70
   128
  0
VERTEX
  5
2479
  8
0
 10
119.356465759063
 20
99.224362802324777
 30
0.0
  0
VERTEX
  5
247A
  8
0
 10
119.4464781609454
 20
99.096183491007892
 30
0.0
  0
VERTEX
  5
247B
  8
0
 10
119.4428890718641
 20
99.01645234499756
 30
0.0
  0
SEQEND
  5
247C
  8
0
  0
CIRCLE
  5
144F
  8
0
 10
84.727469423674393
 20
55.999999999999879
 30
0.0
 40
2.500000000000056
  0
CIRCLE
  5
1450
  8
3
 10
84.727469423674165
 20
56.0
 30
0.0
 40
2.009499999999945
  0
LINE
  5
1451
  8
0
 10
85.30481969286393
 20
57.0
 30
0.0
 11
84.150119154484628
 21
57.0
 31
0.0
  0
LINE
  5
1452
  8
0
 10
85.30481969286393
 20
57.0
 30
0.0
 11
85.882169962053453
 21
56.0
 31
0.0
  0
LINE
  5
1453
  8
0
 10
85.882169962053453
 20
56.0
 30
0.0
 11
85.30481969286393
 21
55.0
 31
0.0
  0
LINE
  5
1454
  8
0
 10
85.30481969286393
 20
55.0
 30
0.0
 11
84.150119154484628
 21
55.0
 31
0.0
  0
LINE
  5
1455
  8
0
 10
84.150119154484628
 20
55.0
 30
0.0
 11
83.572768885294863
 21
56.0
 31
0.0
  0
LINE
  5
1456
  8
0
 10
83.572768885294863
 20
56.0
 30
0.0
 11
84.150119154484628
 21
57.0
 31
0.0
  0
LINE
  5
145A
  8
1
 10
84.727469423673924
 20
224.03444185374869
 30
0.0
 11
84.727469423673924
 21
142.0344418537486
 31
0.0
  0
LINE
  5
145B
  8
1
 10
43.727469423674158
 20
183.0344418537486
 30
0.0
 11
125.72746942367409
 21
183.0344418537486
 31
0.0
  0
LINE
  5
1461
  8
1
 10
84.727469423675302
 20
107.0
 30
0.0
 11
84.727469423673924
 21
45.0
 31
0.0
  0
LINE
  5
1464
  8
1
 10
80.227469423674378
 20
55.999999999999879
 30
0.0
 11
89.227469423674393
 21
55.999999999999879
 31
0.0
  0
LINE
  5
1477
  8
1
 10
226.45493884734901
 20
183.0344418537486
 30
0.0
 11
164.4549388473485
 21
183.0344418537486
 31
0.0
  0
LINE
  5
147D
  8
1
 10
215.45493884734901
 20
180.0344418537486
 30
0.0
 11
215.45493884734901
 21
169.0344418537486
 31
0.0
  0
LINE
  5
1482
  8
2
 10
213.4454388473491
 20
178.0344418537486
 30
0.0
 11
212.95493884734901
 21
177.54394185374861
 31
0.0
  0
LINE
  5
1483
  8
2
 10
217.95493884734901
 20
177.54394185374861
 30
0.0
 11
217.4644388473491
 21
178.0344418537486
 31
0.0
  0
LINE
  5
1484
  8
2
 10
213.4454388473491
 20
178.0344418537486
 30
0.0
 11
217.4644388473491
 21
178.0344418537486
 31
0.0
  0
LINE
  5
1485
  8
2
 10
217.54298604518789
 20
171.11298905158731
 30
0.0
 11
217.95493884734901
 21
171.5249418537486
 31
0.0
  0
LINE
  5
1486
  8
2
 10
212.95493884734901
 20
171.5249418537486
 30
0.0
 11
213.366953831123
 21
171.11292686997481
 31
0.0
  0
LINE
  5
1489
  8
2
 10
212.95493884734901
 20
171.5249418537486
 30
0.0
 11
217.95493884734901
 21
171.5249418537486
 31
0.0
  0
LINE
  5
14E2
  8
2
 10
213.4454388473491
 20
171.0344418537486
 30
0.0
 11
213.4454388473491
 21
178.0344418537486
 31
0.0
  0
LINE
  5
14E3
  8
2
 10
217.4644388473491
 20
171.0344418537486
 30
0.0
 11
217.4644388473491
 21
178.0344418537486
 31
0.0
  0
LINE
  5
15C9
  8
2
 10
212.95493884734901
 20
177.54394185374861
 30
0.0
 11
212.95493884734901
 21
171.5249418537486
 31
0.0
  0
LINE
  5
15CA
  8
2
 10
217.95493884734901
 20
177.54394185374861
 30
0.0
 11
217.95493884734901
 21
171.5249418537486
 31
0.0
  0
LINE
  5
15CB
  8
2
 10
212.95493884734901
 20
177.54394185374861
 30
0.0
 11
217.95493884734901
 21
177.54394185374861
 31
0.0
  0
LINE
  5
1C18
  8
2
 10
221.45493884734901
 20
188.0344418537486
 30
0.0
 11
204.45493884734901
 21
188.0344418537486
 31
0.0
  0
LINE
  5
1C19
  8
2
 10
221.45493884734901
 20
178.0344418537486
 30
0.0
 11
204.45493884734901
 21
178.0344418537486
 31
0.0
  0
LINE
  5
1C1A
  8
2
 10
204.45493884734901
 20
178.0344418537486
 30
0.0
 11
204.45493884734901
 21
188.03444185374869
 31
0.0
  0
LINE
  5
1C62
  8
2
 10
79.727469423674165
 20
50.0
 30
0.0
 11
79.727469423674165
 21
67.0
 31
0.0
  0
LINE
  5
1C63
  8
2
 10
89.727469423674165
 20
50.0
 30
0.0
 11
89.727469423674165
 21
67.0
 31
0.0
  0
LINE
  5
1C64
  8
2
 10
79.727469423674165
 20
67.0
 30
0.0
 11
89.727469423674066
 21
67.0
 31
0.0
  0
SOLID
  5
21FE
  8
0
 10
87.66455787670418
 20
185.0255699427243
 30
0.0
 11
86.522161937603784
 21
181.25959136339469
 31
0.0
 12
99.665735402913711
 22
184.39393055671539
 32
0.0
 13
99.665735402913711
 23
184.39393055671539
 33
0.0
  0
SOLID
  5
21FF
  8
0
 10
80.579542873251881
 20
180.0648181131229
 30
0.0
 11
80.599349294317676
 21
179.84718218475371
 31
0.0
 12
80.904772940522435
 22
179.92001635784919
 32
0.0
 13
80.904772940522435
 23
179.92001635784919
 33
0.0
  0
SOLID
  5
2200
  8
0
 10
80.091806845210115
 20
185.42413481700311
 30
0.0
 11
80.546364894676628
 21
180.42938272298551
 31
0.0
 12
83.455467752883834
 22
185.24710046301371
 32
0.0
 13
83.455467752883834
 23
185.24710046301371
 33
0.0
  0
LINE
  5
2201
  8
0
 10
80.904772940522463
 20
179.92001635784919
 30
0.0
 11
80.599349294317676
 21
179.84718218475371
 31
0.0
  0
LINE
  5
2202
  8
0
 10
80.546364894676657
 20
180.42938272298559
 30
0.0
 11
80.091806845210115
 21
185.42413481700311
 31
0.0
  0
LINE
  5
2203
  8
0
 10
87.664557876704137
 20
185.0255699427243
 30
0.0
 11
99.665735402913725
 21
184.39393055671539
 31
0.0
  0
LINE
  5
2204
  8
0
 10
80.091806845210115
 20
185.42413481700311
 30
0.0
 11
83.455467752883834
 21
185.24710046301371
 31
0.0
  0
LINE
  5
2205
  8
0
 10
80.599349294317676
 20
179.84718218475371
 30
0.0
 11
80.579542873251881
 21
180.0648181131229
 31
0.0
  0
LINE
  5
2206
  8
0
 10
99.665735402913725
 20
184.39393055671539
 30
0.0
 11
86.522161937603784
 21
181.25959136339469
 31
0.0
  0
LINE
  5
2207
  8
0
 10
87.353406452067446
 20
183.99984010598081
 30
0.0
 11
83.687805303276491
 21
185.6318708863225
 31
0.0
  0
LINE
  5
2208
  8
0
 10
86.212486954672627
 20
180.23872870767531
 30
0.0
 11
81.656178984680125
 21
182.2673277150158
 31
0.0
  0
LINE
  5
2209
  8
0
 10
86.270995646846686
 20
180.43160621528071
 30
0.0
 11
81.760364949736385
 21
182.4398683904675
 31
0.0
  0
LINE
  5
220A
  8
0
 10
87.294897759893345
 20
183.80696259837549
 30
0.0
 11
83.583619338220288
 21
185.45933021087089
 31
0.0
  0
LINE
  5
220B
  8
0
 10
85.495755475539937
 20
177.87597923950889
 30
0.0
 11
92.048728999038502
 21
199.47826009131549
 31
0.0
  0
LINE
  5
220C
  8
0
 10
80.379900912741391
 20
180.15370444073341
 30
0.0
 11
85.495755475539937
 21
177.87597923950889
 31
0.0
  0
LINE
  5
220D
  8
0
 10
92.048728999038502
 20
199.47826009131549
 30
0.0
 11
80.379900912741391
 21
180.15370444073341
 31
0.0
  0
CIRCLE
  5
220E
  8
0
 10
84.727469423674165
 20
183.0344418537486
 30
0.0
 40
21.0
  0
LINE
  5
220F
  8
3
 10
69.228356623146681
 20
174.08602490616369
 30
0.0
 11
66.540935944200896
 21
172.53444185374849
 31
0.0
  0
LINE
  5
2210
  8
3
 10
100.22658222420171
 20
174.08602490616369
 30
0.0
 11
102.91400290314741
 21
172.5344418537486
 31
0.0
  0
LINE
  5
2211
  8
3
 10
97.934356831386893
 20
190.65944185374869
 30
0.0
 11
102.91400290314741
 21
193.53444185374869
 31
0.0
  0
LINE
  5
2212
  8
3
 10
96.060428012204426
 20
193.23868360072129
 30
0.0
 11
100.3335107586995
 21
197.08618458728481
 31
0.0
  0
LINE
  5
2213
  8
3
 10
99.893928328040232
 20
181.44038278891691
 30
0.0
 11
105.6124292264079
 21
180.83934412512801
 31
0.0
  0
LINE
  5
2214
  8
3
 10
99.89392832804046
 20
184.6285009185803
 30
0.0
 11
105.6124292264078
 21
185.2295395823694
 31
0.0
  0
LINE
  5
2215
  8
3
 10
96.060428012204753
 20
172.83020010677581
 30
0.0
 11
100.3335107586993
 21
168.9826991202128
 31
0.0
  0
LINE
  5
2216
  8
3
 10
97.934356831386765
 20
175.40944185374869
 30
0.0
 11
98.0225852572066
 21
175.3585031483515
 31
0.0
  0
LINE
  5
2217
  8
3
 10
87.898122708645047
 20
168.117690942558
 30
0.0
 11
89.093614930847195
 21
162.49334223833861
 31
0.0
  0
LINE
  5
2218
  8
3
 10
90.930203230580133
 20
169.10287362469899
 30
0.0
 11
93.268938928265982
 21
163.84998724325399
 31
0.0
  0
LINE
  5
2219
  8
3
 10
78.524735616768339
 20
169.1028736246991
 30
0.0
 11
76.185999919082406
 21
163.84998724325399
 31
0.0
  0
LINE
  5
221A
  8
3
 10
81.556816138703326
 20
168.117690942558
 30
0.0
 11
80.36132391650122
 21
162.4933422383387
 31
0.0
  0
LINE
  5
221B
  8
3
 10
71.520582015961452
 20
175.4094418537486
 30
0.0
 11
71.432353590141787
 21
175.35850314835139
 31
0.0
  0
LINE
  5
221C
  8
3
 10
73.394510835143905
 20
172.830200106776
 30
0.0
 11
69.121428088648912
 21
168.9826991202126
 31
0.0
  0
LINE
  5
221D
  8
3
 10
69.561010519307871
 20
184.6285009185803
 30
0.0
 11
63.842509620940348
 21
185.22953958236931
 31
0.0
  0
LINE
  5
221E
  8
3
 10
69.561010519307899
 20
181.44038278891691
 30
0.0
 11
63.842509620940369
 21
180.83934412512789
 31
0.0
  0
LINE
  5
221F
  8
3
 10
73.394510835143848
 20
193.23868360072129
 30
0.0
 11
69.121428088649026
 21
197.08618458728449
 31
0.0
  0
LINE
  5
2220
  8
3
 10
71.520582015961111
 20
190.6594418537488
 30
0.0
 11
66.540935944200811
 21
193.53444185374869
 31
0.0
  0
LINE
  5
2221
  8
3
 10
81.556816138703283
 20
197.95119276493921
 30
0.0
 11
80.361323916501178
 21
203.57554146915851
 31
0.0
  0
LINE
  5
2222
  8
3
 10
78.524735616768197
 20
196.96601008279831
 30
0.0
 11
76.185999919082292
 21
202.2188964642433
 31
0.0
  0
LINE
  5
2223
  8
3
 10
87.898122708644962
 20
197.95119276493909
 30
0.0
 11
89.09361493084711
 21
203.57554146915871
 31
0.0
  0
LINE
  5
2224
  8
0
 10
84.727469423674165
 20
198.28444185374869
 30
0.0
 11
84.727469423674165
 21
204.03444185374869
 31
0.0
  0
CIRCLE
  5
2225
  8
0
 10
98.727469423674165
 20
174.0344418537486
 30
0.0
 40
1.5
  0
LINE
  5
2226
  8
0
 10
98.977469423674165
 20
175.5344418537486
 30
0.0
 11
98.977469423674165
 21
172.5554219079749
 31
0.0
  0
LINE
  5
2227
  8
0
 10
98.477469423674165
 20
175.5344418537486
 30
0.0
 11
98.477469423674165
 21
172.55542190797371
 31
0.0
  0
LINE
  5
2228
  8
0
 10
70.977469423674165
 20
175.5344418537486
 30
0.0
 11
70.977469423674165
 21
172.5554219079749
 31
0.0
  0
LINE
  5
2229
  8
0
 10
70.477469423674165
 20
175.5344418537486
 30
0.0
 11
70.477469423674165
 21
172.55542190797371
 31
0.0
  0
CIRCLE
  5
222A
  8
0
 10
70.727469423674165
 20
174.0344418537486
 30
0.0
 40
1.5
  0
LINE
  5
222B
  8
0
 10
83.445418141622895
 20
178.18187775118449
 30
0.0
 11
83.906956603161348
 21
178.18187775118449
 31
0.0
  0
LINE
  5
222C
  8
0
 10
87.227469423674165
 20
176.38700595631269
 30
0.0
 11
86.71464891085364
 21
176.38700595631269
 31
0.0
  0
LINE
  5
222D
  8
0
 10
86.522341218545932
 20
177.7972623665691
 30
0.0
 11
86.214648910853654
 21
177.7972623665691
 31
0.0
  0
ARC
  5
222E
  8
0
 10
82.932597628802384
 20
177.0921341614409
 30
0.0
 40
0.7051282051282019
 50
90.0
 51
270.0
  0
LINE
  5
222F
  8
0
 10
83.394136090340851
 20
177.3357239050307
 30
0.0
 11
83.394136090340851
 21
177.7972623665691
 31
0.0
  0
ARC
  5
2230
  8
0
 10
82.932597628802384
 20
177.0921341614409
 30
0.0
 40
0.2435897435897425
 50
90.0
 51
140.83328928388039
  0
LINE
  5
2231
  8
0
 10
83.342854039058807
 20
176.93828800759479
 30
0.0
 11
83.342854039058807
 21
177.24598031528711
 31
0.0
  0
LINE
  5
2232
  8
0
 10
82.743739681845227
 20
177.24598031528711
 30
0.0
 11
83.342854039058807
 21
177.24598031528711
 31
0.0
  0
LINE
  5
2233
  8
0
 10
82.743739681845227
 20
176.93828800759479
 30
0.0
 11
83.342854039058807
 21
176.93828800759479
 31
0.0
  0
LINE
  5
2234
  8
0
 10
82.932597628802384
 20
177.3357239050307
 30
0.0
 11
83.394136090340851
 21
177.3357239050307
 31
0.0
  0
LINE
  5
2235
  8
0
 10
82.932597628802384
 20
176.8485444178512
 30
0.0
 11
83.445418141622895
 21
176.8485444178512
 31
0.0
  0
ARC
  5
2236
  8
0
 10
82.932597628802384
 20
177.0921341614409
 30
0.0
 40
0.2435897435897425
 50
219.1667107161195
 51
270.0
  0
LINE
  5
2237
  8
0
 10
83.214648910853668
 20
176.38700595631269
 30
0.0
 11
82.932597628802384
 21
176.38700595631269
 31
0.0
  0
LINE
  5
2238
  8
0
 10
83.445418141622895
 20
177.0921341614409
 30
0.0
 11
83.445418141622895
 21
178.18187775118449
 31
0.0
  0
LINE
  5
2239
  8
0
 10
83.906956603161348
 20
177.0921341614409
 30
0.0
 11
83.906956603161348
 21
178.18187775118449
 31
0.0
  0
ARC
  5
223A
  8
0
 10
84.726520833277618
 20
177.0428251029997
 30
0.0
 40
1.2820512820512751
 50
177.79579960996631
 51
210.76639186197639
  0
ARC
  5
223B
  8
0
 10
84.802966551036377
 20
177.0415637816165
 30
0.0
 40
0.8974358974358931
 50
176.76968023270729
 51
226.8331387399966
  0
LINE
  5
223C
  8
0
 10
83.394136090340851
 20
177.7972623665691
 30
0.0
 11
82.932597628802384
 21
177.7972623665691
 31
0.0
  0
LINE
  5
223D
  8
0
 10
85.124905321110063
 20
177.7972623665691
 30
0.0
 11
84.663366859571596
 21
177.7972623665691
 31
0.0
  0
LINE
  5
223E
  8
0
 10
84.894136090340822
 20
176.38700595631269
 30
0.0
 11
84.663366859571596
 21
176.38700595631269
 31
0.0
  0
ARC
  5
223F
  8
0
 10
84.663366859571596
 20
177.0921341614409
 30
0.0
 40
0.2435897435897425
 50
219.1667107161195
 51
270.0
  0
LINE
  5
2240
  8
0
 10
84.663366859571596
 20
176.8485444178512
 30
0.0
 11
85.342854039058778
 21
176.8485444178512
 31
0.0
  0
LINE
  5
2241
  8
0
 10
84.663366859571596
 20
177.3357239050307
 30
0.0
 11
85.124905321110063
 21
177.3357239050307
 31
0.0
  0
LINE
  5
2242
  8
0
 10
84.474508912614439
 20
176.93828800759479
 30
0.0
 11
85.073623269828005
 21
176.93828800759479
 31
0.0
  0
LINE
  5
2243
  8
0
 10
84.474508912614439
 20
177.24598031528711
 30
0.0
 11
85.073623269828005
 21
177.24598031528711
 31
0.0
  0
LINE
  5
2244
  8
0
 10
85.073623269828005
 20
176.93828800759479
 30
0.0
 11
85.073623269828005
 21
177.24598031528711
 31
0.0
  0
ARC
  5
2245
  8
0
 10
84.663366859571596
 20
177.0921341614409
 30
0.0
 40
0.2435897435897425
 50
90.0
 51
140.83328928388039
  0
LINE
  5
2246
  8
0
 10
85.124905321110063
 20
177.3357239050307
 30
0.0
 11
85.124905321110063
 21
177.7972623665691
 31
0.0
  0
ARC
  5
2247
  8
0
 10
84.663366859571596
 20
177.0921341614409
 30
0.0
 40
0.7051282051282019
 50
90.0
 51
270.0
  0
LINE
  5
2248
  8
0
 10
85.906956603161333
 20
177.3357239050307
 30
0.0
 11
85.906956603161333
 21
177.7972623665691
 31
0.0
  0
LINE
  5
2249
  8
0
 10
85.637725833930574
 20
177.3357239050307
 30
0.0
 11
85.906956603161333
 21
177.3357239050307
 31
0.0
  0
ARC
  5
224A
  8
0
 10
85.637725833930574
 20
177.3357239050307
 30
0.0
 40
0.4615384615384594
 50
90.0
 51
234.9003678046067
  0
ARC
  5
224B
  8
0
 10
85.342854039058778
 20
176.8485444178512
 30
0.0
 40
0.4615384615384594
 50
270.0
 51
54.900367804606411
  0
LINE
  5
224C
  8
0
 10
85.58644378264853
 20
177.26811026841409
 30
0.0
 11
85.58644378264853
 21
177.2844418537486
 31
0.0
  0
ARC
  5
224D
  8
0
 10
85.637725833930574
 20
177.2844418537486
 30
0.0
 40
0.0512820512820511
 50
90.0
 51
180.0
  0
ARC
  5
224E
  8
0
 10
85.637725833930574
 20
177.26811026841409
 30
0.0
 40
0.0512820512820511
 50
180.0
 51
234.90036780460639
  0
ARC
  5
224F
  8
0
 10
85.342854039058778
 20
176.89982646913319
 30
0.0
 40
0.0512820512820511
 50
270.0
 51
0.0
  0
ARC
  5
2250
  8
0
 10
85.342854039058778
 20
176.9161580544677
 30
0.0
 40
0.0512820512820511
 50
0.0
 51
54.900367804606631
  0
LINE
  5
2251
  8
0
 10
83.624905321110077
 20
176.38700595631269
 30
0.0
 11
84.189007885212604
 21
176.38700595631269
 31
0.0
  0
LINE
  5
2252
  8
0
 10
85.124905321110049
 20
176.8485444178512
 30
0.0
 11
85.124905321110049
 21
176.38700595631269
 31
0.0
  0
ARC
  5
2253
  8
0
 10
85.586086423671034
 20
176.62427478323659
 30
0.0
 40
0.5128205128205106
 50
154.06662005680579
 51
177.86089300734099
  0
ARC
  5
2254
  8
0
 10
83.906599244183838
 20
176.62427478323659
 30
0.0
 40
0.5128205128205106
 50
154.06662005680579
 51
177.86089300734099
  0
LINE
  5
2255
  8
0
 10
85.906956603161333
 20
177.3357239050307
 30
0.0
 11
86.49670019290491
 21
177.3357239050307
 31
0.0
  0
LINE
  5
2256
  8
0
 10
87.150546346751071
 20
177.22033928964601
 30
0.0
 11
87.150546346751071
 21
176.59213416144101
 31
0.0
  0
ARC
  5
2257
  8
0
 10
86.529583449058777
 20
177.17466402042101
 30
0.0
 40
0.622640466504708
 50
4.2068467171522643
 51
90.666449776468042
  0
ARC
  5
2258
  8
0
 10
85.445775500600405
 20
177.55999353964529
 30
0.0
 40
0.5128205128205106
 50
334.06662005680579
 51
357.86089300734108
  0
ARC
  5
2259
  8
0
 10
86.214648910853654
 20
177.54085211015891
 30
0.0
 40
0.2564102564102552
 50
90.0
 51
180.0
  0
LINE
  5
225A
  8
0
 10
85.906956603161333
 20
177.7972623665691
 30
0.0
 11
85.637725714134888
 21
177.7972623665691
 31
0.0
  0
ARC
  5
225B
  8
0
 10
87.406081895982425
 20
176.5709728129155
 30
0.0
 40
0.2564102564102552
 50
175.2660374531124
 51
225.84605298605419
  0
ARC
  5
225C
  8
0
 10
86.381315577520297
 20
176.91264698195371
 30
0.0
 40
0.5256410256410231
 50
140.64330107273929
 51
303.57748737918649
  0
LINE
  5
225D
  8
0
 10
85.974883077926776
 20
177.24598031528711
 30
0.0
 11
86.691555117950713
 21
177.24598031528711
 31
0.0
  0
LINE
  5
225E
  8
0
 10
86.373063644687079
 20
176.93828800759479
 30
0.0
 11
86.710844976090698
 21
176.93828800759479
 31
0.0
  0
LINE
  5
225F
  8
0
 10
85.342854039058778
 20
176.38700595631269
 30
0.0
 11
85.124905321110049
 21
176.38700595631269
 31
0.0
  0
LINE
  5
2260
  8
0
 10
85.394136090340851
 20
176.9161580544677
 30
0.0
 11
85.394136090340851
 21
176.89982646913319
 31
0.0
  0
ARC
  5
2261
  8
0
 10
86.919754891215405
 20
176.5408817387225
 30
0.0
 40
0.2564102564102552
 50
194.95437033353579
 51
216.8781738534538
  0
ARC
  5
2262
  8
0
 10
86.496700192904939
 20
177.0793136486204
 30
0.0
 40
0.2564102564102552
 50
235.43967822000931
 51
326.6329870307635
  0
ARC
  5
2263
  8
0
 10
86.496700192904939
 20
177.0793136486204
 30
0.0
 40
0.2564102564102552
 50
40.541601873498408
 51
90.0
  0
ARC
  5
2264
  8
0
 10
86.373063644687079
 20
176.89982646913319
 30
0.0
 40
0.0384615384615383
 50
90.0
 51
235.4396782200094
  0
LINE
  5
2265
  8
0
 10
83.394136090340851
 20
176.64341621272291
 30
0.0
 11
83.394136090340851
 21
176.5664931357999
 31
0.0
  0
ARC
  5
2266
  8
0
 10
83.214648910853668
 20
176.5664931357999
 30
0.0
 40
0.1794871794871786
 50
270.0
 51
0.0
  0
LINE
  5
2267
  8
0
 10
85.073623269828005
 20
176.64341621272291
 30
0.0
 11
85.073623269828005
 21
176.5664931357999
 31
0.0
  0
ARC
  5
2268
  8
0
 10
84.894136090340822
 20
176.5664931357999
 30
0.0
 40
0.1794871794871786
 50
269.99999999999977
 51
0.0
  0
TEXT
  5
2269
  8
0
 10
82.669136090340814
 20
174.2844418537486
 30
0.0
 40
1.0
  1
CLAYTON
 41
0.65
  7
06500
 72
     1
 11
84.727469423674165
 21
174.2844418537486
 31
0.0
  0
POLYLINE
  5
226A
  8
0
 66
     1
 10
0.0
 20
0.0
 30
0.0
 70
     1
 40
1.0
 41
1.0
  0
VERTEX
  5
226B
  8
0
 10
84.227469423674165
 20
183.0344418537486
 30
0.0
 42
1.0
  0
VERTEX
  5
226C
  8
0
 10
85.227469423674165
 20
183.0344418537486
 30
0.0
 42
1.0
  0
SEQEND
  5
226D
  8
0
  0
TEXT
  5
226E
  8
0
 10
75.237296627161101
 20
191.6471542834355
 30
0.0
 40
3.0
  1
27
 41
0.75
  7
07500
 72
     4
 11
77.380153770018239
 21
193.1471542834355
 31
0.0
  0
TEXT
  5
226F
  8
0
 10
70.64283439855619
 20
185.3971542834355
 30
0.0
 40
3.0
  1
24
 41
0.75
  7
07500
 72
     4
 11
72.839262969984759
 21
186.8971542834355
 31
0.0
  0
TEXT
  5
2270
  8
0
 10
71.01783439855619
 20
177.67172942406179
 30
0.0
 40
3.0
  1
21
 41
0.75
  7
07500
 72
     4
 11
72.839262969984759
 21
179.17172942406179
 31
0.0
  0
TEXT
  5
2271
  8
0
 10
75.076582341446866
 20
171.42172942406191
 30
0.0
 40
3.0
  1
18
 41
0.75
  7
07500
 72
     4
 11
77.380153770018296
 21
172.92172942406179
 31
0.0
  0
TEXT
  5
2272
  8
0
 10
82.423897995102735
 20
169.0344418537486
 30
0.0
 40
3.0
  1
15
 41
0.75
  7
07500
 72
     4
 11
84.727469423674165
 21
170.5344418537486
 31
0.0
  0
TEXT
  5
2273
  8
0
 10
89.77121364875866
 20
171.42172942406179
 30
0.0
 40
3.0
  1
12
 41
0.75
  7
07500
 72
     4
 11
92.074785077330091
 21
172.92172942406171
 31
0.0
  0
TEXT
  5
2274
  8
0
 10
95.258533020220426
 20
177.67172942406191
 30
0.0
 40
3.0
  1
9
 72
     4
 11
96.615675877363273
 21
179.17172942406179
 31
0.0
  0
TEXT
  5
2275
  8
0
 10
95.115675877363685
 20
185.3971542834355
 30
0.0
 40
3.0
  1
6
 72
     4
 11
96.615675877363685
 21
186.8971542834355
 31
0.0
  0
TEXT
  5
2276
  8
0
 10
90.646213648758604
 20
191.64715428343541
 30
0.0
 40
3.0
  1
3
 72
     4
 11
92.074785077330034
 21
193.14715428343541
 31
0.0
  0
TEXT
  5
2277
  8
0
 10
83.298897995102735
 20
194.0344418537486
 30
0.0
 40
3.0
  1
0
 72
     4
 11
84.727469423674165
 21
195.5344418537486
 31
0.0
  0
LINE
  5
2278
  8
0
 10
93.691194521134463
 20
195.37195101796669
 30
0.0
 11
97.070959721816052
 21
200.02379873562251
 31
0.0
  0
LINE
  5
2279
  8
0
 10
99.231081297175166
 20
187.74695101796661
 30
0.0
 11
104.69965626587241
 21
189.52379873562251
 31
0.0
  0
LINE
  5
227A
  8
0
 10
99.23108129717528
 20
178.32193268953071
 30
0.0
 11
104.6996562658726
 21
176.5450849718747
 31
0.0
  0
LINE
  5
227B
  8
0
 10
93.691194521134278
 20
170.6969326895308
 30
0.0
 11
97.070959721816081
 21
166.0450849718747
 31
0.0
  0
LINE
  5
227C
  8
0
 10
84.727469423674165
 20
167.7844418537486
 30
0.0
 11
84.727469423674165
 21
162.0344418537486
 31
0.0
  0
LINE
  5
227D
  8
0
 10
75.763744326213924
 20
170.69693268953071
 30
0.0
 11
72.383979125532278
 21
166.0450849718747
 31
0.0
  0
LINE
  5
227E
  8
0
 10
70.223857550173051
 20
178.32193268953071
 30
0.0
 11
64.755282581475939
 21
176.5450849718747
 31
0.0
  0
LINE
  5
227F
  8
0
 10
70.223857550173079
 20
187.74695101796661
 30
0.0
 11
64.755282581475996
 21
189.52379873562251
 31
0.0
  0
LINE
  5
2280
  8
0
 10
75.763744326214237
 20
195.37195101796621
 30
0.0
 11
72.383979125532235
 21
200.02379873562251
 31
0.0
  0
LINE
  5
2281
  8
3
 10
92.048728999038644
 20
199.47826009131589
 30
0.0
 11
93.268938928265925
 21
202.2188964642433
 31
0.0
  0
CIRCLE
  5
2282
  8
0
 10
84.727469423674165
 20
183.0344418537486
 30
0.0
 40
24.899999999999999
  0
ARC
  5
2325
  8
0
 10
109.4549388473574
 20
191.06888370750289
 30
0.0
 40
9.9999999999893792
 50
322.1469303168999
 51
73.853069196815923
  0
ARC
  5
2326
  8
0
 10
84.727469423671664
 20
209.0344418537592
 30
0.0
 40
9.9999999999893774
 50
34.146930316900168
 51
145.8530691968156
  0
ARC
  5
2327
  8
0
 10
59.999999999989193
 20
191.0688837074984
 30
0.0
 40
9.9999999999893756
 50
106.1469303168996
 51
217.85306919681591
  0
ARC
  5
2328
  8
0
 10
69.445052864065246
 20
161.99999999999011
 30
0.0
 40
9.9999999999893738
 50
178.14693031689939
 51
289.85306919681608
  0
ARC
  5
2329
  8
0
 10
100.0098859832864
 20
161.99999999999261
 30
0.0
 40
9.9999999999893721
 50
250.1469303168995
 51
1.8530691968159849
  0
ENDSEC
  0
EOF
