  0
SECTION
  2
HEADER
  9
$ACADVER
  1
AC1009
  9
$INSBASE
 10
0.0
 20
0.0
 30
0.0
  9
$EXTMIN
 10
0.0
 20
-2.960436562073669
 30
0.0
  9
$EXTMAX
 10
257.18240827077642
 20
253.55166278062489
 30
0.0
  9
$LIMMIN
 10
0.0
 20
0.0
  9
$LIMMAX
 10
375.0
 20
270.0
  9
$ORTHOMODE
 70
     1
  9
$REGENMODE
 70
     1
  9
$FILLMODE
 70
     1
  9
$QTEXTMODE
 70
     0
  9
$MIRRTEXT
 70
     0
  9
$DRAGMODE
 70
     2
  9
$LTSCALE
 40
10.0
  9
$OSMODE
 70
    37
  9
$ATTMODE
 70
     1
  9
$TEXTSIZE
 40
1.0
  9
$TRACEWID
 40
0.05
  9
$TEXTSTYLE
  7
08000
  9
$CLAYER
  8
0
  9
$CELTYPE
  6
BYLAYER
  9
$CECOLOR
 62
   256
  9
$DIMSCALE
 40
1.0
  9
$DIMASZ
 40
3.0
  9
$DIMEXO
 40
2.0
  9
$DIMDLI
 40
0.38
  9
$DIMRND
 40
0.0
  9
$DIMDLE
 40
0.0
  9
$DIMEXE
 40
2.0
  9
$DIMTP
 40
0.0
  9
$DIMTM
 40
0.0
  9
$DIMTXT
 40
3.2000000000000002
  9
$DIMCEN
 40
0.0
  9
$DIMTSZ
 40
0.0
  9
$DIMTOL
 70
     0
  9
$DIMLIM
 70
     0
  9
$DIMTIH
 70
     0
  9
$DIMTOH
 70
     0
  9
$DIMSE1
 70
     0
  9
$DIMSE2
 70
     0
  9
$DIMTAD
 70
     1
  9
$DIMZIN
 70
     0
  9
$DIMBLK
  1

  9
$DIMASO
 70
     0
  9
$DIMSHO
 70
     0
  9
$DIMPOST
  1

  9
$DIMAPOST
  1

  9
$DIMALT
 70
     0
  9
$DIMALTD
 70
     2
  9
$DIMALTF
 40
25.399999999999999
  9
$DIMLFAC
 40
1.0
  9
$DIMTOFL
 70
     0
  9
$DIMTVP
 40
1.6000000000000001
  9
$DIMTIX
 70
     1
  9
$DIMSOXD
 70
     0
  9
$DIMSAH
 70
     0
  9
$DIMBLK1
  1

  9
$DIMBLK2
  1

  9
$DIMSTYLE
  2
STANDARD
  9
$DIMCLRD
 70
     0
  9
$DIMCLRE
 70
     0
  9
$DIMCLRT
 70
     0
  9
$DIMTFAC
 40
1.0
  9
$DIMGAP
 40
0.09
  9
$LUNITS
 70
     2
  9
$LUPREC
 70
     1
  9
$SKETCHINC
 40
0.1
  9
$FILLETRAD
 40
0.0
  9
$AUNITS
 70
     0
  9
$AUPREC
 70
     1
  9
$MENU
  1
E:\r13\win\SUPPORT\ACAD
  9
$ELEVATION
 40
0.0
  9
$PELEVATION
 40
0.0
  9
$THICKNESS
 40
0.0
  9
$LIMCHECK
 70
     0
  9
$BLIPMODE
 70
     0
  9
$CHAMFERA
 40
0.0
  9
$CHAMFERB
 40
0.0
  9
$SKPOLY
 70
     0
  9
$TDCREATE
 40
2449839.7921990752
  9
$TDUPDATE
 40
2457534.4790647221
  9
$TDINDWG
 40
0.2919866551
  9
$TDUSRTIMER
 40
0.2919866551
  9
$USRTIMER
 70
     1
  9
$ANGBASE
 50
0.0
  9
$ANGDIR
 70
     0
  9
$PDMODE
 70
     0
  9
$PDSIZE
 40
0.0
  9
$PLINEWID
 40
0.0
  9
$COORDS
 70
     1
  9
$SPLFRAME
 70
     0
  9
$SPLINETYPE
 70
     6
  9
$SPLINESEGS
 70
     8
  9
$ATTDIA
 70
     0
  9
$ATTREQ
 70
     1
  9
$HANDLING
 70
     1
  9
$HANDSEED
  5
3928
  9
$SURFTAB1
 70
     6
  9
$SURFTAB2
 70
     6
  9
$SURFTYPE
 70
     6
  9
$SURFU
 70
     6
  9
$SURFV
 70
     6
  9
$UCSNAME
  2

  9
$UCSORG
 10
0.0
 20
0.0
 30
0.0
  9
$UCSXDIR
 10
1.0
 20
0.0
 30
0.0
  9
$UCSYDIR
 10
0.0
 20
1.0
 30
0.0
  9
$PUCSNAME
  2

  9
$PUCSORG
 10
0.0
 20
0.0
 30
0.0
  9
$PUCSXDIR
 10
1.0
 20
0.0
 30
0.0
  9
$PUCSYDIR
 10
0.0
 20
1.0
 30
0.0
  9
$USERI1
 70
     0
  9
$USERI2
 70
     1
  9
$USERI3
 70
     0
  9
$USERI4
 70
     0
  9
$USERI5
 70
     0
  9
$USERR1
 40
0.0
  9
$USERR2
 40
0.0
  9
$USERR3
 40
0.0
  9
$USERR4
 40
0.0
  9
$USERR5
 40
0.0
  9
$WORLDVIEW
 70
     1
  9
$SHADEDGE
 70
     3
  9
$SHADEDIF
 70
    70
  9
$TILEMODE
 70
     1
  9
$MAXACTVP
 70
    16
  9
$PLIMCHECK
 70
     0
  9
$PEXTMIN
 10
1.0000000000000000E+020
 20
1.0000000000000000E+020
 30
1.0000000000000000E+020
  9
$PEXTMAX
 10
-1.0000000000000000E+020
 20
-1.0000000000000000E+020
 30
-1.0000000000000000E+020
  9
$PLIMMIN
 10
0.0
 20
0.0
  9
$PLIMMAX
 10
12.0
 20
9.0
  9
$UNITMODE
 70
     0
  9
$VISRETAIN
 70
     0
  9
$PLINEGEN
 70
     0
  9
$PSLTSCALE
 70
     0
  0
ENDSEC
  0
SECTION
  2
TABLES
  0
TABLE
  2
VPORT
 70
     1
  0
VPORT
  2
*ACTIVE
 70
     0
 10
0.0
 20
0.0
 11
1.0
 21
1.0
 12
194.13140648447521
 22
125.2953986646171
 13
0.0
 23
0.0
 14
10.0
 24
10.0
 15
10.0
 25
10.0
 16
0.0
 26
0.0
 36
1.0
 17
0.0
 27
0.0
 37
0.0
 40
258.6055241351516
 41
1.816239316239316
 42
50.0
 43
0.0
 44
0.0
 50
0.0
 51
0.0
 71
     0
 72
   100
 73
     1
 74
     0
 75
     0
 76
     0
 77
     0
 78
     2
  0
ENDTAB
  0
TABLE
  2
LTYPE
 70
     4
  0
LTYPE
  2
CONTINUOUS
 70
     0
  3
Solid Line
 72
    65
 73
     0
 40
0.0
  0
LTYPE
  2
CENTER
 70
     0
  3
____ _ ____ _ ____ _ ____ _ ____ _ ____ _ ____
 72
    65
 73
     4
 40
2.0
 49
1.25
 49
-0.25
 49
0.25
 49
-0.25
  0
LTYPE
  2
HIDDEN
 70
     0
  3
_ _ _ _ _ _ _ _ _ _ _ _ _ _ _ _ _ _ _ _ _ _ _
 72
    65
 73
     2
 40
0.375
 49
0.25
 49
-0.125
  0
LTYPE
  2
PHANTOM2
 70
     0
  3
___ _ _ ___ _ _ ___ _ _ ___ _ _
 72
    65
 73
     6
 40
1.25
 49
0.625
 49
-0.125
 49
0.125
 49
-0.125
 49
0.125
 49
-0.125
  0
ENDTAB
  0
TABLE
  2
LAYER
 70
     5
  0
LAYER
  2
0
 70
     0
 62
     7
  6
CONTINUOUS
  0
LAYER
  2
1
 70
     0
 62
     1
  6
CENTER
  0
LAYER
  2
3
 70
     0
 62
     3
  6
CONTINUOUS
  0
LAYER
  2
2
 70
     0
 62
     2
  6
HIDDEN
  0
LAYER
  2
DEFPOINTS
 70
     0
 62
     7
  6
CONTINUOUS
  0
ENDTAB
  0
TABLE
  2
STYLE
 70
     5
  0
STYLE
  2
STANDARD
 70
     0
 40
0.0
 41
1.0
 50
0.0
 71
     0
 42
4.0
  3
ROMANS
  4

  0
STYLE
  2
06500
 70
     0
 40
0.0
 41
1.0
 50
0.0
 71
     0
 42
1.0
  3
romans.shx
  4

  0
STYLE
  2
08000
 70
     0
 40
0.0
 41
1.0
 50
0.0
 71
     0
 42
1.0
  3
romans.shx
  4

  0
STYLE
  2
STANDARD1
 70
     0
 40
0.0
 41
1.0
 50
0.0
 71
     0
 42
3.0
  3
txt
  4

  0
STYLE
  2
07500
 70
     0
 40
0.0
 41
1.0
 50
0.0
 71
     0
 42
3.0000000000000502
  3
romans.shx
  4

  0
ENDTAB
  0
TABLE
  2
VIEW
 70
     1
  0
VIEW
  2
ALL
 70
     0
 40
270.33333299999998
 10
220.87176500000001
 20
134.83333300000001
 41
441.74353000000002
 11
0.0
 21
0.0
 31
1.0
 12
0.0
 22
0.0
 32
0.0
 42
0.0
 43
0.0
 44
0.0
 50
0.0
 71
     0
  0
ENDTAB
  0
TABLE
  2
UCS
 70
     0
  0
ENDTAB
  0
TABLE
  2
APPID
 70
     7
  0
APPID
  2
ACAD
 70
     0
  0
APPID
  2
ACAD_EXEMPT_FROM_CAD_STANDARDS
 70
     0
  0
APPID
  2
ACAD_MLEADERVER
 70
     0
  0
APPID
  2
ACAD_NAV_VCDISPLAY
 70
     0
  0
APPID
  2
ACAD_DSTYLE_DIMRADIAL_EXTENSION
 70
     0
  0
APPID
  2
ACAD_DSTYLE_DIMJAG
 70
     0
  0
APPID
  2
ACAD_DSTYLE_DIMTALN
 70
     0
  0
ENDTAB
  0
TABLE
  2
DIMSTYLE
 70
     1
  0
DIMSTYLE
  2
STANDARD
 70
     0
  3

  4

  5

  6

  7

 40
1.0
 41
0.18
 42
0.0625
 43
0.38
 44
0.18
 45
0.0
 46
0.0
 47
0.0
 48
0.0
140
0.18
141
0.09
142
0.0
143
25.399999999999999
144
1.0
145
0.0
146
1.0
147
0.09
 71
     0
 72
     0
 73
     1
 74
     1
 75
     0
 76
     0
 77
     0
 78
     0
170
     0
171
     2
172
     0
173
     0
174
     0
175
     0
176
     0
177
     0
178
     0
  0
ENDTAB
  0
ENDSEC
  0
SECTION
  2
BLOCKS
  0
BLOCK
  8
0
  2
$MODEL_SPACE
 70
     0
 10
0.0
 20
0.0
 30
0.0
  3
$MODEL_SPACE
  1

  0
ENDBLK
  5
1EA
  8
0
  0
BLOCK
 67
     1
  8
0
  2
$PAPER_SPACE
 70
     0
 10
0.0
 20
0.0
 30
0.0
  3
$PAPER_SPACE
  1

  0
ENDBLK
  5
1E8
 67
     1
  8
0
  0
ENDSEC
  0
SECTION
  2
ENTITIES
  0
TEXT
  5
541
  8
0
 62
     3
 10
0.0
 20
0.0
 30
0.0
 40
10.0
  1
DFK100R-1/30
  7
STANDARD1
  0
ARC
  5
256C
  8
0
 10
163.74733403343859
 20
291.29595486070872
 30
0.0
 40
74.999999999993065
 50
218.35419775904251
 51
249.64580268109529
  0
ARC
  5
2570
  8
0
 10
204.9430878689079
 20
164.5084614798208
 30
0.0
 40
75.000000000015206
 50
146.3541967287172
 51
177.64580386147841
  0
ARC
  5
2574
  8
0
 10
97.091204135510907
 20
86.149481222039583
 30
0.0
 40
74.999999999994742
 50
74.354196728716744
 51
105.64580377009131
  0
ARC
  5
2578
  8
0
 10
-10.76067959787269
 20
164.50846147982531
 30
0.0
 40
75.000000000001606
 50
2.354195698383978
 51
33.645803770093643
  0
ARC
  5
257C
  8
0
 10
30.43507423757865
 20
291.2959548607152
 30
0.0
 40
75.000000000000796
 50
290.35419569838848
 51
321.64580286401241
  0
CIRCLE
  5
25CF
  8
0
 10
97.091204135510907
 20
56.000000000000078
 30
0.0
 40
2.4999999999999432
  0
CIRCLE
  5
25D0
  8
3
 10
97.091204135511134
 20
56.000000000000021
 30
0.0
 40
2.0095000000000018
  0
LINE
  5
25D1
  8
0
 10
96.513853866321369
 20
57.000000000000021
 30
0.0
 11
97.668554404700899
 21
57.000000000000021
 31
0.0
  0
LINE
  5
25D2
  8
0
 10
96.513853866321369
 20
57.000000000000021
 30
0.0
 11
95.936503597131832
 21
56.000000000000021
 31
0.0
  0
LINE
  5
25D3
  8
0
 10
95.936503597131832
 20
56.000000000000021
 30
0.0
 11
96.513853866321369
 21
55.000000000000021
 31
0.0
  0
LINE
  5
25D4
  8
0
 10
96.513853866321369
 20
55.000000000000021
 30
0.0
 11
97.668554404700899
 21
55.000000000000021
 31
0.0
  0
LINE
  5
25D5
  8
0
 10
97.668554404700899
 20
55.000000000000021
 30
0.0
 11
98.245904673890436
 21
56.000000000000021
 31
0.0
  0
LINE
  5
25D6
  8
0
 10
98.245904673890436
 20
56.000000000000021
 30
0.0
 11
97.668554404700899
 21
57.000000000000021
 31
0.0
  0
LINE
  5
25DA
  8
0
 10
55.490303271483761
 20
90.397871180432688
 30
0.0
 11
58.841204135510907
 21
89.499999999999858
 31
0.0
  0
LINE
  5
25DB
  8
0
 10
135.34120413551091
 20
89.500000000000156
 30
0.0
 11
138.67615064937971
 21
90.393596225192255
 31
0.0
  0
LINE
  5
25DC
  8
0
 10
138.6921049927227
 20
106.03033205166901
 30
0.0
 11
131.34120413551091
 21
108.0000000000001
 31
0.0
  0
LINE
  5
25DD
  8
0
 10
62.8412041355109
 20
107.9999999999999
 30
0.0
 11
55.506257618228567
 21
106.03460700416851
 31
0.0
  0
LINE
  5
25DE
  8
0
 10
58.841204135511127
 20
71.499999999999858
 30
0.0
 11
59.841204135511141
 21
70.499999999999886
 31
0.0
  0
LINE
  5
25DF
  8
0
 10
134.34120413551111
 20
70.500000000000114
 30
0.0
 11
135.34120413551111
 21
71.500000000000142
 31
0.0
  0
LINE
  5
25E0
  8
0
 10
58.841204135510907
 20
89.499999999999858
 30
0.0
 11
58.841204135511127
 21
71.499999999999858
 31
0.0
  0
LINE
  5
25E1
  8
0
 10
135.34120413551111
 20
71.500000000000142
 30
0.0
 11
135.34120413551091
 21
89.500000000000156
 31
0.0
  0
ARC
  5
25E2
  8
0
 10
82.341204135511134
 20
69.499999999999943
 30
0.0
 40
1.0
 50
0.0000000000008142
 51
90.0
  0
ARC
  5
25E3
  8
0
 10
111.84120413551091
 20
69.500000000000057
 30
0.0
 40
1.0
 50
90.0
 51
180.00000000000159
  0
LINE
  5
25E4
  8
0
 10
83.341204135511134
 20
51.299999999999947
 30
0.0
 11
84.341204135511134
 21
50.299999999999962
 31
0.0
  0
LINE
  5
25E5
  8
0
 10
109.84120413551111
 20
50.30000000000004
 30
0.0
 11
110.84120413551111
 21
51.300000000000047
 31
0.0
  0
LINE
  5
25E6
  8
0
 10
83.341204135511134
 20
69.499999999999972
 30
0.0
 11
83.341204135511134
 21
51.299999999999947
 31
0.0
  0
LINE
  5
25E7
  8
0
 10
110.84120413551111
 20
51.300000000000047
 30
0.0
 11
110.84120413551091
 21
69.500000000000057
 31
0.0
  0
LINE
  5
25E8
  8
0
 10
86.091204135511134
 20
50.299999999999962
 30
0.0
 11
86.091204135511134
 21
49.999999999999957
 31
0.0
  0
LINE
  5
25E9
  8
0
 10
108.09120413551111
 20
50.000000000000028
 30
0.0
 11
108.09120413551111
 21
50.30000000000004
 31
0.0
  0
LINE
  5
25EA
  8
0
 10
144.18240827102201
 20
92.35507778984379
 30
0.0
 11
144.18240827102181
 21
104.04118449302381
 31
0.0
  0
LINE
  5
25EB
  8
0
 10
50.0
 20
104.07312544043219
 30
0.0
 11
50.0
 21
92.387018737251708
 31
0.0
  0
LINE
  5
25EC
  8
0
 10
117.3179319349872
 20
91.544545912696307
 30
0.0
 11
117.3179319349872
 21
104.8836573175796
 31
0.0
  0
ARC
  5
25ED
  8
0
 10
97.091204116950848
 20
194.15438441051251
 30
0.0
 40
104.58441315403
 50
258.84867135628372
 51
281.15132831336672
  0
LINE
  5
25EE
  8
0
 10
76.864475707291604
 20
91.544546029318624
 30
0.0
 11
76.864475707291604
 21
104.8836572009571
 31
0.0
  0
ARC
  5
25EF
  8
0
 10
97.091204116951303
 20
2.2738187713004332
 30
0.0
 40
104.5844132015779
 50
78.848671691771941
 51
101.1513286385842
  0
ARC
  5
25F0
  8
0
 10
53.472443185179372
 20
98.406707344018344
 30
0.0
 40
7.0936091914090191
 50
241.34578696299371
 51
255.3236329855622
  0
POLYLINE
  5
25F1
  8
0
 66
     1
 10
0.0
 20
0.0
 30
0.0
 70
   128
  0
VERTEX
  5
38C0
  8
0
 10
51.675213803192491
 20
91.544546029318354
 30
0.0
  0
VERTEX
  5
38C1
  8
0
 10
54.518852185521609
 20
90.669329651180746
 30
0.0
  0
VERTEX
  5
38C2
  8
0
 10
57.049116491582708
 20
90.010238658579084
 30
0.0
  0
VERTEX
  5
38C3
  8
0
 10
59.27069829992115
 20
89.620320262646118
 30
0.0
  0
VERTEX
  5
38C4
  8
0
 10
61.112590602257796
 20
89.558414307962636
 30
0.0
  0
VERTEX
  5
38C5
  8
0
 10
62.296292136770042
 20
89.757997332050167
 30
0.0
  0
VERTEX
  5
38C6
  8
0
 10
63.204694593347767
 20
90.16916468612169
 30
0.0
  0
VERTEX
  5
38C7
  8
0
 10
63.836453177619212
 20
90.776108006714907
 30
0.0
  0
VERTEX
  5
38C8
  8
0
 10
64.176019481625644
 20
91.544546153590474
 30
0.0
  0
SEQEND
  5
38C9
  8
0
  0
ARC
  5
25F2
  8
0
 10
65.342343483974901
 20
90.80286315236927
 30
0.0
 40
1.382174139809047
 50
86.111241453364983
 51
147.54710475478171
  0
ARC
  5
25F4
  8
0
 10
67.443428454108471
 20
40.203303448832933
 30
0.0
 40
52.198460906955717
 50
79.601980081231261
 51
84.738818995070815
  0
ARC
  5
25F5
  8
0
 10
126.7125115391591
 20
40.395787062314717
 30
0.0
 40
52.004361911993662
 50
95.251588290498361
 51
100.4076133651898
  0
ARC
  5
25F7
  8
0
 10
128.7502073252619
 20
90.625200547924379
 30
0.0
 40
1.556659270277301
 50
36.198801112222803
 51
90.142846094433907
  0
POLYLINE
  5
25F8
  8
0
 66
     1
 10
0.0
 20
0.0
 30
0.0
 70
   128
  0
VERTEX
  5
38CA
  8
0
 10
130.0063888130623
 20
91.544546050685881
 30
0.0
  0
VERTEX
  5
38CB
  8
0
 10
130.42585600826229
 20
90.669328639249514
 30
0.0
  0
VERTEX
  5
38CC
  8
0
 10
131.24869763398229
 20
90.010237256475676
 30
0.0
  0
VERTEX
  5
38CD
  8
0
 10
132.50794836772411
 20
89.620319338933029
 30
0.0
  0
VERTEX
  5
38CE
  8
0
 10
134.2003259433022
 20
89.558414904692825
 30
0.0
  0
VERTEX
  5
38CF
  8
0
 10
135.8692813334664
 20
89.757998877018807
 30
0.0
  0
VERTEX
  5
38D0
  8
0
 10
137.80670448003929
 20
90.169166365502207
 30
0.0
  0
VERTEX
  5
38D1
  8
0
 10
140.0296295443834
 20
90.776109038914115
 30
0.0
  0
VERTEX
  5
38D2
  8
0
 10
142.5071941060657
 20
91.544545912696236
 30
0.0
  0
SEQEND
  5
38D3
  8
0
  0
ARC
  5
25F9
  8
0
 10
140.1885412281876
 20
99.719301522706331
 30
0.0
 40
8.4972219255167847
 50
285.83523185868489
 51
297.49534652170689
  0
LINE
  5
25FA
  8
0
 10
58.841204135510907
 20
89.499999999999858
 30
0.0
 11
135.34120413551091
 21
89.500000000000156
 31
0.0
  0
LINE
  5
25FB
  8
0
 10
62.8412041355109
 20
107.9999999999999
 30
0.0
 11
131.34120413551091
 21
108.0000000000001
 31
0.0
  0
ARC
  5
25FC
  8
0
 10
140.70996411331541
 20
98.021493673624008
 30
0.0
 40
7.0936115994087299
 50
61.345788639683192
 51
75.323632979926344
  0
POLYLINE
  5
25FD
  8
0
 66
     1
 10
0.0
 20
0.0
 30
0.0
 70
   128
  0
VERTEX
  5
38D4
  8
0
 10
142.5071941060655
 20
104.88365731757951
 30
0.0
  0
VERTEX
  5
38D5
  8
0
 10
139.66355578087831
 20
105.75887366701591
 30
0.0
  0
VERTEX
  5
38D6
  8
0
 10
137.1332915300743
 20
106.41796462776659
 30
0.0
  0
VERTEX
  5
38D7
  8
0
 10
134.9117097756066
 20
106.8078829898695
 30
0.0
  0
VERTEX
  5
38D8
  8
0
 10
133.06981752414501
 20
106.8697889125622
 30
0.0
  0
VERTEX
  5
38D9
  8
0
 10
131.88611607900339
 20
106.6702058819573
 30
0.0
  0
VERTEX
  5
38DA
  8
0
 10
130.97771368118171
 20
106.25903854648161
 30
0.0
  0
VERTEX
  5
38DB
  8
0
 10
130.3459551242488
 20
105.6520952675406
 30
0.0
  0
VERTEX
  5
38DC
  8
0
 10
130.0063888130623
 20
104.8836571795901
 30
0.0
  0
SEQEND
  5
38DD
  8
0
  0
ARC
  5
25FE
  8
0
 10
128.83966773709921
 20
105.62612503318771
 30
0.0
 40
1.3829304330740191
 50
266.12985921402708
 51
327.52849357951033
  0
ARC
  5
2600
  8
0
 10
126.73897969795441
 20
156.22489881573759
 30
0.0
 40
52.198459934410842
 50
259.60197931643472
 51
264.7388190278952
  0
ARC
  5
2601
  8
0
 10
67.417065418538641
 20
156.41661795757531
 30
0.0
 40
52.391789485635869
 50
275.27066493204939
 51
280.38853599167339
  0
ARC
  5
2603
  8
0
 10
65.432201117108207
 20
105.8030031229321
 30
0.0
 40
1.5566597104294011
 50
216.1988140446328
 51
270.14283974722798
  0
POLYLINE
  5
2604
  8
0
 66
     1
 10
0.0
 20
0.0
 30
0.0
 70
   128
  0
VERTEX
  5
38DE
  8
0
 10
64.176019481625417
 20
104.883657076685
 30
0.0
  0
VERTEX
  5
38DF
  8
0
 10
63.756552324603028
 20
105.7588745134467
 30
0.0
  0
VERTEX
  5
38E0
  8
0
 10
62.93371073271441
 20
106.4179659243251
 30
0.0
  0
VERTEX
  5
38E1
  8
0
 10
61.674460028258402
 20
106.8078838717186
 30
0.0
  0
VERTEX
  5
38E2
  8
0
 10
59.982082476046337
 20
106.86978833418679
 30
0.0
  0
VERTEX
  5
38E3
  8
0
 10
58.313127007837011
 20
106.670204365269
 30
0.0
  0
VERTEX
  5
38E4
  8
0
 10
56.375703751134552
 20
106.2590368549522
 30
0.0
  0
VERTEX
  5
38E5
  8
0
 10
54.152778541054893
 20
105.6520941366791
 30
0.0
  0
VERTEX
  5
38E6
  8
0
 10
51.675213803192491
 20
104.8836572009568
 30
0.0
  0
SEQEND
  5
38E7
  8
0
  0
ARC
  5
2605
  8
0
 10
53.983049715415291
 20
96.736132278259944
 30
0.0
 40
8.4680735095836575
 50
105.81509611708189
 51
117.51548393431121
  0
ARC
  5
2606
  8
0
 10
74.81049251684135
 20
111.2275747161966
 30
0.0
 40
19.219764142587881
 50
250.16735322657601
 51
262.28347240948767
  0
ARC
  5
2607
  8
0
 10
44.278742885155673
 20
159.3854445966476
 30
0.0
 40
70.455343669820635
 50
287.47528109070061
 51
289.92545127083861
  0
LINE
  5
2608
  8
0
 10
64.176019481625644
 20
91.544546153590474
 30
0.0
 11
64.176019481625417
 21
104.883657076685
 31
0.0
  0
ARC
  5
2609
  8
0
 10
41.247873275771319
 20
28.088628536056941
 30
0.0
 40
79.906618678375992
 50
70.219468890699403
 51
72.379798747761711
  0
ARC
  5
260A
  8
0
 10
74.597100282813017
 20
86.071072527896973
 30
0.0
 40
18.328793861705531
 50
97.420858195830064
 51
110.1283161680437
  0
LINE
  5
260B
  8
0
 10
130.0063888130623
 20
91.544546050685881
 30
0.0
 11
130.0063888130623
 21
104.8836571795901
 31
0.0
  0
ARC
  5
260C
  8
0
 10
151.8303811036125
 20
165.0775611906098
 30
0.0
 40
76.463439413415657
 50
250.17082247334059
 51
252.42844516511749
  0
ARC
  5
260D
  8
0
 10
119.5853080014294
 20
110.3571306484514
 30
0.0
 40
18.32879380652226
 50
277.42085817662291
 51
290.12831618725357
  0
ARC
  5
260E
  8
0
 10
119.3719157679634
 20
85.200628570303053
 30
0.0
 40
19.219764085022589
 50
70.167353208357682
 51
82.283472427695756
  0
ARC
  5
260F
  8
0
 10
149.90366399487669
 20
37.042762742968677
 30
0.0
 40
70.455339332433013
 50
107.4752810152474
 51
109.92545134624881
  0
LINE
  5
2610
  8
0
 10
58.841204135511127
 20
71.499999999999858
 30
0.0
 11
135.34120413551111
 21
71.500000000000142
 31
0.0
  0
LINE
  5
2611
  8
0
 10
59.841204135511141
 20
70.499999999999886
 30
0.0
 11
134.34120413551111
 21
70.500000000000114
 31
0.0
  0
LINE
  5
2614
  8
0
 10
83.341204135511134
 20
51.299999999999947
 30
0.0
 11
110.84120413551111
 21
51.300000000000047
 31
0.0
  0
LINE
  5
2615
  8
0
 10
84.341204135511134
 20
50.299999999999962
 30
0.0
 11
109.84120413551111
 21
50.30000000000004
 31
0.0
  0
LINE
  5
2616
  8
0
 10
86.091204135511134
 20
49.999999999999957
 30
0.0
 11
108.09120413551111
 21
50.000000000000028
 31
0.0
  0
LINE
  5
2617
  8
0
 10
144.18240827102201
 20
92.35507778984379
 30
0.0
 11
144.1115095013478
 21
92.181854980324587
 31
0.0
  0
LINE
  5
2618
  8
0
 10
144.1115095013476
 20
104.2463482499512
 30
0.0
 11
144.18240827102181
 21
104.04118449302381
 31
0.0
  0
LINE
  5
2619
  8
0
 10
50.070898769674159
 20
92.18185498032426
 30
0.0
 11
50.0
 21
92.387018737251708
 31
0.0
  0
LINE
  5
261A
  8
0
 10
50.0
 20
104.07312544043219
 30
0.0
 11
50.070898769676198
 21
104.2463482499524
 31
0.0
  0
LINE
  5
261C
  8
0
 10
212.62399347670279
 20
161.12717119043381
 30
0.0
 11
212.68240827077639
 21
161.301662780622
 31
0.0
  0
LINE
  5
261D
  8
0
 10
212.68240827077639
 20
237.80166278062211
 30
0.0
 11
210.0005532904519
 21
247.81048182572459
 31
0.0
  0
LINE
  5
261E
  8
0
 10
197.93606002082521
 20
247.81048182572439
 30
0.0
 11
194.18240827077631
 21
233.801662780622
 31
0.0
  0
LINE
  5
261F
  8
0
 10
194.18240827077631
 20
165.301662780622
 30
0.0
 11
195.30935266353899
 21
161.09584904952729
 31
0.0
  0
LINE
  5
2620
  8
0
 10
230.68240827077631
 20
161.30166278062211
 30
0.0
 11
231.68240827077639
 21
162.301662780622
 31
0.0
  0
LINE
  5
2621
  8
0
 10
231.68240827077639
 20
236.80166278062211
 30
0.0
 11
230.68240827077631
 21
237.80166278062211
 31
0.0
  0
LINE
  5
2622
  8
0
 10
212.68240827077639
 20
161.30166278062211
 30
0.0
 11
230.68240827077631
 21
161.30166278062211
 31
0.0
  0
LINE
  5
2623
  8
0
 10
230.68240827077631
 20
237.80166278062211
 30
0.0
 11
212.68240827077639
 21
237.80166278062211
 31
0.0
  0
LINE
  5
2624
  8
0
 10
197.79646500126421
 20
157.9999999999992
 30
0.0
 11
210.1784196320115
 21
157.9999999999992
 31
0.0
  0
ARC
  5
2625
  8
0
 10
232.68240827077631
 20
184.80166278062211
 30
0.0
 40
1.0
 50
90.0
 51
180.0
  0
ARC
  5
2626
  8
0
 10
232.68240827077631
 20
214.30166278062211
 30
0.0
 40
1.0
 50
180.0
 51
270.0
  0
LINE
  5
2627
  8
0
 10
250.88240827077641
 20
185.80166278062211
 30
0.0
 11
251.88240827077641
 21
186.80166278062211
 31
0.0
  0
LINE
  5
2628
  8
0
 10
251.88240827077641
 20
212.30166278062211
 30
0.0
 11
250.88240827077641
 21
213.30166278062211
 31
0.0
  0
LINE
  5
2629
  8
0
 10
232.68240827077631
 20
213.301662780622
 30
0.0
 11
250.88240827077641
 21
213.301662780622
 31
0.0
  0
LINE
  5
262A
  8
0
 10
243.68240827077639
 20
185.801662780622
 30
0.0
 11
232.68240827077631
 21
185.801662780622
 31
0.0
  0
LINE
  5
262B
  8
0
 10
250.88240827077641
 20
185.801662780622
 30
0.0
 11
248.68240827077639
 21
185.801662780622
 31
0.0
  0
LINE
  5
262C
  8
0
 10
251.88240827077641
 20
188.55166278062211
 30
0.0
 11
252.18240827077639
 21
188.55166278062211
 31
0.0
  0
LINE
  5
262D
  8
0
 10
252.18240827077639
 20
210.55166278062211
 30
0.0
 11
251.88240827077641
 21
210.55166278062211
 31
0.0
  0
LINE
  5
262E
  8
0
 10
209.03462746416281
 20
248.55166278062211
 30
0.0
 11
198.9019858471143
 21
248.55166278062211
 31
0.0
  0
ARC
  5
262F
  8
0
 10
209.03462746416281
 20
247.55166278062211
 30
0.0
 40
1.0000000000000551
 50
14.999999999993699
 51
90.02422397920067
  0
ARC
  5
2630
  8
0
 10
198.9019858471143
 20
247.55166278062211
 30
0.0
 40
0.9999999999999314
 50
90.0
 51
165.0000000000073
  0
LINE
  5
2631
  8
0
 10
248.26175152547501
 20
185.87150603532069
 30
0.0
 11
248.19190827077651
 21
185.801662780622
 31
0.0
  0
LINE
  5
2632
  8
0
 10
244.17290827077619
 20
185.801662780622
 30
0.0
 11
244.10276626156619
 21
185.8718047898322
 31
0.0
  0
POLYLINE
  5
2633
  8
0
 66
     1
 10
0.0
 20
0.0
 30
0.0
 70
   128
  0
VERTEX
  5
38E8
  8
0
 10
212.62399347670279
 20
161.12717119043381
 30
0.0
  0
VERTEX
  5
38E9
  8
0
 10
212.42440968420661
 20
160.87205648165369
 30
0.0
  0
VERTEX
  5
38EA
  8
0
 10
212.01324223002081
 20
160.3310669222866
 30
0.0
  0
VERTEX
  5
38EB
  8
0
 10
211.40629945066041
 20
159.49454012374511
 30
0.0
  0
VERTEX
  5
38EC
  8
0
 10
210.6378623580801
 20
158.37052720259129
 30
0.0
  0
SEQEND
  5
38ED
  8
0
  0
POLYLINE
  5
2634
  8
0
 66
     1
 10
0.0
 20
0.0
 30
0.0
 70
   128
  0
VERTEX
  5
38EE
  8
0
 10
210.00055329045341
 20
158.189542732858
 30
0.0
  0
VERTEX
  5
38EF
  8
0
 10
210.1784196320115
 20
157.99999999999909
 30
0.0
  0
VERTEX
  5
38F0
  8
0
 10
210.4156804738594
 20
158.09374714565161
 30
0.0
  0
VERTEX
  5
38F1
  8
0
 10
210.6378623580801
 20
158.37052720259129
 30
0.0
  0
SEQEND
  5
38F2
  8
0
  0
ARC
  5
2636
  8
0
 10
272.08249919994921
 20
156.5391434438265
 30
0.0
 40
62.4303437942946
 50
169.8050118037269
 51
173.9440860312325
  0
ARC
  5
2637
  8
0
 10
118.5298265777604
 20
186.82599198375101
 30
0.0
 40
94.095394371227613
 50
348.20334332129721
 51
11.796656267708221
  0
ARC
  5
2638
  8
0
 10
246.4731369032389
 20
213.53322664719889
 30
0.0
 40
36.60566723218578
 50
184.88716985078139
 51
191.7756304627699
  0
ARC
  5
263A
  8
0
 10
218.4651338763089
 20
217.67610334371429
 30
0.0
 40
8.4955774615509174
 50
157.1220110873322
 51
175.10410298001889
  0
POLYLINE
  5
263B
  8
0
 66
     1
 10
0.0
 20
0.0
 30
0.0
 70
   128
  0
VERTEX
  5
38F3
  8
0
 10
210.63786249606949
 20
220.97892927695679
 30
0.0
  0
VERTEX
  5
38F4
  8
0
 10
211.5155994093281
 20
223.05935872033081
 30
0.0
  0
VERTEX
  5
38F5
  8
0
 10
212.17217068354981
 20
225.51404963652959
 30
0.0
  0
VERTEX
  5
38F6
  8
0
 10
212.56143809161981
 20
228.42990899464871
 30
0.0
  0
VERTEX
  5
38F7
  8
0
 10
212.62399353939881
 20
231.71290980519359
 30
0.0
  0
VERTEX
  5
38F8
  8
0
 10
212.42289613703369
 20
234.64138159000419
 30
0.0
  0
VERTEX
  5
38F9
  8
0
 10
212.01324248654041
 20
237.7765466140676
 30
0.0
  0
VERTEX
  5
38FA
  8
0
 10
211.4045376551409
 20
241.17707942699411
 30
0.0
  0
VERTEX
  5
38FB
  8
0
 10
210.63786259897449
 20
244.756872555938
 30
0.0
  0
SEQEND
  5
38FC
  8
0
  0
ARC
  5
263C
  8
0
 10
479.22783708534507
 20
305.89315283523752
 30
0.0
 40
275.46001372427611
 50
192.21152225642351
 51
192.823150214191
  0
LINE
  5
263D
  8
0
 10
212.68240827077599
 20
161.30166278062211
 30
0.0
 11
212.68240827077639
 21
237.80166278062211
 31
0.0
  0
LINE
  5
263F
  8
0
 10
210.6378623580801
 20
206.0627533163721
 30
0.0
 11
197.29875095319659
 21
206.0627533163721
 31
0.0
  0
LINE
  5
2640
  8
0
 10
210.6378622200906
 20
167.58922999041911
 30
0.0
 11
197.29875109118629
 21
167.58922999041911
 31
0.0
  0
ARC
  5
2641
  8
0
 10
290.34919067937301
 20
186.8259919871314
 30
0.0
 40
95.018089433922825
 50
168.31951997578761
 51
191.68048043521
  0
LINE
  5
2642
  8
0
 10
194.1824082707758
 20
165.3016627806237
 30
0.0
 11
194.18240827077631
 21
233.801662780622
 31
0.0
  0
POLYLINE
  5
2644
  8
0
 66
     1
 10
0.0
 20
0.0
 30
0.0
 70
   128
  0
VERTEX
  5
38FD
  8
0
 10
197.29875071230239
 20
244.756872555938
 30
0.0
  0
VERTEX
  5
38FE
  8
0
 10
196.42101490366991
 20
240.60880606013541
 30
0.0
  0
VERTEX
  5
38FF
  8
0
 10
195.76444404852111
 20
236.70721514722331
 30
0.0
  0
VERTEX
  5
3900
  8
0
 10
195.37517615220929
 20
232.97163634028209
 30
0.0
  0
VERTEX
  5
3901
  8
0
 10
195.31261915743639
 20
229.5625671329189
 30
0.0
  0
VERTEX
  5
3902
  8
0
 10
195.5137155776161
 20
227.04918157754199
 30
0.0
  0
VERTEX
  5
3903
  8
0
 10
195.9233690518432
 20
224.78704300666541
 30
0.0
  0
VERTEX
  5
3904
  8
0
 10
196.53207451356349
 20
222.74425918217631
 30
0.0
  0
VERTEX
  5
3905
  8
0
 10
197.29875081520689
 20
220.97892927695679
 30
0.0
  0
SEQEND
  5
3906
  8
0
  0
ARC
  5
2645
  8
0
 10
190.21498257681299
 20
217.85992196697561
 30
0.0
 40
7.740024486718136
 50
4.009828638577007
 51
23.764057294130168
  0
ARC
  5
2647
  8
0
 10
160.47341855187361
 20
213.67821464768261
 30
0.0
 40
37.604525761623648
 50
348.31596182483082
 51
355.0212378616211
  0
ARC
  5
2648
  8
0
 10
135.3026729606141
 20
156.46041181563669
 30
0.0
 40
62.987016896653827
 50
6.074212188814025
 51
10.176689976245131
  0
POLYLINE
  5
264A
  8
0
 66
     1
 10
0.0
 20
0.0
 30
0.0
 70
   128
  0
VERTEX
  5
3907
  8
0
 10
197.29875095319619
 20
158.37052720259231
 30
0.0
  0
VERTEX
  5
3908
  8
0
 10
197.56905109889439
 20
158.04024705699999
 30
0.0
  0
VERTEX
  5
3909
  8
0
 10
197.79646500126421
 20
157.9999999999992
 30
0.0
  0
VERTEX
  5
390A
  8
0
 10
197.9360600208251
 20
158.18954273286181
 30
0.0
  0
SEQEND
  5
390B
  8
0
  0
ARC
  5
264B
  8
0
 10
171.82724498550951
 20
141.8658974482901
 30
0.0
 40
30.351283656354529
 50
32.941801982276942
 51
39.314709248945022
  0
ARC
  5
264C
  8
0
 10
-72.16854138267388
 20
306.08792798570209
 30
0.0
 40
276.35867974269968
 50
347.17784424427259
 51
347.7874832851171
  0
ARC
  5
264D
  8
0
 10
184.21082907823649
 20
206.8412103599417
 30
0.0
 40
26.036116229275009
 50
7.8887090002991629
 51
17.55324924865975
  0
ARC
  5
264E
  8
0
 10
173.36555046676051
 20
225.9656999543032
 30
0.0
 40
37.407828685899517
 50
342.4623303317403
 51
348.33330772884068
  0
LINE
  5
264F
  8
0
 10
210.63786249606949
 20
220.97892927695679
 30
0.0
 11
197.29875081520689
 21
220.97892927695679
 31
0.0
  0
ARC
  5
2650
  8
0
 10
225.5703430125026
 20
206.42481133203029
 30
0.0
 40
27.92082398234426
 50
162.77363655428621
 51
171.78440519678821
  0
ARC
  5
2651
  8
0
 10
232.9881182261924
 20
225.55330942166091
 30
0.0
 40
35.774292150490858
 50
191.53252551599931
 51
197.67183642336909
  0
LINE
  5
2652
  8
0
 10
210.63786259897449
 20
244.756872555938
 30
0.0
 11
197.29875071230239
 21
244.756872555938
 31
0.0
  0
LINE
  5
2654
  8
0
 10
230.68240827077631
 20
161.301662780622
 30
0.0
 11
230.68240827077591
 21
237.80166278062239
 31
0.0
  0
LINE
  5
2656
  8
0
 10
231.68240827077639
 20
162.301662780622
 30
0.0
 11
231.68240827077591
 21
236.80166278062251
 31
0.0
  0
ARC
  5
2657
  8
0
 10
199.88143330894451
 20
164.412190877124
 30
0.0
 40
10.200598815974621
 50
333.80790782194669
 51
352.75335965498709
  0
ARC
  5
2658
  8
0
 10
241.53342818023191
 20
177.0262907464444
 30
0.0
 40
36.730712959889239
 50
207.77486866519101
 51
210.85276715770439
  0
ARC
  5
2659
  8
0
 10
181.01942430794779
 20
168.81940419195249
 30
0.0
 40
19.97915209616416
 50
327.8560872110736
 51
333.516276966014
  0
ARC
  5
265A
  8
0
 10
208.1101032927464
 20
164.42868889127661
 30
0.0
 40
10.257168813247549
 50
187.29936124287909
 51
206.13937128009181
  0
LINE
  5
265C
  8
0
 10
250.88240827077641
 20
185.80166278062211
 30
0.0
 11
250.8824082707759
 21
213.30166278062259
 31
0.0
  0
LINE
  5
265E
  8
0
 10
251.88240827077641
 20
186.80166278062211
 30
0.0
 11
251.88240827077581
 21
212.30166278062271
 31
0.0
  0
POLYLINE
  5
265F
  8
0
 66
     1
 10
0.0
 20
0.0
 30
0.0
 70
   128
  0
VERTEX
  5
390C
  8
0
 10
248.68240827077639
 20
185.801662780622
 30
0.0
  0
VERTEX
  5
390D
  8
0
 10
248.6800432558386
 20
185.80209258666301
 30
0.0
  0
VERTEX
  5
390E
  8
0
 10
248.62580996187771
 20
185.8118406629934
 30
0.0
  0
VERTEX
  5
390F
  8
0
 10
248.50709084901621
 20
185.83245547518439
 30
0.0
  0
VERTEX
  5
3910
  8
0
 10
248.32061209119331
 20
185.86282003999389
 30
0.0
  0
VERTEX
  5
3911
  8
0
 10
248.0790417704589
 20
185.89846833272381
 30
0.0
  0
VERTEX
  5
3912
  8
0
 10
247.7771992642262
 20
185.9371169449069
 30
0.0
  0
VERTEX
  5
3913
  8
0
 10
247.4353275447219
 20
185.97291811452621
 30
0.0
  0
VERTEX
  5
3914
  8
0
 10
247.0467199592087
 20
186.00324830900351
 30
0.0
  0
VERTEX
  5
3915
  8
0
 10
246.646183411919
 20
186.0228939016167
 30
0.0
  0
VERTEX
  5
3916
  8
0
 10
246.2199707738354
 20
186.0307933210926
 30
0.0
  0
VERTEX
  5
3917
  8
0
 10
245.8109648413612
 20
186.02574431933979
 30
0.0
  0
VERTEX
  5
3918
  8
0
 10
245.4008712454125
 20
186.00827693652769
 30
0.0
  0
VERTEX
  5
3919
  8
0
 10
245.0244952807185
 20
185.98135465985541
 30
0.0
  0
VERTEX
  5
391A
  8
0
 10
244.6702434005314
 20
185.94654820577171
 30
0.0
  0
VERTEX
  5
391B
  8
0
 10
244.36274645945571
 20
185.90894790756329
 30
0.0
  0
VERTEX
  5
391C
  8
0
 10
244.09843223668651
 20
185.87118559191759
 30
0.0
  0
VERTEX
  5
391D
  8
0
 10
243.8978253360464
 20
185.8391933026009
 30
0.0
  0
VERTEX
  5
391E
  8
0
 10
243.7576324985433
 20
185.8151407482585
 30
0.0
  0
VERTEX
  5
391F
  8
0
 10
243.7015903003695
 20
185.80513748139481
 30
0.0
  0
VERTEX
  5
3920
  8
0
 10
243.68240827077639
 20
185.801662780622
 30
0.0
  0
SEQEND
  5
3921
  8
0
  0
LINE
  5
2661
  8
0
 10
252.18240827077639
 20
188.55166278062211
 30
0.0
 11
252.18240827077639
 21
210.55166278062211
 31
0.0
  0
ARC
  5
2662
  8
0
 10
208.9626327672803
 20
247.50954792902851
 30
0.0
 40
1.0445987747892449
 50
6.4822519905798801
 51
86.047989849726278
  0
POLYLINE
  5
2663
  8
0
 66
     1
 10
0.0
 20
0.0
 30
0.0
 70
   128
  0
VERTEX
  5
3922
  8
0
 10
197.93606002082521
 20
247.62747836559581
 30
0.0
  0
VERTEX
  5
3923
  8
0
 10
198.2782961433555
 20
248.27796438930321
 30
0.0
  0
VERTEX
  5
3924
  8
0
 10
198.57177855924769
 20
248.48122910866431
 30
0.0
  0
VERTEX
  5
3925
  8
0
 10
198.89589891290061
 20
248.5516395049284
 30
0.0
  0
VERTEX
  5
3926
  8
0
 10
198.9019858471143
 20
248.55166278062401
 30
0.0
  0
SEQEND
  5
3927
  8
0
  0
LINE
  5
2664
  8
0
 10
248.19190827077651
 20
185.801662780622
 30
0.0
 11
244.17290827077619
 21
185.801662780622
 31
0.0
  0
LINE
  5
26DD
  8
0
 10
55.033013587024527
 20
105.8924316204134
 30
0.0
 11
55.506257618228567
 21
106.03460700416851
 31
0.0
  0
LINE
  5
26DE
  8
0
 10
138.6921049927227
 20
106.03033205166901
 30
0.0
 11
139.15148444529589
 21
105.8922595726322
 31
0.0
  0
LINE
  5
26E1
  8
0
 10
55.030923718818258
 20
90.535943690530303
 30
0.0
 11
55.490303271483761
 21
90.397871180432688
 31
0.0
  0
LINE
  5
26E2
  8
0
 10
139.1493946431124
 20
90.535771596695582
 30
0.0
 11
138.67615064937971
 21
90.393596225192255
 31
0.0
  0
LINE
  5
2726
  8
1
 10
97.091204135511134
 20
44.999999999999993
 30
0.0
 11
97.091204135511134
 21
113.0
 31
0.0
  0
LINE
  5
2727
  8
1
 10
257.18240827077642
 20
199.551662780622
 30
0.0
 11
189.18240827077611
 21
199.551662780622
 31
0.0
  0
LINE
  5
2734
  8
1
 10
97.091204135511134
 20
145.55166278062089
 30
0.0
 11
97.091204135511134
 21
253.55166278062489
 31
0.0
  0
LINE
  5
2735
  8
1
 10
151.09120413551301
 20
199.55166278062291
 30
0.0
 11
43.091204135509201
 21
199.55166278062291
 31
0.0
  0
LINE
  5
28C5
  8
2
 10
244.17290827077639
 20
193.551662780622
 30
0.0
 11
243.68240827077639
 21
193.061162780622
 31
0.0
  0
LINE
  5
28C6
  8
2
 10
248.68240827077639
 20
193.061162780622
 30
0.0
 11
248.19190827077639
 21
193.551662780622
 31
0.0
  0
LINE
  5
28C7
  8
2
 10
244.17290827077639
 20
193.551662780622
 30
0.0
 11
248.19190827077639
 21
193.551662780622
 31
0.0
  0
LINE
  5
28C8
  8
2
 10
248.26175152547501
 20
185.87150603532061
 30
0.0
 11
248.68240827077639
 21
186.29216278062199
 31
0.0
  0
LINE
  5
28C9
  8
2
 10
243.68240827077639
 20
186.29216278062199
 30
0.0
 11
244.1027662615661
 21
185.8718047898322
 31
0.0
  0
LINE
  5
28CA
  8
2
 10
243.68240827077639
 20
186.29216278062199
 30
0.0
 11
248.68240827077639
 21
186.29216278062199
 31
0.0
  0
LINE
  5
28CB
  8
2
 10
243.68240827077639
 20
193.061162780622
 30
0.0
 11
248.68240827077639
 21
193.061162780622
 31
0.0
  0
LINE
  5
28CC
  8
2
 10
244.17290827077639
 20
185.801662780622
 30
0.0
 11
244.17290827077639
 21
193.551662780622
 31
0.0
  0
LINE
  5
28CD
  8
2
 10
248.19190827077639
 20
185.801662780622
 30
0.0
 11
248.19190827077639
 21
193.551662780622
 31
0.0
  0
LINE
  5
28CE
  8
2
 10
243.68240827077639
 20
193.061162780622
 30
0.0
 11
243.68240827077639
 21
186.29216278062199
 31
0.0
  0
LINE
  5
28CF
  8
2
 10
248.68240827077639
 20
193.061162780622
 30
0.0
 11
248.68240827077639
 21
186.29216278062199
 31
0.0
  0
LINE
  5
2913
  8
1
 10
246.18240827077639
 20
195.551662780622
 30
0.0
 11
246.18240827077639
 21
183.801662780622
 31
0.0
  0
LINE
  5
291A
  8
1
 10
101.59120413551079
 20
56.000000000000078
 30
0.0
 11
92.591204135510964
 21
56.000000000000078
 31
0.0
  0
LINE
  5
295F
  8
2
 10
252.18240827077639
 20
205.55166278062211
 30
0.0
 11
230.18240827077639
 21
205.55166278062211
 31
0.0
  0
LINE
  5
2960
  8
2
 10
252.18240827077639
 20
193.551662780622
 30
0.0
 11
230.18240827077639
 21
193.551662780622
 31
0.0
  0
LINE
  5
2961
  8
2
 10
230.18240827077639
 20
193.551662780622
 30
0.0
 11
230.18240827077639
 21
205.55166278062211
 31
0.0
  0
LINE
  5
2963
  8
2
 10
103.09120413551121
 20
50.000000000000021
 30
0.0
 11
103.09120413551121
 21
72.000000000000014
 31
0.0
  0
LINE
  5
2964
  8
2
 10
91.091204135511191
 20
49.999999999999993
 30
0.0
 11
91.091204135511191
 21
71.999999999999972
 31
0.0
  0
LINE
  5
2965
  8
2
 10
91.091204135511191
 20
71.999999999999972
 30
0.0
 11
103.09120413551121
 21
72.000000000000014
 31
0.0
  0
CIRCLE
  5
36FA
  8
0
 10
97.091204135511134
 20
199.55166278062291
 30
0.0
 40
34.25
  0
SOLID
  5
36FB
  8
0
 10
100.3850647729768
 20
201.8385944504397
 30
0.0
 11
98.926581803168432
 21
197.53898642115391
 31
0.0
 12
119.4986031043704
 22
201.5908958350729
 32
0.0
 13
119.4986031043704
 23
201.5908958350729
 33
0.0
  0
SOLID
  5
36FC
  8
0
 10
92.94327758508885
 20
196.58203903999711
 30
0.0
 11
92.963084006154645
 21
196.36440311162801
 31
0.0
 12
93.288248322045504
 22
196.42844817231199
 32
0.0
 13
93.288248322045504
 23
196.42844817231199
 33
0.0
  0
SOLID
  5
36FD
  8
0
 10
92.455541557046985
 20
201.9413557438773
 30
0.0
 11
92.90842310310299
 21
196.96502532104259
 31
0.0
 12
95.673351108823681
 22
201.89965509396791
 32
0.0
 13
95.673351108823681
 23
201.89965509396791
 33
0.0
  0
LINE
  5
36FE
  8
0
 10
92.743635624578303
 20
196.67092536760759
 30
0.0
 11
107.66635685548199
 21
223.3038446793305
 31
0.0
  0
LINE
  5
36FF
  8
0
 10
107.66635685548199
 20
223.3038446793305
 30
0.0
 11
97.859490187376906
 21
194.39320016638311
 31
0.0
  0
CIRCLE
  5
3700
  8
0
 10
97.091204135511106
 20
199.55166278062291
 30
0.0
 40
1.0
  0
POLYLINE
  5
3701
  8
0
 66
     1
 10
0.0
 20
0.0
 30
0.0
 70
     1
 40
1.0
 41
1.0
  0
VERTEX
  5
3702
  8
0
 10
96.591204135511106
 20
199.55166278062291
 30
0.0
 42
1.0
  0
VERTEX
  5
3703
  8
0
 10
97.591204135511106
 20
199.55166278062291
 30
0.0
 42
1.0
  0
SEQEND
  5
3704
  8
0
  0
LINE
  5
3705
  8
0
 10
97.859490187376906
 20
194.39320016638311
 30
0.0
 11
92.743635624578303
 21
196.67092536760759
 31
0.0
  0
LINE
  5
3706
  8
0
 10
92.455541557047084
 20
201.9413557438773
 30
0.0
 11
95.673351108823681
 21
201.89965509396791
 31
0.0
  0
LINE
  5
3707
  8
0
 10
119.4986031043704
 20
201.5908958350729
 30
0.0
 11
98.926581803168375
 21
197.53898642115391
 31
0.0
  0
LINE
  5
3708
  8
0
 10
92.963084006154645
 20
196.36440311162801
 30
0.0
 11
92.94327758508885
 21
196.58203903999711
 31
0.0
  0
LINE
  5
3709
  8
0
 10
99.956353126280987
 20
200.57475244711199
 30
0.0
 11
95.934349045659644
 21
202.36546403623259
 31
0.0
  0
LINE
  5
370A
  8
0
 10
99.891834266622354
 20
200.38455083847421
 30
0.0
 11
95.836173248087931
 21
202.19024746181341
 31
0.0
  0
LINE
  5
370B
  8
0
 10
98.665975933109266
 20
196.7707202743558
 30
0.0
 11
93.970833094224986
 21
198.861132547848
 31
0.0
  0
LINE
  5
370C
  8
0
 10
98.601457073450675
 20
196.58051866571799
 30
0.0
 11
93.872657296653244
 21
198.68591597342879
 31
0.0
  0
LINE
  5
370D
  8
0
 10
100.3850647729768
 20
201.8385944504397
 30
0.0
 11
119.4986031043704
 21
201.5908958350729
 31
0.0
  0
LINE
  5
370E
  8
0
 10
92.90842310310299
 20
196.9650253210425
 30
0.0
 11
92.455541557046956
 21
201.9413557438773
 31
0.0
  0
LINE
  5
370F
  8
0
 10
93.288248322045504
 20
196.42844817231199
 30
0.0
 11
92.963084006154645
 21
196.36440311162801
 31
0.0
  0
CIRCLE
  5
3710
  8
0
 10
97.091204135511134
 20
199.55166278062291
 30
0.0
 40
30.0
  0
ARC
  5
3711
  8
0
 10
97.357870802179917
 20
189.90294483190431
 30
0.0
 40
0.2871794871796385
 50
269.9999999999996
 51
0.0
  0
LINE
  5
3712
  8
0
 10
97.645050289359602
 20
190.0260217549812
 30
0.0
 11
97.645050289359602
 21
189.90294483190431
 31
0.0
  0
ARC
  5
3713
  8
0
 10
94.670691314999061
 20
189.90294483190431
 30
0.0
 40
0.2871794871796385
 50
270.0
 51
0.0
  0
LINE
  5
3714
  8
0
 10
94.957870802178689
 20
190.02602175498129
 30
0.0
 11
94.957870802178689
 21
189.90294483190431
 31
0.0
  0
ARC
  5
3715
  8
0
 10
99.724154889135207
 20
190.43627816523789
 30
0.0
 40
0.061538461538494
 50
90.0
 51
235.43967822000789
  0
ARC
  5
3716
  8
0
 10
99.921973366283879
 20
190.72345765241749
 30
0.0
 40
0.4102564102566264
 50
40.541601873498472
 51
90.0
  0
ARC
  5
3717
  8
0
 10
99.921973366283879
 20
190.72345765241749
 30
0.0
 40
0.4102564102566264
 50
235.43967822000789
 51
326.6329870307635
  0
ARC
  5
3718
  8
0
 10
100.598860883581
 20
189.86196659658029
 30
0.0
 40
0.4102564102566264
 50
194.9543703335342
 51
216.87817385345369
  0
LINE
  5
3719
  8
0
 10
98.157870802180426
 20
190.4624087017732
 30
0.0
 11
98.157870802180426
 21
190.43627816523789
 31
0.0
  0
LINE
  5
371A
  8
0
 10
98.075819520129045
 20
189.61576534472471
 30
0.0
 11
97.727101571410884
 21
189.61576534472471
 31
0.0
  0
LINE
  5
371B
  8
0
 10
99.724154889135207
 20
190.4978166267764
 30
0.0
 11
100.26460501938119
 21
190.4978166267764
 31
0.0
  0
LINE
  5
371C
  8
0
 10
99.087065982318435
 20
190.99012431908429
 30
0.0
 11
100.2337412463573
 21
190.99012431908429
 31
0.0
  0
ARC
  5
371D
  8
0
 10
99.737357981668367
 20
190.45679098575081
 30
0.0
 40
0.8410256410260839
 50
140.64330107273929
 51
303.57748737918718
  0
ARC
  5
371E
  8
0
 10
101.3769840912086
 20
189.91011231528921
 30
0.0
 40
0.4102564102566264
 50
175.26603745311411
 51
225.84605298605209
  0
LINE
  5
371F
  8
0
 10
98.978383622693656
 20
191.87217560113609
 30
0.0
 11
98.547614200251076
 21
191.87217560113609
 31
0.0
  0
ARC
  5
3720
  8
0
 10
99.470691315001574
 20
191.46191919087951
 30
0.0
 40
0.4102564102566264
 50
90.0
 51
180.0
  0
ARC
  5
3721
  8
0
 10
98.240493858595741
 20
191.49254547805771
 30
0.0
 40
0.8205128205132528
 50
334.06662005680403
 51
357.86089300734272
  0
ARC
  5
3722
  8
0
 10
99.974586576130065
 20
190.87601824729859
 30
0.0
 40
0.996224746408062
 50
4.206846717150631
 51
90.666449776467815
  0
LINE
  5
3723
  8
0
 10
100.9681272124382
 20
190.9490986780587
 30
0.0
 11
100.9681272124382
 21
189.94397047293
 31
0.0
  0
LINE
  5
3724
  8
0
 10
98.978383622693656
 20
191.13371406267419
 30
0.0
 11
99.921973366283822
 21
191.13371406267419
 31
0.0
  0
ARC
  5
3725
  8
0
 10
95.777811848327914
 20
189.99539546780301
 30
0.0
 40
0.8205128205132528
 50
154.066620056804
 51
177.8608930073427
  0
ARC
  5
3726
  8
0
 10
98.464991335508856
 20
189.99539546780301
 30
0.0
 40
0.8205128205132528
 50
154.066620056804
 51
177.8608930073427
  0
LINE
  5
3727
  8
0
 10
97.727101571410884
 20
190.35422688318661
 30
0.0
 11
97.727101571410884
 21
189.61576534472471
 31
0.0
  0
LINE
  5
3728
  8
0
 10
95.327101571409656
 20
189.61576534472471
 30
0.0
 11
96.22966567397421
 21
189.61576534472471
 31
0.0
  0
ARC
  5
3729
  8
0
 10
98.075819520129045
 20
190.4624087017732
 30
0.0
 40
0.0820512820513253
 50
0.0
 51
54.9003678046057
  0
ARC
  5
372A
  8
0
 10
98.075819520129045
 20
190.43627816523789
 30
0.0
 40
0.0820512820513253
 50
270.0
 51
0.0
  0
ARC
  5
372B
  8
0
 10
98.547614391924157
 20
191.0255322440876
 30
0.0
 40
0.0820512820513253
 50
180.0
 51
234.900367804605
  0
ARC
  5
372C
  8
0
 10
98.547614391924157
 20
191.05166278062279
 30
0.0
 40
0.0820512820513253
 50
90.0
 51
180.0
  0
LINE
  5
372D
  8
0
 10
98.465563109872875
 20
191.0255322440876
 30
0.0
 11
98.465563109872875
 21
191.05166278062279
 31
0.0
  0
ARC
  5
372E
  8
0
 10
98.075819520129045
 20
190.35422688318661
 30
0.0
 40
0.7384615384619276
 50
270.0
 51
54.900367804605608
  0
ARC
  5
372F
  8
0
 10
98.547614391924157
 20
191.13371406267419
 30
0.0
 40
0.7384615384619276
 50
90.0
 51
234.9003678046077
  0
LINE
  5
3730
  8
0
 10
98.547614391924157
 20
191.13371406267419
 30
0.0
 11
98.978383622693656
 21
191.13371406267419
 31
0.0
  0
LINE
  5
3731
  8
0
 10
98.978383622693656
 20
191.13371406267419
 30
0.0
 11
98.978383622693656
 21
191.87217560113609
 31
0.0
  0
ARC
  5
3732
  8
0
 10
96.988640032948979
 20
190.74397047293041
 30
0.0
 40
1.1282051282057219
 50
90.0
 51
270.0
  0
LINE
  5
3733
  8
0
 10
97.727101571410941
 20
191.13371406267419
 30
0.0
 11
97.727101571410941
 21
191.87217560113609
 31
0.0
  0
ARC
  5
3734
  8
0
 10
96.988640032948979
 20
190.74397047293041
 30
0.0
 40
0.389743589743795
 50
90.0
 51
140.83328928387851
  0
LINE
  5
3735
  8
0
 10
97.645050289359602
 20
190.4978166267764
 30
0.0
 11
97.645050289359602
 21
190.99012431908429
 31
0.0
  0
LINE
  5
3736
  8
0
 10
96.686467317817375
 20
190.99012431908429
 30
0.0
 11
97.645050289359602
 21
190.99012431908429
 31
0.0
  0
LINE
  5
3737
  8
0
 10
96.686467317817375
 20
190.4978166267764
 30
0.0
 11
97.645050289359602
 21
190.4978166267764
 31
0.0
  0
LINE
  5
3738
  8
0
 10
96.988640032948979
 20
191.13371406267419
 30
0.0
 11
97.727101571410941
 21
191.13371406267419
 31
0.0
  0
LINE
  5
3739
  8
0
 10
96.988640032948979
 20
190.35422688318661
 30
0.0
 11
98.075819520129045
 21
190.35422688318661
 31
0.0
  0
ARC
  5
373A
  8
0
 10
96.988640032948979
 20
190.74397047293041
 30
0.0
 40
0.389743589743795
 50
219.16671071612129
 51
270.0
  0
LINE
  5
373B
  8
0
 10
97.357870802179917
 20
189.61576534472471
 30
0.0
 11
96.988640032948979
 21
189.61576534472471
 31
0.0
  0
LINE
  5
373C
  8
0
 10
97.727101571410941
 20
191.87217560113609
 30
0.0
 11
96.988640032948979
 21
191.87217560113609
 31
0.0
  0
LINE
  5
373D
  8
0
 10
94.957870802178689
 20
191.87217560113609
 30
0.0
 11
94.219409263716784
 21
191.87217560113609
 31
0.0
  0
ARC
  5
373E
  8
0
 10
97.211999539292748
 20
190.66305786521141
 30
0.0
 40
1.435897435898192
 50
176.76968023270729
 51
226.8331387399966
  0
ARC
  5
373F
  8
0
 10
97.089686390878654
 20
190.6650759794243
 30
0.0
 40
2.0512820512831311
 50
177.79579960996469
 51
210.7663918619746
  0
LINE
  5
3740
  8
0
 10
95.778383622691933
 20
190.74397047293041
 30
0.0
 11
95.778383622691933
 21
192.48756021652099
 31
0.0
  0
LINE
  5
3741
  8
0
 10
95.039922084230028
 20
190.74397047293041
 30
0.0
 11
95.039922084230028
 21
192.48756021652099
 31
0.0
  0
LINE
  5
3742
  8
0
 10
94.670691314999061
 20
189.61576534472471
 30
0.0
 11
94.219409263716784
 21
189.61576534472471
 31
0.0
  0
ARC
  5
3743
  8
0
 10
94.219409263716784
 20
190.74397047293041
 30
0.0
 40
0.389743589743795
 50
219.16671071612129
 51
270.0
  0
LINE
  5
3744
  8
0
 10
94.219409263716784
 20
190.35422688318661
 30
0.0
 11
95.039922084230028
 21
190.35422688318661
 31
0.0
  0
LINE
  5
3745
  8
0
 10
94.219409263716784
 20
191.13371406267419
 30
0.0
 11
94.957870802178689
 21
191.13371406267419
 31
0.0
  0
LINE
  5
3746
  8
0
 10
93.917236548585137
 20
190.4978166267764
 30
0.0
 11
94.875819520127408
 21
190.4978166267764
 31
0.0
  0
LINE
  5
3747
  8
0
 10
93.917236548585137
 20
190.99012431908429
 30
0.0
 11
94.875819520127408
 21
190.99012431908429
 31
0.0
  0
LINE
  5
3748
  8
0
 10
94.875819520127408
 20
190.4978166267764
 30
0.0
 11
94.875819520127408
 21
190.99012431908429
 31
0.0
  0
ARC
  5
3749
  8
0
 10
94.219409263716784
 20
190.74397047293041
 30
0.0
 40
0.389743589743795
 50
90.0
 51
140.83328928387851
  0
LINE
  5
374A
  8
0
 10
94.957870802178689
 20
191.13371406267419
 30
0.0
 11
94.957870802178689
 21
191.87217560113609
 31
0.0
  0
ARC
  5
374B
  8
0
 10
94.219409263716784
 20
190.74397047293041
 30
0.0
 40
1.1282051282057219
 50
90.0
 51
270.0
  0
LINE
  5
374C
  8
0
 10
99.962999007309492
 20
191.87217560113609
 30
0.0
 11
99.470691315001574
 21
191.87217560113609
 31
0.0
  0
LINE
  5
374D
  8
0
 10
101.0912041355152
 20
189.61576534472471
 30
0.0
 11
100.270691315002
 21
189.61576534472471
 31
0.0
  0
LINE
  5
374E
  8
0
 10
95.039922084230028
 20
192.48756021652099
 30
0.0
 11
95.778383622691933
 21
192.48756021652099
 31
0.0
  0
TEXT
  5
374F
  8
0
 10
94.0037041355111
 20
187.05166278062291
 30
0.0
 40
1.5
  1
CLAYTON
 41
0.65
  7
06500
 72
     1
 11
97.091204135511106
 21
187.05166278062291
 31
0.0
  0
LINE
  5
3750
  8
3
 10
119.67391933203569
 20
186.51352608287669
 30
0.0
 11
123.07196624904429
 21
184.55166278062291
 31
0.0
  0
LINE
  5
3751
  8
3
 10
74.508488938984044
 20
186.51352608287539
 30
0.0
 11
71.110442021977946
 21
184.55166278062291
 31
0.0
  0
LINE
  5
3752
  8
3
 10
116.576775720661
 20
210.80166278062291
 30
0.0
 11
123.07196624904419
 21
214.55166278062291
 31
0.0
  0
LINE
  5
3753
  8
3
 10
113.8119627087526
 20
214.6071014236972
 30
0.0
 11
119.3855488998329
 21
219.62558097138859
 31
0.0
  0
LINE
  5
3754
  8
3
 10
119.4679467812972
 20
197.1997723571007
 30
0.0
 11
126.9268609965593
 21
196.4158088825933
 31
0.0
  0
LINE
  5
3755
  8
3
 10
119.4679467812973
 20
201.90355320414511
 30
0.0
 11
126.9268609965593
 21
202.68751667865251
 31
0.0
  0
LINE
  5
3756
  8
3
 10
113.8119627087524
 20
184.49622413754869
 30
0.0
 11
119.3855488998329
 21
179.47774458985711
 31
0.0
  0
LINE
  5
3757
  8
3
 10
116.576775720661
 20
188.30166278062291
 30
0.0
 11
117.1507937843997
 21
187.97025329700361
 31
0.0
  0
LINE
  5
3758
  8
3
 10
101.76921717891069
 20
177.54334176411211
 30
0.0
 11
103.32855486004389
 21
170.20723475860871
 31
0.0
  0
LINE
  5
3759
  8
3
 10
106.24277860471661
 20
178.99688998366429
 30
0.0
 11
109.2933034277851
 21
172.14529905134481
 31
0.0
  0
LINE
  5
375A
  8
3
 10
87.939629666305621
 20
178.9968899836644
 30
0.0
 11
84.889104843237106
 21
172.14529905134481
 31
0.0
  0
LINE
  5
375B
  8
3
 10
92.41319109211156
 20
177.54334176411231
 30
0.0
 11
90.85385341097836
 21
170.20723475860871
 31
0.0
  0
LINE
  5
375C
  8
3
 10
77.605632550361165
 20
188.30166278062291
 30
0.0
 11
77.031614486624889
 21
187.970253297005
 31
0.0
  0
LINE
  5
375D
  8
3
 10
80.370445562269737
 20
184.49622413754861
 30
0.0
 11
74.796859371189313
 21
179.4777445898572
 31
0.0
  0
LINE
  5
375E
  8
3
 10
74.714461489724982
 20
201.90355320414511
 30
0.0
 11
67.25554727446287
 21
202.68751667865251
 31
0.0
  0
LINE
  5
375F
  8
3
 10
74.714461489724982
 20
197.1997723571007
 30
0.0
 11
67.25554727446287
 21
196.4158088825933
 31
0.0
  0
LINE
  5
3760
  8
3
 10
80.370445562269822
 20
214.6071014236972
 30
0.0
 11
74.796859371189328
 21
219.6255809713887
 31
0.0
  0
LINE
  5
3761
  8
3
 10
77.605632550361165
 20
210.80166278062299
 30
0.0
 11
71.110442021978002
 21
214.55166278062291
 31
0.0
  0
LINE
  5
3762
  8
3
 10
92.413191092111589
 20
221.5599837971335
 30
0.0
 11
90.85385341097836
 21
228.8960908026371
 31
0.0
  0
LINE
  5
3763
  8
3
 10
87.939629666305621
 20
220.10643557758149
 30
0.0
 11
84.889104843237078
 21
226.958026509901
 31
0.0
  0
LINE
  5
3764
  8
3
 10
101.76921717891069
 20
221.55998379713341
 30
0.0
 11
103.32855486004389
 21
228.8960908026371
 31
0.0
  0
POLYLINE
  5
3765
  8
0
 66
     1
 10
0.0
 20
0.0
 30
0.0
 70
     1
 40
1.0
 41
1.0
  0
VERTEX
  5
3766
  8
0
 10
96.591204135511106
 20
199.55166278062291
 30
0.0
 42
1.0
  0
VERTEX
  5
3767
  8
0
 10
97.591204135511106
 20
199.55166278062291
 30
0.0
 42
1.0
  0
SEQEND
  5
3768
  8
0
  0
CIRCLE
  5
3769
  8
0
 10
97.091204135511106
 20
199.55166278062291
 30
0.0
 40
1.0
  0
LINE
  5
376A
  8
0
 10
118.84120413551111
 20
189.05166278062291
 30
0.0
 11
118.84120413551111
 21
186.0726428348492
 31
0.0
  0
LINE
  5
376B
  8
0
 10
118.34120413551111
 20
189.05166278062291
 30
0.0
 11
118.34120413551111
 21
186.07264283484801
 31
0.0
  0
LINE
  5
376C
  8
0
 10
75.341204135511134
 20
189.05166278062291
 30
0.0
 11
75.341204135511134
 21
186.07264283484801
 31
0.0
  0
LINE
  5
376D
  8
0
 10
75.841204135511134
 20
189.05166278062291
 30
0.0
 11
75.841204135511134
 21
186.0726428348492
 31
0.0
  0
CIRCLE
  5
376E
  8
0
 10
75.591204135511134
 20
187.55166278062291
 30
0.0
 40
1.5
  0
CIRCLE
  5
376F
  8
0
 10
118.59120413551111
 20
187.55166278062291
 30
0.0
 40
1.5
  0
TEXT
  5
3770
  8
0
 10
94.019775564082565
 20
178.80166278062291
 30
0.0
 40
4.0
  1
15
 41
0.75
  7
07500
 72
     4
 11
97.091204135511134
 21
180.80166278062291
 31
0.0
  0
TEXT
  5
3771
  8
0
 10
83.213087797884498
 20
212.72073142515291
 30
0.0
 40
4.0
  1
27
 41
0.75
  7
07500
 72
     4
 11
86.070230655027345
 21
214.72073142515291
 31
0.0
  0
TEXT
  5
3772
  8
0
 10
76.330323026405637
 20
203.3457314251531
 30
0.0
 40
4.0
  1
24
 41
0.75
  7
07500
 72
     4
 11
79.258894454977053
 21
205.3457314251531
 31
0.0
  0
TEXT
  5
3773
  8
0
 10
76.830323026405466
 20
191.75759413609259
 30
0.0
 40
4.0
  1
21
 41
0.75
  7
07500
 72
     4
 11
79.258894454976897
 21
193.75759413609259
 31
0.0
  0
TEXT
  5
3774
  8
0
 10
82.998802083598704
 20
182.38259413609271
 30
0.0
 40
4.0
  1
18
 41
0.75
  7
07500
 72
     4
 11
86.070230655027274
 21
184.38259413609259
 31
0.0
  0
TEXT
  5
3775
  8
0
 10
105.0407490445662
 20
182.38259413609291
 30
0.0
 40
4.0
  1
12
 41
0.75
  7
07500
 72
     4
 11
108.1121776159948
 21
184.38259413609291
 31
0.0
  0
TEXT
  5
3776
  8
0
 10
113.11399000652141
 20
191.75759413609259
 30
0.0
 40
4.0
  1
9
 72
     4
 11
114.9235138160452
 21
193.75759413609259
 31
0.0
  0
TEXT
  5
3777
  8
0
 10
112.9235138160454
 20
203.34573142515319
 30
0.0
 40
4.0
  1
6
 72
     4
 11
114.9235138160454
 21
205.34573142515319
 31
0.0
  0
TEXT
  5
3778
  8
0
 10
106.207415711233
 20
212.7207314251531
 30
0.0
 40
4.0
  1
3
 72
     4
 11
108.1121776159949
 21
214.7207314251531
 31
0.0
  0
TEXT
  5
3779
  8
0
 10
95.186442230749236
 20
216.30166278062291
 30
0.0
 40
4.0
  1
0
 72
     4
 11
97.091204135511134
 21
218.30166278062291
 31
0.0
  0
LINE
  5
377A
  8
0
 10
110.3163723120917
 20
217.75454515405909
 30
0.0
 11
114.7247617042853
 21
223.82217261187131
 31
0.0
  0
LINE
  5
377B
  8
0
 10
118.48997575215211
 20
206.5045451540592
 30
0.0
 11
125.6228996243657
 21
208.82217261187131
 31
0.0
  0
LINE
  5
377C
  8
0
 10
118.48997575215201
 20
192.59878040718661
 30
0.0
 11
125.6228996243657
 21
190.28115294937439
 31
0.0
  0
LINE
  5
377D
  8
0
 10
110.3163723120918
 20
181.34878040718661
 30
0.0
 11
114.7247617042852
 21
175.2811529493745
 31
0.0
  0
LINE
  5
377E
  8
0
 10
97.091204135511134
 20
177.05166278062291
 30
0.0
 11
97.091204135511134
 21
169.55166278062291
 31
0.0
  0
LINE
  5
377F
  8
0
 10
83.866035958930439
 20
181.3487804071865
 30
0.0
 11
79.457646566736926
 21
175.2811529493745
 31
0.0
  0
LINE
  5
3780
  8
0
 10
75.692432518870106
 20
192.59878040718661
 30
0.0
 11
68.559508646656468
 21
190.28115294937439
 31
0.0
  0
LINE
  5
3781
  8
0
 10
75.692432518870163
 20
206.5045451540592
 30
0.0
 11
68.559508646656539
 21
208.82217261187131
 31
0.0
  0
LINE
  5
3782
  8
0
 10
83.866035958930425
 20
217.75454515405929
 30
0.0
 11
79.457646566736983
 21
223.82217261187131
 31
0.0
  0
LINE
  5
3783
  8
0
 10
97.091204135511134
 20
222.05166278062291
 30
0.0
 11
97.091204135511134
 21
229.55166278062291
 31
0.0
  0
LINE
  5
3784
  8
3
 10
107.6663568554816
 20
223.30384467933001
 30
0.0
 11
109.2933034277852
 21
226.95802650990089
 31
0.0
  0
ARC
  5
37DD
  8
0
 10
134.18240754670191
 20
211.6033258299602
 30
0.0
 40
9.9999999999990354
 50
326.35419672871723
 51
69.645803271288713
  0
ARC
  5
37DE
  8
0
 10
97.091203411189596
 20
238.55166304933789
 30
0.0
 40
9.9999999999990337
 50
38.354196728716488
 51
141.6458032712859
  0
ARC
  5
37DF
  8
0
 10
59.999999275677617
 20
211.60332582995969
 30
0.0
 40
9.9999999999990319
 50
110.3541967287147
 51
213.6458032712886
  0
ARC
  5
37E0
  8
0
 10
74.167578571782911
 20
168.00000026871251
 30
0.0
 40
9.9999999999990301
 50
182.3541967287143
 51
285.6458032712867
  0
ARC
  5
37E1
  8
0
 10
120.0148282505972
 20
168.0000002687128
 30
0.0
 40
9.9999999999990283
 50
254.35419672871339
 51
357.64580327128562
  0
ENDSEC
  0
EOF
