  0
SECTION
  2
HEADER
  9
$ACADVER
  1
AC1009
  9
$INSBASE
 10
0.0
 20
0.0
 30
0.0
  9
$EXTMIN
 10
0.0
 20
-2.960436562073669
 30
0.0
  9
$EXTMAX
 10
257.18240827077642
 20
253.55166278062489
 30
0.0
  9
$LIMMIN
 10
0.0
 20
0.0
  9
$LIMMAX
 10
375.0
 20
270.0
  9
$ORTHOMODE
 70
     1
  9
$REGENMODE
 70
     1
  9
$FILLMODE
 70
     1
  9
$QTEXTMODE
 70
     0
  9
$MIRRTEXT
 70
     0
  9
$DRAGMODE
 70
     2
  9
$LTSCALE
 40
10.0
  9
$OSMODE
 70
    37
  9
$ATTMODE
 70
     1
  9
$TEXTSIZE
 40
1.0
  9
$TRACEWID
 40
0.05
  9
$TEXTSTYLE
  7
08000
  9
$CLAYER
  8
0
  9
$CELTYPE
  6
BYLAYER
  9
$CECOLOR
 62
   256
  9
$DIMSCALE
 40
1.0
  9
$DIMASZ
 40
3.0
  9
$DIMEXO
 40
2.0
  9
$DIMDLI
 40
0.38
  9
$DIMRND
 40
0.0
  9
$DIMDLE
 40
0.0
  9
$DIMEXE
 40
2.0
  9
$DIMTP
 40
0.0
  9
$DIMTM
 40
0.0
  9
$DIMTXT
 40
3.2000000000000002
  9
$DIMCEN
 40
0.0
  9
$DIMTSZ
 40
0.0
  9
$DIMTOL
 70
     0
  9
$DIMLIM
 70
     0
  9
$DIMTIH
 70
     0
  9
$DIMTOH
 70
     0
  9
$DIMSE1
 70
     0
  9
$DIMSE2
 70
     0
  9
$DIMTAD
 70
     1
  9
$DIMZIN
 70
     0
  9
$DIMBLK
  1

  9
$DIMASO
 70
     0
  9
$DIMSHO
 70
     0
  9
$DIMPOST
  1

  9
$DIMAPOST
  1

  9
$DIMALT
 70
     0
  9
$DIMALTD
 70
     2
  9
$DIMALTF
 40
25.399999999999999
  9
$DIMLFAC
 40
1.0
  9
$DIMTOFL
 70
     0
  9
$DIMTVP
 40
1.6000000000000001
  9
$DIMTIX
 70
     1
  9
$DIMSOXD
 70
     0
  9
$DIMSAH
 70
     0
  9
$DIMBLK1
  1

  9
$DIMBLK2
  1

  9
$DIMSTYLE
  2
STANDARD
  9
$DIMCLRD
 70
     0
  9
$DIMCLRE
 70
     0
  9
$DIMCLRT
 70
     0
  9
$DIMTFAC
 40
1.0
  9
$DIMGAP
 40
0.09
  9
$LUNITS
 70
     2
  9
$LUPREC
 70
     1
  9
$SKETCHINC
 40
0.1
  9
$FILLETRAD
 40
0.0
  9
$AUNITS
 70
     0
  9
$AUPREC
 70
     1
  9
$MENU
  1
E:\r13\win\SUPPORT\ACAD
  9
$ELEVATION
 40
0.0
  9
$PELEVATION
 40
0.0
  9
$THICKNESS
 40
0.0
  9
$LIMCHECK
 70
     0
  9
$BLIPMODE
 70
     0
  9
$CHAMFERA
 40
0.0
  9
$CHAMFERB
 40
0.0
  9
$SKPOLY
 70
     0
  9
$TDCREATE
 40
2449839.7921990752
  9
$TDUPDATE
 40
2457534.4790362041
  9
$TDINDWG
 40
0.2886211574
  9
$TDUSRTIMER
 40
0.2886211574
  9
$USRTIMER
 70
     1
  9
$ANGBASE
 50
0.0
  9
$ANGDIR
 70
     0
  9
$PDMODE
 70
     0
  9
$PDSIZE
 40
0.0
  9
$PLINEWID
 40
0.0
  9
$COORDS
 70
     1
  9
$SPLFRAME
 70
     0
  9
$SPLINETYPE
 70
     6
  9
$SPLINESEGS
 70
     8
  9
$ATTDIA
 70
     0
  9
$ATTREQ
 70
     1
  9
$HANDLING
 70
     1
  9
$HANDSEED
  5
3446
  9
$SURFTAB1
 70
     6
  9
$SURFTAB2
 70
     6
  9
$SURFTYPE
 70
     6
  9
$SURFU
 70
     6
  9
$SURFV
 70
     6
  9
$UCSNAME
  2

  9
$UCSORG
 10
0.0
 20
0.0
 30
0.0
  9
$UCSXDIR
 10
1.0
 20
0.0
 30
0.0
  9
$UCSYDIR
 10
0.0
 20
1.0
 30
0.0
  9
$PUCSNAME
  2

  9
$PUCSORG
 10
0.0
 20
0.0
 30
0.0
  9
$PUCSXDIR
 10
1.0
 20
0.0
 30
0.0
  9
$PUCSYDIR
 10
0.0
 20
1.0
 30
0.0
  9
$USERI1
 70
     0
  9
$USERI2
 70
     1
  9
$USERI3
 70
     0
  9
$USERI4
 70
     0
  9
$USERI5
 70
     0
  9
$USERR1
 40
0.0
  9
$USERR2
 40
0.0
  9
$USERR3
 40
0.0
  9
$USERR4
 40
0.0
  9
$USERR5
 40
0.0
  9
$WORLDVIEW
 70
     1
  9
$SHADEDGE
 70
     3
  9
$SHADEDIF
 70
    70
  9
$TILEMODE
 70
     1
  9
$MAXACTVP
 70
    16
  9
$PLIMCHECK
 70
     0
  9
$PEXTMIN
 10
1.0000000000000000E+020
 20
1.0000000000000000E+020
 30
1.0000000000000000E+020
  9
$PEXTMAX
 10
-1.0000000000000000E+020
 20
-1.0000000000000000E+020
 30
-1.0000000000000000E+020
  9
$PLIMMIN
 10
0.0
 20
0.0
  9
$PLIMMAX
 10
12.0
 20
9.0
  9
$UNITMODE
 70
     0
  9
$VISRETAIN
 70
     0
  9
$PLINEGEN
 70
     0
  9
$PSLTSCALE
 70
     0
  0
ENDSEC
  0
SECTION
  2
TABLES
  0
TABLE
  2
VPORT
 70
     1
  0
VPORT
  2
*ACTIVE
 70
     0
 10
0.0
 20
0.0
 11
1.0
 21
1.0
 12
194.1279410024313
 22
125.28940129487449
 13
0.0
 23
0.0
 14
10.0
 24
10.0
 15
10.0
 25
10.0
 16
0.0
 26
0.0
 36
1.0
 17
0.0
 27
0.0
 37
0.0
 40
258.6186281438695
 41
1.816239316239316
 42
50.0
 43
0.0
 44
0.0
 50
0.0
 51
0.0
 71
     0
 72
   100
 73
     1
 74
     0
 75
     0
 76
     0
 77
     0
 78
     2
  0
ENDTAB
  0
TABLE
  2
LTYPE
 70
     4
  0
LTYPE
  2
CONTINUOUS
 70
     0
  3
Solid Line
 72
    65
 73
     0
 40
0.0
  0
LTYPE
  2
CENTER
 70
     0
  3
____ _ ____ _ ____ _ ____ _ ____ _ ____ _ ____
 72
    65
 73
     4
 40
2.0
 49
1.25
 49
-0.25
 49
0.25
 49
-0.25
  0
LTYPE
  2
HIDDEN
 70
     0
  3
_ _ _ _ _ _ _ _ _ _ _ _ _ _ _ _ _ _ _ _ _ _ _
 72
    65
 73
     2
 40
0.375
 49
0.25
 49
-0.125
  0
LTYPE
  2
PHANTOM2
 70
     0
  3
___ _ _ ___ _ _ ___ _ _ ___ _ _
 72
    65
 73
     6
 40
1.25
 49
0.625
 49
-0.125
 49
0.125
 49
-0.125
 49
0.125
 49
-0.125
  0
ENDTAB
  0
TABLE
  2
LAYER
 70
     5
  0
LAYER
  2
0
 70
     0
 62
     7
  6
CONTINUOUS
  0
LAYER
  2
1
 70
     0
 62
     1
  6
CENTER
  0
LAYER
  2
3
 70
     0
 62
     3
  6
CONTINUOUS
  0
LAYER
  2
2
 70
     0
 62
     2
  6
HIDDEN
  0
LAYER
  2
DEFPOINTS
 70
     0
 62
     7
  6
CONTINUOUS
  0
ENDTAB
  0
TABLE
  2
STYLE
 70
     4
  0
STYLE
  2
STANDARD
 70
     0
 40
0.0
 41
1.0
 50
0.0
 71
     0
 42
4.0
  3
ROMANS
  4

  0
STYLE
  2
06500
 70
     0
 40
0.0
 41
1.0
 50
0.0
 71
     0
 42
1.0
  3
romans.shx
  4

  0
STYLE
  2
08000
 70
     0
 40
0.0
 41
1.0
 50
0.0
 71
     0
 42
1.0
  3
romans.shx
  4

  0
STYLE
  2
STANDARD1
 70
     0
 40
0.0
 41
1.0
 50
0.0
 71
     0
 42
3.0
  3
txt
  4

  0
ENDTAB
  0
TABLE
  2
VIEW
 70
     1
  0
VIEW
  2
ALL
 70
     0
 40
270.33333299999998
 10
220.87176500000001
 20
134.83333300000001
 41
441.74353000000002
 11
0.0
 21
0.0
 31
1.0
 12
0.0
 22
0.0
 32
0.0
 42
0.0
 43
0.0
 44
0.0
 50
0.0
 71
     0
  0
ENDTAB
  0
TABLE
  2
UCS
 70
     0
  0
ENDTAB
  0
TABLE
  2
APPID
 70
     7
  0
APPID
  2
ACAD
 70
     0
  0
APPID
  2
ACAD_EXEMPT_FROM_CAD_STANDARDS
 70
     0
  0
APPID
  2
ACAD_MLEADERVER
 70
     0
  0
APPID
  2
ACAD_NAV_VCDISPLAY
 70
     0
  0
APPID
  2
ACAD_DSTYLE_DIMRADIAL_EXTENSION
 70
     0
  0
APPID
  2
ACAD_DSTYLE_DIMJAG
 70
     0
  0
APPID
  2
ACAD_DSTYLE_DIMTALN
 70
     0
  0
ENDTAB
  0
TABLE
  2
DIMSTYLE
 70
     1
  0
DIMSTYLE
  2
STANDARD
 70
     0
  3

  4

  5

  6

  7

 40
1.0
 41
0.18
 42
0.0625
 43
0.38
 44
0.18
 45
0.0
 46
0.0
 47
0.0
 48
0.0
140
0.18
141
0.09
142
0.0
143
25.399999999999999
144
1.0
145
0.0
146
1.0
147
0.09
 71
     0
 72
     0
 73
     1
 74
     1
 75
     0
 76
     0
 77
     0
 78
     0
170
     0
171
     2
172
     0
173
     0
174
     0
175
     0
176
     0
177
     0
178
     0
  0
ENDTAB
  0
ENDSEC
  0
SECTION
  2
BLOCKS
  0
BLOCK
  8
0
  2
$MODEL_SPACE
 70
     0
 10
0.0
 20
0.0
 30
0.0
  3
$MODEL_SPACE
  1

  0
ENDBLK
  5
1EA
  8
0
  0
BLOCK
 67
     1
  8
0
  2
$PAPER_SPACE
 70
     0
 10
0.0
 20
0.0
 30
0.0
  3
$PAPER_SPACE
  1

  0
ENDBLK
  5
1E8
 67
     1
  8
0
  0
ENDSEC
  0
SECTION
  2
ENTITIES
  0
TEXT
  5
541
  8
0
 62
     3
 10
0.0
 20
0.0
 30
0.0
 40
10.0
  1
DFK100L-1/10
  7
STANDARD1
  0
ARC
  5
256C
  8
0
 10
163.74733403343859
 20
291.29595486070872
 30
0.0
 40
74.999999999993065
 50
218.35419775904251
 51
249.64580268109529
  0
ARC
  5
2570
  8
0
 10
204.9430878689079
 20
164.5084614798208
 30
0.0
 40
75.000000000015206
 50
146.3541967287172
 51
177.64580386147841
  0
ARC
  5
2574
  8
0
 10
97.091204135510907
 20
86.149481222039583
 30
0.0
 40
74.999999999994742
 50
74.354196728716744
 51
105.64580377009131
  0
ARC
  5
2578
  8
0
 10
-10.76067959787269
 20
164.50846147982531
 30
0.0
 40
75.000000000001606
 50
2.354195698383978
 51
33.645803770093643
  0
ARC
  5
257C
  8
0
 10
30.43507423757865
 20
291.2959548607152
 30
0.0
 40
75.000000000000796
 50
290.35419569838848
 51
321.64580286401241
  0
CIRCLE
  5
25CF
  8
0
 10
97.091204135510907
 20
56.000000000000078
 30
0.0
 40
2.4999999999999432
  0
CIRCLE
  5
25D0
  8
3
 10
97.091204135511134
 20
56.000000000000021
 30
0.0
 40
2.0095000000000018
  0
LINE
  5
25D1
  8
0
 10
96.513853866321369
 20
57.000000000000021
 30
0.0
 11
97.668554404700899
 21
57.000000000000021
 31
0.0
  0
LINE
  5
25D2
  8
0
 10
96.513853866321369
 20
57.000000000000021
 30
0.0
 11
95.936503597131832
 21
56.000000000000021
 31
0.0
  0
LINE
  5
25D3
  8
0
 10
95.936503597131832
 20
56.000000000000021
 30
0.0
 11
96.513853866321369
 21
55.000000000000021
 31
0.0
  0
LINE
  5
25D4
  8
0
 10
96.513853866321369
 20
55.000000000000021
 30
0.0
 11
97.668554404700899
 21
55.000000000000021
 31
0.0
  0
LINE
  5
25D5
  8
0
 10
97.668554404700899
 20
55.000000000000021
 30
0.0
 11
98.245904673890436
 21
56.000000000000021
 31
0.0
  0
LINE
  5
25D6
  8
0
 10
98.245904673890436
 20
56.000000000000021
 30
0.0
 11
97.668554404700899
 21
57.000000000000021
 31
0.0
  0
LINE
  5
25DA
  8
0
 10
55.490303271483761
 20
90.397871180432688
 30
0.0
 11
58.841204135510907
 21
89.499999999999858
 31
0.0
  0
LINE
  5
25DB
  8
0
 10
135.34120413551091
 20
89.500000000000156
 30
0.0
 11
138.67615064937971
 21
90.393596225192255
 31
0.0
  0
LINE
  5
25DC
  8
0
 10
138.6921049927227
 20
106.03033205166901
 30
0.0
 11
131.34120413551091
 21
108.0000000000001
 31
0.0
  0
LINE
  5
25DD
  8
0
 10
62.8412041355109
 20
107.9999999999999
 30
0.0
 11
55.506257618228567
 21
106.03460700416851
 31
0.0
  0
LINE
  5
25DE
  8
0
 10
58.841204135511127
 20
71.499999999999858
 30
0.0
 11
59.841204135511141
 21
70.499999999999886
 31
0.0
  0
LINE
  5
25DF
  8
0
 10
134.34120413551111
 20
70.500000000000114
 30
0.0
 11
135.34120413551111
 21
71.500000000000142
 31
0.0
  0
LINE
  5
25E0
  8
0
 10
58.841204135510907
 20
89.499999999999858
 30
0.0
 11
58.841204135511127
 21
71.499999999999858
 31
0.0
  0
LINE
  5
25E1
  8
0
 10
135.34120413551111
 20
71.500000000000142
 30
0.0
 11
135.34120413551091
 21
89.500000000000156
 31
0.0
  0
ARC
  5
25E2
  8
0
 10
82.341204135511134
 20
69.499999999999943
 30
0.0
 40
1.0
 50
0.0000000000008142
 51
90.0
  0
ARC
  5
25E3
  8
0
 10
111.84120413551091
 20
69.500000000000057
 30
0.0
 40
1.0
 50
90.0
 51
180.00000000000159
  0
LINE
  5
25E4
  8
0
 10
83.341204135511134
 20
51.299999999999947
 30
0.0
 11
84.341204135511134
 21
50.299999999999962
 31
0.0
  0
LINE
  5
25E5
  8
0
 10
109.84120413551111
 20
50.30000000000004
 30
0.0
 11
110.84120413551111
 21
51.300000000000047
 31
0.0
  0
LINE
  5
25E6
  8
0
 10
83.341204135511134
 20
69.499999999999972
 30
0.0
 11
83.341204135511134
 21
51.299999999999947
 31
0.0
  0
LINE
  5
25E7
  8
0
 10
110.84120413551111
 20
51.300000000000047
 30
0.0
 11
110.84120413551091
 21
69.500000000000057
 31
0.0
  0
LINE
  5
25E8
  8
0
 10
86.091204135511134
 20
50.299999999999962
 30
0.0
 11
86.091204135511134
 21
49.999999999999957
 31
0.0
  0
LINE
  5
25E9
  8
0
 10
108.09120413551111
 20
50.000000000000028
 30
0.0
 11
108.09120413551111
 21
50.30000000000004
 31
0.0
  0
LINE
  5
25EA
  8
0
 10
144.18240827102201
 20
92.35507778984379
 30
0.0
 11
144.18240827102181
 21
104.04118449302381
 31
0.0
  0
LINE
  5
25EB
  8
0
 10
50.0
 20
104.07312544043219
 30
0.0
 11
50.0
 21
92.387018737251708
 31
0.0
  0
LINE
  5
25EC
  8
0
 10
117.3179319349872
 20
91.544545912696307
 30
0.0
 11
117.3179319349872
 21
104.8836573175796
 31
0.0
  0
ARC
  5
25ED
  8
0
 10
97.091204116950848
 20
194.15438441051251
 30
0.0
 40
104.58441315403
 50
258.84867135628372
 51
281.15132831336672
  0
LINE
  5
25EE
  8
0
 10
76.864475707291604
 20
91.544546029318624
 30
0.0
 11
76.864475707291604
 21
104.8836572009571
 31
0.0
  0
ARC
  5
25EF
  8
0
 10
97.091204116951303
 20
2.2738187713004332
 30
0.0
 40
104.5844132015779
 50
78.848671691771941
 51
101.1513286385842
  0
ARC
  5
25F0
  8
0
 10
53.472443185179372
 20
98.406707344018344
 30
0.0
 40
7.0936091914090191
 50
241.34578696299371
 51
255.3236329855622
  0
POLYLINE
  5
25F1
  8
0
 66
     1
 10
0.0
 20
0.0
 30
0.0
 70
   128
  0
VERTEX
  5
33DE
  8
0
 10
51.675213803192491
 20
91.544546029318354
 30
0.0
  0
VERTEX
  5
33DF
  8
0
 10
54.518852185521609
 20
90.669329651180746
 30
0.0
  0
VERTEX
  5
33E0
  8
0
 10
57.049116491582708
 20
90.010238658579084
 30
0.0
  0
VERTEX
  5
33E1
  8
0
 10
59.27069829992115
 20
89.620320262646118
 30
0.0
  0
VERTEX
  5
33E2
  8
0
 10
61.112590602257796
 20
89.558414307962636
 30
0.0
  0
VERTEX
  5
33E3
  8
0
 10
62.296292136770042
 20
89.757997332050167
 30
0.0
  0
VERTEX
  5
33E4
  8
0
 10
63.204694593347767
 20
90.16916468612169
 30
0.0
  0
VERTEX
  5
33E5
  8
0
 10
63.836453177619212
 20
90.776108006714907
 30
0.0
  0
VERTEX
  5
33E6
  8
0
 10
64.176019481625644
 20
91.544546153590474
 30
0.0
  0
SEQEND
  5
33E7
  8
0
  0
ARC
  5
25F2
  8
0
 10
65.342343483974901
 20
90.80286315236927
 30
0.0
 40
1.382174139809047
 50
86.111241453364983
 51
147.54710475478171
  0
ARC
  5
25F4
  8
0
 10
67.443428454108471
 20
40.203303448832933
 30
0.0
 40
52.198460906955717
 50
79.601980081231261
 51
84.738818995070815
  0
ARC
  5
25F5
  8
0
 10
126.7125115391591
 20
40.395787062314717
 30
0.0
 40
52.004361911993662
 50
95.251588290498361
 51
100.4076133651898
  0
ARC
  5
25F7
  8
0
 10
128.7502073252619
 20
90.625200547924379
 30
0.0
 40
1.556659270277301
 50
36.198801112222803
 51
90.142846094433907
  0
POLYLINE
  5
25F8
  8
0
 66
     1
 10
0.0
 20
0.0
 30
0.0
 70
   128
  0
VERTEX
  5
33E8
  8
0
 10
130.0063888130623
 20
91.544546050685881
 30
0.0
  0
VERTEX
  5
33E9
  8
0
 10
130.42585600826229
 20
90.669328639249514
 30
0.0
  0
VERTEX
  5
33EA
  8
0
 10
131.24869763398229
 20
90.010237256475676
 30
0.0
  0
VERTEX
  5
33EB
  8
0
 10
132.50794836772411
 20
89.620319338933029
 30
0.0
  0
VERTEX
  5
33EC
  8
0
 10
134.2003259433022
 20
89.558414904692825
 30
0.0
  0
VERTEX
  5
33ED
  8
0
 10
135.8692813334664
 20
89.757998877018807
 30
0.0
  0
VERTEX
  5
33EE
  8
0
 10
137.80670448003929
 20
90.169166365502207
 30
0.0
  0
VERTEX
  5
33EF
  8
0
 10
140.0296295443834
 20
90.776109038914115
 30
0.0
  0
VERTEX
  5
33F0
  8
0
 10
142.5071941060657
 20
91.544545912696236
 30
0.0
  0
SEQEND
  5
33F1
  8
0
  0
ARC
  5
25F9
  8
0
 10
140.1885412281876
 20
99.719301522706331
 30
0.0
 40
8.4972219255167847
 50
285.83523185868489
 51
297.49534652170689
  0
LINE
  5
25FA
  8
0
 10
58.841204135510907
 20
89.499999999999858
 30
0.0
 11
135.34120413551091
 21
89.500000000000156
 31
0.0
  0
LINE
  5
25FB
  8
0
 10
62.8412041355109
 20
107.9999999999999
 30
0.0
 11
131.34120413551091
 21
108.0000000000001
 31
0.0
  0
ARC
  5
25FC
  8
0
 10
140.70996411331541
 20
98.021493673624008
 30
0.0
 40
7.0936115994087299
 50
61.345788639683192
 51
75.323632979926344
  0
POLYLINE
  5
25FD
  8
0
 66
     1
 10
0.0
 20
0.0
 30
0.0
 70
   128
  0
VERTEX
  5
33F2
  8
0
 10
142.5071941060655
 20
104.88365731757951
 30
0.0
  0
VERTEX
  5
33F3
  8
0
 10
139.66355578087831
 20
105.75887366701591
 30
0.0
  0
VERTEX
  5
33F4
  8
0
 10
137.1332915300743
 20
106.41796462776659
 30
0.0
  0
VERTEX
  5
33F5
  8
0
 10
134.9117097756066
 20
106.8078829898695
 30
0.0
  0
VERTEX
  5
33F6
  8
0
 10
133.06981752414501
 20
106.8697889125622
 30
0.0
  0
VERTEX
  5
33F7
  8
0
 10
131.88611607900339
 20
106.6702058819573
 30
0.0
  0
VERTEX
  5
33F8
  8
0
 10
130.97771368118171
 20
106.25903854648161
 30
0.0
  0
VERTEX
  5
33F9
  8
0
 10
130.3459551242488
 20
105.6520952675406
 30
0.0
  0
VERTEX
  5
33FA
  8
0
 10
130.0063888130623
 20
104.8836571795901
 30
0.0
  0
SEQEND
  5
33FB
  8
0
  0
ARC
  5
25FE
  8
0
 10
128.83966773709921
 20
105.62612503318771
 30
0.0
 40
1.3829304330740191
 50
266.12985921402708
 51
327.52849357951033
  0
ARC
  5
2600
  8
0
 10
126.73897969795441
 20
156.22489881573759
 30
0.0
 40
52.198459934410842
 50
259.60197931643472
 51
264.7388190278952
  0
ARC
  5
2601
  8
0
 10
67.417065418538641
 20
156.41661795757531
 30
0.0
 40
52.391789485635869
 50
275.27066493204939
 51
280.38853599167339
  0
ARC
  5
2603
  8
0
 10
65.432201117108207
 20
105.8030031229321
 30
0.0
 40
1.5566597104294011
 50
216.1988140446328
 51
270.14283974722798
  0
POLYLINE
  5
2604
  8
0
 66
     1
 10
0.0
 20
0.0
 30
0.0
 70
   128
  0
VERTEX
  5
33FC
  8
0
 10
64.176019481625417
 20
104.883657076685
 30
0.0
  0
VERTEX
  5
33FD
  8
0
 10
63.756552324603028
 20
105.7588745134467
 30
0.0
  0
VERTEX
  5
33FE
  8
0
 10
62.93371073271441
 20
106.4179659243251
 30
0.0
  0
VERTEX
  5
33FF
  8
0
 10
61.674460028258402
 20
106.8078838717186
 30
0.0
  0
VERTEX
  5
3400
  8
0
 10
59.982082476046337
 20
106.86978833418679
 30
0.0
  0
VERTEX
  5
3401
  8
0
 10
58.313127007837011
 20
106.670204365269
 30
0.0
  0
VERTEX
  5
3402
  8
0
 10
56.375703751134552
 20
106.2590368549522
 30
0.0
  0
VERTEX
  5
3403
  8
0
 10
54.152778541054893
 20
105.6520941366791
 30
0.0
  0
VERTEX
  5
3404
  8
0
 10
51.675213803192491
 20
104.8836572009568
 30
0.0
  0
SEQEND
  5
3405
  8
0
  0
ARC
  5
2605
  8
0
 10
53.983049715415291
 20
96.736132278259944
 30
0.0
 40
8.4680735095836575
 50
105.81509611708189
 51
117.51548393431121
  0
ARC
  5
2606
  8
0
 10
74.81049251684135
 20
111.2275747161966
 30
0.0
 40
19.219764142587881
 50
250.16735322657601
 51
262.28347240948767
  0
ARC
  5
2607
  8
0
 10
44.278742885155673
 20
159.3854445966476
 30
0.0
 40
70.455343669820635
 50
287.47528109070061
 51
289.92545127083861
  0
LINE
  5
2608
  8
0
 10
64.176019481625644
 20
91.544546153590474
 30
0.0
 11
64.176019481625417
 21
104.883657076685
 31
0.0
  0
ARC
  5
2609
  8
0
 10
41.247873275771319
 20
28.088628536056941
 30
0.0
 40
79.906618678375992
 50
70.219468890699403
 51
72.379798747761711
  0
ARC
  5
260A
  8
0
 10
74.597100282813017
 20
86.071072527896973
 30
0.0
 40
18.328793861705531
 50
97.420858195830064
 51
110.1283161680437
  0
LINE
  5
260B
  8
0
 10
130.0063888130623
 20
91.544546050685881
 30
0.0
 11
130.0063888130623
 21
104.8836571795901
 31
0.0
  0
ARC
  5
260C
  8
0
 10
151.8303811036125
 20
165.0775611906098
 30
0.0
 40
76.463439413415657
 50
250.17082247334059
 51
252.42844516511749
  0
ARC
  5
260D
  8
0
 10
119.5853080014294
 20
110.3571306484514
 30
0.0
 40
18.32879380652226
 50
277.42085817662291
 51
290.12831618725357
  0
ARC
  5
260E
  8
0
 10
119.3719157679634
 20
85.200628570303053
 30
0.0
 40
19.219764085022589
 50
70.167353208357682
 51
82.283472427695756
  0
ARC
  5
260F
  8
0
 10
149.90366399487669
 20
37.042762742968677
 30
0.0
 40
70.455339332433013
 50
107.4752810152474
 51
109.92545134624881
  0
LINE
  5
2610
  8
0
 10
58.841204135511127
 20
71.499999999999858
 30
0.0
 11
135.34120413551111
 21
71.500000000000142
 31
0.0
  0
LINE
  5
2611
  8
0
 10
59.841204135511141
 20
70.499999999999886
 30
0.0
 11
134.34120413551111
 21
70.500000000000114
 31
0.0
  0
LINE
  5
2614
  8
0
 10
83.341204135511134
 20
51.299999999999947
 30
0.0
 11
110.84120413551111
 21
51.300000000000047
 31
0.0
  0
LINE
  5
2615
  8
0
 10
84.341204135511134
 20
50.299999999999962
 30
0.0
 11
109.84120413551111
 21
50.30000000000004
 31
0.0
  0
LINE
  5
2616
  8
0
 10
86.091204135511134
 20
49.999999999999957
 30
0.0
 11
108.09120413551111
 21
50.000000000000028
 31
0.0
  0
LINE
  5
2617
  8
0
 10
144.18240827102201
 20
92.35507778984379
 30
0.0
 11
144.1115095013478
 21
92.181854980324587
 31
0.0
  0
LINE
  5
2618
  8
0
 10
144.1115095013476
 20
104.2463482499512
 30
0.0
 11
144.18240827102181
 21
104.04118449302381
 31
0.0
  0
LINE
  5
2619
  8
0
 10
50.070898769674159
 20
92.18185498032426
 30
0.0
 11
50.0
 21
92.387018737251708
 31
0.0
  0
LINE
  5
261A
  8
0
 10
50.0
 20
104.07312544043219
 30
0.0
 11
50.070898769676198
 21
104.2463482499524
 31
0.0
  0
LINE
  5
261C
  8
0
 10
212.62399347670279
 20
161.12717119043381
 30
0.0
 11
212.68240827077639
 21
161.301662780622
 31
0.0
  0
LINE
  5
261D
  8
0
 10
212.68240827077639
 20
237.80166278062211
 30
0.0
 11
210.0005532904519
 21
247.81048182572459
 31
0.0
  0
LINE
  5
261E
  8
0
 10
197.93606002082521
 20
247.81048182572439
 30
0.0
 11
194.18240827077631
 21
233.801662780622
 31
0.0
  0
LINE
  5
261F
  8
0
 10
194.18240827077631
 20
165.301662780622
 30
0.0
 11
195.30935266353899
 21
161.09584904952729
 31
0.0
  0
LINE
  5
2620
  8
0
 10
230.68240827077631
 20
161.30166278062211
 30
0.0
 11
231.68240827077639
 21
162.301662780622
 31
0.0
  0
LINE
  5
2621
  8
0
 10
231.68240827077639
 20
236.80166278062211
 30
0.0
 11
230.68240827077631
 21
237.80166278062211
 31
0.0
  0
LINE
  5
2622
  8
0
 10
212.68240827077639
 20
161.30166278062211
 30
0.0
 11
230.68240827077631
 21
161.30166278062211
 31
0.0
  0
LINE
  5
2623
  8
0
 10
230.68240827077631
 20
237.80166278062211
 30
0.0
 11
212.68240827077639
 21
237.80166278062211
 31
0.0
  0
LINE
  5
2624
  8
0
 10
197.79646500126421
 20
157.9999999999992
 30
0.0
 11
210.1784196320115
 21
157.9999999999992
 31
0.0
  0
ARC
  5
2625
  8
0
 10
232.68240827077631
 20
184.80166278062211
 30
0.0
 40
1.0
 50
90.0
 51
180.0
  0
ARC
  5
2626
  8
0
 10
232.68240827077631
 20
214.30166278062211
 30
0.0
 40
1.0
 50
180.0
 51
270.0
  0
LINE
  5
2627
  8
0
 10
250.88240827077641
 20
185.80166278062211
 30
0.0
 11
251.88240827077641
 21
186.80166278062211
 31
0.0
  0
LINE
  5
2628
  8
0
 10
251.88240827077641
 20
212.30166278062211
 30
0.0
 11
250.88240827077641
 21
213.30166278062211
 31
0.0
  0
LINE
  5
2629
  8
0
 10
232.68240827077631
 20
213.301662780622
 30
0.0
 11
250.88240827077641
 21
213.301662780622
 31
0.0
  0
LINE
  5
262A
  8
0
 10
243.68240827077639
 20
185.801662780622
 30
0.0
 11
232.68240827077631
 21
185.801662780622
 31
0.0
  0
LINE
  5
262B
  8
0
 10
250.88240827077641
 20
185.801662780622
 30
0.0
 11
248.68240827077639
 21
185.801662780622
 31
0.0
  0
LINE
  5
262C
  8
0
 10
251.88240827077641
 20
188.55166278062211
 30
0.0
 11
252.18240827077639
 21
188.55166278062211
 31
0.0
  0
LINE
  5
262D
  8
0
 10
252.18240827077639
 20
210.55166278062211
 30
0.0
 11
251.88240827077641
 21
210.55166278062211
 31
0.0
  0
LINE
  5
262E
  8
0
 10
209.03462746416281
 20
248.55166278062211
 30
0.0
 11
198.9019858471143
 21
248.55166278062211
 31
0.0
  0
ARC
  5
262F
  8
0
 10
209.03462746416281
 20
247.55166278062211
 30
0.0
 40
1.0000000000000551
 50
14.999999999993699
 51
90.02422397920067
  0
ARC
  5
2630
  8
0
 10
198.9019858471143
 20
247.55166278062211
 30
0.0
 40
0.9999999999999314
 50
90.0
 51
165.0000000000073
  0
LINE
  5
2631
  8
0
 10
248.26175152547501
 20
185.87150603532069
 30
0.0
 11
248.19190827077651
 21
185.801662780622
 31
0.0
  0
LINE
  5
2632
  8
0
 10
244.17290827077619
 20
185.801662780622
 30
0.0
 11
244.10276626156619
 21
185.8718047898322
 31
0.0
  0
POLYLINE
  5
2633
  8
0
 66
     1
 10
0.0
 20
0.0
 30
0.0
 70
   128
  0
VERTEX
  5
3406
  8
0
 10
212.62399347670279
 20
161.12717119043381
 30
0.0
  0
VERTEX
  5
3407
  8
0
 10
212.42440968420661
 20
160.87205648165369
 30
0.0
  0
VERTEX
  5
3408
  8
0
 10
212.01324223002081
 20
160.3310669222866
 30
0.0
  0
VERTEX
  5
3409
  8
0
 10
211.40629945066041
 20
159.49454012374511
 30
0.0
  0
VERTEX
  5
340A
  8
0
 10
210.6378623580801
 20
158.37052720259129
 30
0.0
  0
SEQEND
  5
340B
  8
0
  0
POLYLINE
  5
2634
  8
0
 66
     1
 10
0.0
 20
0.0
 30
0.0
 70
   128
  0
VERTEX
  5
340C
  8
0
 10
210.00055329045341
 20
158.189542732858
 30
0.0
  0
VERTEX
  5
340D
  8
0
 10
210.1784196320115
 20
157.99999999999909
 30
0.0
  0
VERTEX
  5
340E
  8
0
 10
210.4156804738594
 20
158.09374714565161
 30
0.0
  0
VERTEX
  5
340F
  8
0
 10
210.6378623580801
 20
158.37052720259129
 30
0.0
  0
SEQEND
  5
3410
  8
0
  0
ARC
  5
2636
  8
0
 10
272.08249919994921
 20
156.5391434438265
 30
0.0
 40
62.4303437942946
 50
169.8050118037269
 51
173.9440860312325
  0
ARC
  5
2637
  8
0
 10
118.5298265777604
 20
186.82599198375101
 30
0.0
 40
94.095394371227613
 50
348.20334332129721
 51
11.796656267708221
  0
ARC
  5
2638
  8
0
 10
246.4731369032389
 20
213.53322664719889
 30
0.0
 40
36.60566723218578
 50
184.88716985078139
 51
191.7756304627699
  0
ARC
  5
263A
  8
0
 10
218.4651338763089
 20
217.67610334371429
 30
0.0
 40
8.4955774615509174
 50
157.1220110873322
 51
175.10410298001889
  0
POLYLINE
  5
263B
  8
0
 66
     1
 10
0.0
 20
0.0
 30
0.0
 70
   128
  0
VERTEX
  5
3411
  8
0
 10
210.63786249606949
 20
220.97892927695679
 30
0.0
  0
VERTEX
  5
3412
  8
0
 10
211.5155994093281
 20
223.05935872033081
 30
0.0
  0
VERTEX
  5
3413
  8
0
 10
212.17217068354981
 20
225.51404963652959
 30
0.0
  0
VERTEX
  5
3414
  8
0
 10
212.56143809161981
 20
228.42990899464871
 30
0.0
  0
VERTEX
  5
3415
  8
0
 10
212.62399353939881
 20
231.71290980519359
 30
0.0
  0
VERTEX
  5
3416
  8
0
 10
212.42289613703369
 20
234.64138159000419
 30
0.0
  0
VERTEX
  5
3417
  8
0
 10
212.01324248654041
 20
237.7765466140676
 30
0.0
  0
VERTEX
  5
3418
  8
0
 10
211.4045376551409
 20
241.17707942699411
 30
0.0
  0
VERTEX
  5
3419
  8
0
 10
210.63786259897449
 20
244.756872555938
 30
0.0
  0
SEQEND
  5
341A
  8
0
  0
ARC
  5
263C
  8
0
 10
479.22783708534507
 20
305.89315283523752
 30
0.0
 40
275.46001372427611
 50
192.21152225642351
 51
192.823150214191
  0
LINE
  5
263D
  8
0
 10
212.68240827077599
 20
161.30166278062211
 30
0.0
 11
212.68240827077639
 21
237.80166278062211
 31
0.0
  0
LINE
  5
263F
  8
0
 10
210.6378623580801
 20
206.0627533163721
 30
0.0
 11
197.29875095319659
 21
206.0627533163721
 31
0.0
  0
LINE
  5
2640
  8
0
 10
210.6378622200906
 20
167.58922999041911
 30
0.0
 11
197.29875109118629
 21
167.58922999041911
 31
0.0
  0
ARC
  5
2641
  8
0
 10
290.34919067937301
 20
186.8259919871314
 30
0.0
 40
95.018089433922825
 50
168.31951997578761
 51
191.68048043521
  0
LINE
  5
2642
  8
0
 10
194.1824082707758
 20
165.3016627806237
 30
0.0
 11
194.18240827077631
 21
233.801662780622
 31
0.0
  0
POLYLINE
  5
2644
  8
0
 66
     1
 10
0.0
 20
0.0
 30
0.0
 70
   128
  0
VERTEX
  5
341B
  8
0
 10
197.29875071230239
 20
244.756872555938
 30
0.0
  0
VERTEX
  5
341C
  8
0
 10
196.42101490366991
 20
240.60880606013541
 30
0.0
  0
VERTEX
  5
341D
  8
0
 10
195.76444404852111
 20
236.70721514722331
 30
0.0
  0
VERTEX
  5
341E
  8
0
 10
195.37517615220929
 20
232.97163634028209
 30
0.0
  0
VERTEX
  5
341F
  8
0
 10
195.31261915743639
 20
229.5625671329189
 30
0.0
  0
VERTEX
  5
3420
  8
0
 10
195.5137155776161
 20
227.04918157754199
 30
0.0
  0
VERTEX
  5
3421
  8
0
 10
195.9233690518432
 20
224.78704300666541
 30
0.0
  0
VERTEX
  5
3422
  8
0
 10
196.53207451356349
 20
222.74425918217631
 30
0.0
  0
VERTEX
  5
3423
  8
0
 10
197.29875081520689
 20
220.97892927695679
 30
0.0
  0
SEQEND
  5
3424
  8
0
  0
ARC
  5
2645
  8
0
 10
190.21498257681299
 20
217.85992196697561
 30
0.0
 40
7.740024486718136
 50
4.009828638577007
 51
23.764057294130168
  0
ARC
  5
2647
  8
0
 10
160.47341855187361
 20
213.67821464768261
 30
0.0
 40
37.604525761623648
 50
348.31596182483082
 51
355.0212378616211
  0
ARC
  5
2648
  8
0
 10
135.3026729606141
 20
156.46041181563669
 30
0.0
 40
62.987016896653827
 50
6.074212188814025
 51
10.176689976245131
  0
POLYLINE
  5
264A
  8
0
 66
     1
 10
0.0
 20
0.0
 30
0.0
 70
   128
  0
VERTEX
  5
3425
  8
0
 10
197.29875095319619
 20
158.37052720259231
 30
0.0
  0
VERTEX
  5
3426
  8
0
 10
197.56905109889439
 20
158.04024705699999
 30
0.0
  0
VERTEX
  5
3427
  8
0
 10
197.79646500126421
 20
157.9999999999992
 30
0.0
  0
VERTEX
  5
3428
  8
0
 10
197.9360600208251
 20
158.18954273286181
 30
0.0
  0
SEQEND
  5
3429
  8
0
  0
ARC
  5
264B
  8
0
 10
171.82724498550951
 20
141.8658974482901
 30
0.0
 40
30.351283656354529
 50
32.941801982276942
 51
39.314709248945022
  0
ARC
  5
264C
  8
0
 10
-72.16854138267388
 20
306.08792798570209
 30
0.0
 40
276.35867974269968
 50
347.17784424427259
 51
347.7874832851171
  0
ARC
  5
264D
  8
0
 10
184.21082907823649
 20
206.8412103599417
 30
0.0
 40
26.036116229275009
 50
7.8887090002991629
 51
17.55324924865975
  0
ARC
  5
264E
  8
0
 10
173.36555046676051
 20
225.9656999543032
 30
0.0
 40
37.407828685899517
 50
342.4623303317403
 51
348.33330772884068
  0
LINE
  5
264F
  8
0
 10
210.63786249606949
 20
220.97892927695679
 30
0.0
 11
197.29875081520689
 21
220.97892927695679
 31
0.0
  0
ARC
  5
2650
  8
0
 10
225.5703430125026
 20
206.42481133203029
 30
0.0
 40
27.92082398234426
 50
162.77363655428621
 51
171.78440519678821
  0
ARC
  5
2651
  8
0
 10
232.9881182261924
 20
225.55330942166091
 30
0.0
 40
35.774292150490858
 50
191.53252551599931
 51
197.67183642336909
  0
LINE
  5
2652
  8
0
 10
210.63786259897449
 20
244.756872555938
 30
0.0
 11
197.29875071230239
 21
244.756872555938
 31
0.0
  0
LINE
  5
2654
  8
0
 10
230.68240827077631
 20
161.301662780622
 30
0.0
 11
230.68240827077591
 21
237.80166278062239
 31
0.0
  0
LINE
  5
2656
  8
0
 10
231.68240827077639
 20
162.301662780622
 30
0.0
 11
231.68240827077591
 21
236.80166278062251
 31
0.0
  0
ARC
  5
2657
  8
0
 10
199.88143330894451
 20
164.412190877124
 30
0.0
 40
10.200598815974621
 50
333.80790782194669
 51
352.75335965498709
  0
ARC
  5
2658
  8
0
 10
241.53342818023191
 20
177.0262907464444
 30
0.0
 40
36.730712959889239
 50
207.77486866519101
 51
210.85276715770439
  0
ARC
  5
2659
  8
0
 10
181.01942430794779
 20
168.81940419195249
 30
0.0
 40
19.97915209616416
 50
327.8560872110736
 51
333.516276966014
  0
ARC
  5
265A
  8
0
 10
208.1101032927464
 20
164.42868889127661
 30
0.0
 40
10.257168813247549
 50
187.29936124287909
 51
206.13937128009181
  0
LINE
  5
265C
  8
0
 10
250.88240827077641
 20
185.80166278062211
 30
0.0
 11
250.8824082707759
 21
213.30166278062259
 31
0.0
  0
LINE
  5
265E
  8
0
 10
251.88240827077641
 20
186.80166278062211
 30
0.0
 11
251.88240827077581
 21
212.30166278062271
 31
0.0
  0
POLYLINE
  5
265F
  8
0
 66
     1
 10
0.0
 20
0.0
 30
0.0
 70
   128
  0
VERTEX
  5
342A
  8
0
 10
248.68240827077639
 20
185.801662780622
 30
0.0
  0
VERTEX
  5
342B
  8
0
 10
248.6800432558386
 20
185.80209258666301
 30
0.0
  0
VERTEX
  5
342C
  8
0
 10
248.62580996187771
 20
185.8118406629934
 30
0.0
  0
VERTEX
  5
342D
  8
0
 10
248.50709084901621
 20
185.83245547518439
 30
0.0
  0
VERTEX
  5
342E
  8
0
 10
248.32061209119331
 20
185.86282003999389
 30
0.0
  0
VERTEX
  5
342F
  8
0
 10
248.0790417704589
 20
185.89846833272381
 30
0.0
  0
VERTEX
  5
3430
  8
0
 10
247.7771992642262
 20
185.9371169449069
 30
0.0
  0
VERTEX
  5
3431
  8
0
 10
247.4353275447219
 20
185.97291811452621
 30
0.0
  0
VERTEX
  5
3432
  8
0
 10
247.0467199592087
 20
186.00324830900351
 30
0.0
  0
VERTEX
  5
3433
  8
0
 10
246.646183411919
 20
186.0228939016167
 30
0.0
  0
VERTEX
  5
3434
  8
0
 10
246.2199707738354
 20
186.0307933210926
 30
0.0
  0
VERTEX
  5
3435
  8
0
 10
245.8109648413612
 20
186.02574431933979
 30
0.0
  0
VERTEX
  5
3436
  8
0
 10
245.4008712454125
 20
186.00827693652769
 30
0.0
  0
VERTEX
  5
3437
  8
0
 10
245.0244952807185
 20
185.98135465985541
 30
0.0
  0
VERTEX
  5
3438
  8
0
 10
244.6702434005314
 20
185.94654820577171
 30
0.0
  0
VERTEX
  5
3439
  8
0
 10
244.36274645945571
 20
185.90894790756329
 30
0.0
  0
VERTEX
  5
343A
  8
0
 10
244.09843223668651
 20
185.87118559191759
 30
0.0
  0
VERTEX
  5
343B
  8
0
 10
243.8978253360464
 20
185.8391933026009
 30
0.0
  0
VERTEX
  5
343C
  8
0
 10
243.7576324985433
 20
185.8151407482585
 30
0.0
  0
VERTEX
  5
343D
  8
0
 10
243.7015903003695
 20
185.80513748139481
 30
0.0
  0
VERTEX
  5
343E
  8
0
 10
243.68240827077639
 20
185.801662780622
 30
0.0
  0
SEQEND
  5
343F
  8
0
  0
LINE
  5
2661
  8
0
 10
252.18240827077639
 20
188.55166278062211
 30
0.0
 11
252.18240827077639
 21
210.55166278062211
 31
0.0
  0
ARC
  5
2662
  8
0
 10
208.9626327672803
 20
247.50954792902851
 30
0.0
 40
1.0445987747892449
 50
6.4822519905798801
 51
86.047989849726278
  0
POLYLINE
  5
2663
  8
0
 66
     1
 10
0.0
 20
0.0
 30
0.0
 70
   128
  0
VERTEX
  5
3440
  8
0
 10
197.93606002082521
 20
247.62747836559581
 30
0.0
  0
VERTEX
  5
3441
  8
0
 10
198.2782961433555
 20
248.27796438930321
 30
0.0
  0
VERTEX
  5
3442
  8
0
 10
198.57177855924769
 20
248.48122910866431
 30
0.0
  0
VERTEX
  5
3443
  8
0
 10
198.89589891290061
 20
248.5516395049284
 30
0.0
  0
VERTEX
  5
3444
  8
0
 10
198.9019858471143
 20
248.55166278062401
 30
0.0
  0
SEQEND
  5
3445
  8
0
  0
LINE
  5
2664
  8
0
 10
248.19190827077651
 20
185.801662780622
 30
0.0
 11
244.17290827077619
 21
185.801662780622
 31
0.0
  0
LINE
  5
26DD
  8
0
 10
55.033013587024527
 20
105.8924316204134
 30
0.0
 11
55.506257618228567
 21
106.03460700416851
 31
0.0
  0
LINE
  5
26DE
  8
0
 10
138.6921049927227
 20
106.03033205166901
 30
0.0
 11
139.15148444529589
 21
105.8922595726322
 31
0.0
  0
LINE
  5
26E1
  8
0
 10
55.030923718818258
 20
90.535943690530303
 30
0.0
 11
55.490303271483761
 21
90.397871180432688
 31
0.0
  0
LINE
  5
26E2
  8
0
 10
139.1493946431124
 20
90.535771596695582
 30
0.0
 11
138.67615064937971
 21
90.393596225192255
 31
0.0
  0
LINE
  5
2726
  8
1
 10
97.091204135511134
 20
44.999999999999993
 30
0.0
 11
97.091204135511134
 21
113.0
 31
0.0
  0
LINE
  5
2727
  8
1
 10
257.18240827077642
 20
199.551662780622
 30
0.0
 11
189.18240827077611
 21
199.551662780622
 31
0.0
  0
LINE
  5
2734
  8
1
 10
97.091204135511134
 20
145.55166278062089
 30
0.0
 11
97.091204135511134
 21
253.55166278062489
 31
0.0
  0
LINE
  5
2735
  8
1
 10
151.09120413551301
 20
199.55166278062291
 30
0.0
 11
43.091204135509201
 21
199.55166278062291
 31
0.0
  0
LINE
  5
28C5
  8
2
 10
244.17290827077639
 20
193.551662780622
 30
0.0
 11
243.68240827077639
 21
193.061162780622
 31
0.0
  0
LINE
  5
28C6
  8
2
 10
248.68240827077639
 20
193.061162780622
 30
0.0
 11
248.19190827077639
 21
193.551662780622
 31
0.0
  0
LINE
  5
28C7
  8
2
 10
244.17290827077639
 20
193.551662780622
 30
0.0
 11
248.19190827077639
 21
193.551662780622
 31
0.0
  0
LINE
  5
28C8
  8
2
 10
248.26175152547501
 20
185.87150603532061
 30
0.0
 11
248.68240827077639
 21
186.29216278062199
 31
0.0
  0
LINE
  5
28C9
  8
2
 10
243.68240827077639
 20
186.29216278062199
 30
0.0
 11
244.1027662615661
 21
185.8718047898322
 31
0.0
  0
LINE
  5
28CA
  8
2
 10
243.68240827077639
 20
186.29216278062199
 30
0.0
 11
248.68240827077639
 21
186.29216278062199
 31
0.0
  0
LINE
  5
28CB
  8
2
 10
243.68240827077639
 20
193.061162780622
 30
0.0
 11
248.68240827077639
 21
193.061162780622
 31
0.0
  0
LINE
  5
28CC
  8
2
 10
244.17290827077639
 20
185.801662780622
 30
0.0
 11
244.17290827077639
 21
193.551662780622
 31
0.0
  0
LINE
  5
28CD
  8
2
 10
248.19190827077639
 20
185.801662780622
 30
0.0
 11
248.19190827077639
 21
193.551662780622
 31
0.0
  0
LINE
  5
28CE
  8
2
 10
243.68240827077639
 20
193.061162780622
 30
0.0
 11
243.68240827077639
 21
186.29216278062199
 31
0.0
  0
LINE
  5
28CF
  8
2
 10
248.68240827077639
 20
193.061162780622
 30
0.0
 11
248.68240827077639
 21
186.29216278062199
 31
0.0
  0
LINE
  5
2913
  8
1
 10
246.18240827077639
 20
195.551662780622
 30
0.0
 11
246.18240827077639
 21
183.801662780622
 31
0.0
  0
LINE
  5
291A
  8
1
 10
101.59120413551079
 20
56.000000000000078
 30
0.0
 11
92.591204135510964
 21
56.000000000000078
 31
0.0
  0
LINE
  5
295F
  8
2
 10
252.18240827077639
 20
205.55166278062211
 30
0.0
 11
230.18240827077639
 21
205.55166278062211
 31
0.0
  0
LINE
  5
2960
  8
2
 10
252.18240827077639
 20
193.551662780622
 30
0.0
 11
230.18240827077639
 21
193.551662780622
 31
0.0
  0
LINE
  5
2961
  8
2
 10
230.18240827077639
 20
193.551662780622
 30
0.0
 11
230.18240827077639
 21
205.55166278062211
 31
0.0
  0
LINE
  5
2963
  8
2
 10
103.09120413551121
 20
50.000000000000021
 30
0.0
 11
103.09120413551121
 21
72.000000000000014
 31
0.0
  0
LINE
  5
2964
  8
2
 10
91.091204135511191
 20
49.999999999999993
 30
0.0
 11
91.091204135511191
 21
71.999999999999972
 31
0.0
  0
LINE
  5
2965
  8
2
 10
91.091204135511191
 20
71.999999999999972
 30
0.0
 11
103.09120413551121
 21
72.000000000000014
 31
0.0
  0
SOLID
  5
29DA
  8
0
 10
92.6912041355111
 20
202.35166278062289
 30
0.0
 11
92.691204135511043
 21
199.62707024898691
 31
0.0
 12
77.043557341272844
 22
209.76644902476269
 32
0.0
 13
77.043557341272844
 23
209.76644902476269
 33
0.0
  0
SOLID
  5
29DB
  8
0
 10
100.98751043901279
 20
197.51579625594539
 30
0.0
 11
99.740459442669135
 21
195.0592863140414
 31
0.0
 12
96.576436673309161
 22
197.10951314594641
 32
0.0
 13
96.576436673309161
 23
197.10951314594641
 33
0.0
  0
SOLID
  5
29DC
  8
0
 10
97.437300410396105
 20
201.9145223342519
 30
0.0
 11
92.6912041355111
 21
202.35166278062289
 31
0.0
 12
77.043557341272503
 22
209.76644902476289
 32
0.0
 13
77.043557341272503
 23
209.76644902476289
 33
0.0
  0
LINE
  5
29DD
  8
0
 10
96.576436673309161
 20
197.10951314594641
 30
0.0
 11
99.740459442669135
 21
195.0592863140414
 31
0.0
  0
LINE
  5
29DF
  8
0
 10
97.437300410396105
 20
201.9145223342519
 30
0.0
 11
77.043557341272844
 21
209.76644902476261
 31
0.0
  0
LINE
  5
29E0
  8
0
 10
94.991204135511154
 20
202.1398206753598
 30
0.0
 11
94.991204135511111
 21
196.9635048858861
 31
0.0
  0
LINE
  5
29E1
  8
0
 10
95.191204135511043
 20
202.12139962272821
 30
0.0
 11
95.191204135511043
 21
196.98192593851761
 31
0.0
  0
LINE
  5
29E2
  8
0
 10
98.991204135511111
 20
201.77139962272821
 30
0.0
 11
98.991204135511055
 21
197.3319259385176
 31
0.0
  0
LINE
  5
29E3
  8
0
 10
99.191204135511114
 20
201.7529785700967
 30
0.0
 11
99.191204135511114
 21
197.35034699114911
 31
0.0
  0
LINE
  5
29E4
  8
0
 10
99.740459442669135
 20
195.0592863140414
 30
0.0
 11
100.98751043901279
 21
197.51579625594539
 31
0.0
  0
LINE
  5
29E5
  8
0
 10
77.043557341272844
 20
209.76644902476261
 30
0.0
 11
92.6912041355111
 21
199.6270702489868
 31
0.0
  0
LINE
  5
29E7
  8
0
 10
123.09120413551111
 20
199.55166278062279
 30
0.0
 11
92.6912041355111
 21
202.35166278062289
 31
0.0
  0
LINE
  5
29E8
  8
0
 10
92.6912041355111
 20
196.75166278062289
 30
0.0
 11
123.09120413551111
 21
199.55166278062279
 31
0.0
  0
LINE
  5
29E9
  8
0
 10
92.6912041355111
 20
202.35166278062289
 30
0.0
 11
92.6912041355111
 21
196.75166278062289
 31
0.0
  0
POLYLINE
  5
29F0
  8
0
 66
     1
 10
0.0
 20
0.0
 30
0.0
 70
     1
 40
1.0
 41
1.0
  0
VERTEX
  5
29F1
  8
0
 10
97.591204135511134
 20
199.55166278062291
 30
0.0
 42
-1.0
  0
VERTEX
  5
29F2
  8
0
 10
96.591204135511134
 20
199.55166278062291
 30
0.0
 42
-1.0
  0
SEQEND
  5
29F3
  8
0
  0
CIRCLE
  5
29F4
  8
0
 10
97.091204135511134
 20
199.55166278062291
 30
0.0
 40
1.0
  0
CIRCLE
  5
3178
  8
0
 10
97.091204135511134
 20
199.55166278062291
 30
0.0
 40
30.0
  0
CIRCLE
  5
3179
  8
0
 10
97.091204135511134
 20
199.55166278062291
 30
0.0
 40
34.25
  0
LINE
  5
317F
  8
0
 10
118.84120413551111
 20
189.05166278062291
 30
0.0
 11
118.84120413551111
 21
186.0726428348492
 31
0.0
  0
LINE
  5
3180
  8
0
 10
118.34120413551111
 20
189.05166278062291
 30
0.0
 11
118.34120413551111
 21
186.07264283484801
 31
0.0
  0
LINE
  5
3181
  8
0
 10
75.341204135511134
 20
189.05166278062291
 30
0.0
 11
75.341204135511134
 21
186.07264283484801
 31
0.0
  0
LINE
  5
3182
  8
0
 10
75.841204135511134
 20
189.05166278062291
 30
0.0
 11
75.841204135511134
 21
186.0726428348492
 31
0.0
  0
CIRCLE
  5
3183
  8
0
 10
75.591204135511134
 20
187.55166278062291
 30
0.0
 40
1.5
  0
CIRCLE
  5
3184
  8
0
 10
118.59120413551111
 20
187.55166278062291
 30
0.0
 40
1.5
  0
TEXT
  5
3185
  8
0
 10
94.003704135511128
 20
187.05166278062291
 30
0.0
 40
1.5
  1
CLAYTON
 41
0.65
  7
06500
 72
     1
 11
97.091204135511134
 21
187.05166278062291
 31
0.0
  0
TEXT
  5
3186
  8
0
 10
95.453108897415916
 20
207.10166278062309
 30
0.0
 40
2.0
  1
10
 41
0.8
  7
08000
 72
     1
 11
97.091204135511134
 21
207.10166278062309
 31
0.0
  0
TEXT
  5
3187
  8
0
 10
96.281680325987324
 20
209.3016627806231
 30
0.0
 40
2.0
  1
1
 72
     1
 11
97.091204135511134
 21
209.3016627806231
 31
0.0
  0
LINE
  5
3188
  8
0
 10
98.591204135511134
 20
209.3016627806231
 30
0.0
 11
95.591204135511134
 21
209.3016627806231
 31
0.0
  0
LINE
  5
3189
  8
0
 10
95.039922084230056
 20
192.48756021652099
 30
0.0
 11
95.778383622691933
 21
192.48756021652099
 31
0.0
  0
LINE
  5
318A
  8
0
 10
101.0912041355152
 20
189.61576534472471
 30
0.0
 11
100.2706913150019
 21
189.61576534472471
 31
0.0
  0
LINE
  5
318B
  8
0
 10
99.962999007309463
 20
191.87217560113609
 30
0.0
 11
99.470691315001545
 21
191.87217560113609
 31
0.0
  0
ARC
  5
318C
  8
0
 10
94.219409263716784
 20
190.74397047293041
 30
0.0
 40
1.1282051282057219
 50
90.0
 51
270.0
  0
LINE
  5
318D
  8
0
 10
94.957870802178704
 20
191.13371406267419
 30
0.0
 11
94.957870802178704
 21
191.87217560113609
 31
0.0
  0
ARC
  5
318E
  8
0
 10
94.219409263716784
 20
190.74397047293041
 30
0.0
 40
0.389743589743795
 50
90.0
 51
140.8332892838805
  0
LINE
  5
318F
  8
0
 10
94.875819520127365
 20
190.4978166267764
 30
0.0
 11
94.875819520127365
 21
190.99012431908429
 31
0.0
  0
LINE
  5
3190
  8
0
 10
93.917236548585137
 20
190.99012431908429
 30
0.0
 11
94.875819520127365
 21
190.99012431908429
 31
0.0
  0
LINE
  5
3191
  8
0
 10
93.917236548585137
 20
190.4978166267764
 30
0.0
 11
94.875819520127365
 21
190.4978166267764
 31
0.0
  0
LINE
  5
3192
  8
0
 10
94.219409263716784
 20
191.13371406267419
 30
0.0
 11
94.957870802178704
 21
191.13371406267419
 31
0.0
  0
LINE
  5
3193
  8
0
 10
94.219409263716784
 20
190.35422688318661
 30
0.0
 11
95.039922084230056
 21
190.35422688318661
 31
0.0
  0
ARC
  5
3194
  8
0
 10
94.219409263716784
 20
190.74397047293041
 30
0.0
 40
0.389743589743795
 50
219.1667107161193
 51
270.0
  0
LINE
  5
3195
  8
0
 10
94.670691314999104
 20
189.61576534472471
 30
0.0
 11
94.219409263716784
 21
189.61576534472471
 31
0.0
  0
LINE
  5
3196
  8
0
 10
95.039922084230056
 20
190.74397047293041
 30
0.0
 11
95.039922084230056
 21
192.48756021652099
 31
0.0
  0
LINE
  5
3197
  8
0
 10
95.778383622691933
 20
190.74397047293041
 30
0.0
 11
95.778383622691933
 21
192.48756021652099
 31
0.0
  0
ARC
  5
3198
  8
0
 10
97.089686390878697
 20
190.6650759794243
 30
0.0
 40
2.0512820512831311
 50
177.79579960996631
 51
210.7663918619773
  0
ARC
  5
3199
  8
0
 10
97.211999539292705
 20
190.66305786521141
 30
0.0
 40
1.435897435898192
 50
176.76968023270649
 51
226.83313873999651
  0
LINE
  5
319A
  8
0
 10
94.957870802178704
 20
191.87217560113609
 30
0.0
 11
94.219409263716784
 21
191.87217560113609
 31
0.0
  0
LINE
  5
319B
  8
0
 10
97.727101571410913
 20
191.87217560113609
 30
0.0
 11
96.988640032948979
 21
191.87217560113609
 31
0.0
  0
LINE
  5
319C
  8
0
 10
97.357870802179946
 20
189.61576534472471
 30
0.0
 11
96.988640032948979
 21
189.61576534472471
 31
0.0
  0
ARC
  5
319D
  8
0
 10
96.988640032948979
 20
190.74397047293041
 30
0.0
 40
0.389743589743795
 50
219.1667107161193
 51
270.0
  0
LINE
  5
319E
  8
0
 10
96.988640032948979
 20
190.35422688318661
 30
0.0
 11
98.075819520129031
 21
190.35422688318661
 31
0.0
  0
LINE
  5
319F
  8
0
 10
96.988640032948979
 20
191.13371406267419
 30
0.0
 11
97.727101571410913
 21
191.13371406267419
 31
0.0
  0
LINE
  5
31A0
  8
0
 10
96.686467317817346
 20
190.4978166267764
 30
0.0
 11
97.645050289359574
 21
190.4978166267764
 31
0.0
  0
LINE
  5
31A1
  8
0
 10
96.686467317817346
 20
190.99012431908429
 30
0.0
 11
97.645050289359574
 21
190.99012431908429
 31
0.0
  0
LINE
  5
31A2
  8
0
 10
97.645050289359574
 20
190.4978166267764
 30
0.0
 11
97.645050289359574
 21
190.99012431908429
 31
0.0
  0
ARC
  5
31A3
  8
0
 10
96.988640032948979
 20
190.74397047293041
 30
0.0
 40
0.389743589743795
 50
90.0
 51
140.8332892838805
  0
LINE
  5
31A4
  8
0
 10
97.727101571410913
 20
191.13371406267419
 30
0.0
 11
97.727101571410913
 21
191.87217560113609
 31
0.0
  0
ARC
  5
31A5
  8
0
 10
96.988640032948979
 20
190.74397047293041
 30
0.0
 40
1.1282051282057219
 50
90.0
 51
270.0
  0
LINE
  5
31A6
  8
0
 10
98.978383622693627
 20
191.13371406267419
 30
0.0
 11
98.978383622693627
 21
191.87217560113609
 31
0.0
  0
LINE
  5
31A7
  8
0
 10
98.547614391924185
 20
191.13371406267419
 30
0.0
 11
98.978383622693627
 21
191.13371406267419
 31
0.0
  0
ARC
  5
31A8
  8
0
 10
98.547614391924185
 20
191.13371406267419
 30
0.0
 40
0.7384615384619276
 50
90.0
 51
234.9003678046071
  0
ARC
  5
31A9
  8
0
 10
98.075819520129031
 20
190.35422688318661
 30
0.0
 40
0.7384615384619276
 50
270.0
 51
54.900367804607129
  0
LINE
  5
31AA
  8
0
 10
98.465563109872846
 20
191.0255322440876
 30
0.0
 11
98.465563109872846
 21
191.05166278062279
 31
0.0
  0
ARC
  5
31AB
  8
0
 10
98.547614391924185
 20
191.05166278062279
 30
0.0
 40
0.0820512820513253
 50
90.0
 51
179.9999999999992
  0
ARC
  5
31AC
  8
0
 10
98.547614391924185
 20
191.0255322440876
 30
0.0
 40
0.0820512820513253
 50
180.0
 51
234.90036780460699
  0
ARC
  5
31AD
  8
0
 10
98.075819520129031
 20
190.43627816523789
 30
0.0
 40
0.0820512820513253
 50
270.0
 51
0.0
  0
ARC
  5
31AE
  8
0
 10
98.075819520129031
 20
190.4624087017732
 30
0.0
 40
0.0820512820513253
 50
0.0000000000008142
 51
54.900367804607129
  0
LINE
  5
31AF
  8
0
 10
95.327101571409685
 20
189.61576534472471
 30
0.0
 11
96.229665673974196
 21
189.61576534472471
 31
0.0
  0
LINE
  5
31B0
  8
0
 10
97.727101571410913
 20
190.35422688318661
 30
0.0
 11
97.727101571410913
 21
189.61576534472471
 31
0.0
  0
ARC
  5
31B1
  8
0
 10
98.464991335508856
 20
189.99539546780301
 30
0.0
 40
0.8205128205132528
 50
154.06662005680491
 51
177.8608930073419
  0
ARC
  5
31B2
  8
0
 10
95.777811848327914
 20
189.99539546780301
 30
0.0
 40
0.8205128205132528
 50
154.06662005680491
 51
177.8608930073419
  0
LINE
  5
31B3
  8
0
 10
98.978383622693627
 20
191.13371406267419
 30
0.0
 11
99.921973366283865
 21
191.13371406267419
 31
0.0
  0
LINE
  5
31B4
  8
0
 10
100.9681272124383
 20
190.9490986780587
 30
0.0
 11
100.9681272124383
 21
189.94397047293
 31
0.0
  0
ARC
  5
31B5
  8
0
 10
99.974586576130037
 20
190.87601824729859
 30
0.0
 40
0.996224746408062
 50
4.2068467171522643
 51
90.666449776468227
  0
ARC
  5
31B6
  8
0
 10
98.240493858595755
 20
191.49254547805771
 30
0.0
 40
0.8205128205132528
 50
334.06662005680488
 51
357.86089300734187
  0
ARC
  5
31B7
  8
0
 10
99.470691315001545
 20
191.46191919087951
 30
0.0
 40
0.4102564102566264
 50
90.0
 51
180.0
  0
LINE
  5
31B8
  8
0
 10
98.978383622693627
 20
191.87217560113609
 30
0.0
 11
98.547614200251076
 21
191.87217560113609
 31
0.0
  0
ARC
  5
31B9
  8
0
 10
101.3769840912086
 20
189.91011231528921
 30
0.0
 40
0.4102564102566264
 50
175.26603745311331
 51
225.84605298605311
  0
ARC
  5
31BA
  8
0
 10
99.737357981668367
 20
190.45679098575081
 30
0.0
 40
0.8410256410260839
 50
140.6433010727373
 51
303.57748737918718
  0
LINE
  5
31BB
  8
0
 10
99.087065982318435
 20
190.99012431908429
 30
0.0
 11
100.2337412463573
 21
190.99012431908429
 31
0.0
  0
LINE
  5
31BC
  8
0
 10
99.724154889135207
 20
190.4978166267764
 30
0.0
 11
100.26460501938131
 21
190.4978166267764
 31
0.0
  0
LINE
  5
31BD
  8
0
 10
98.075819520129031
 20
189.61576534472471
 30
0.0
 11
97.727101571410913
 21
189.61576534472471
 31
0.0
  0
LINE
  5
31BE
  8
0
 10
98.157870802180426
 20
190.4624087017732
 30
0.0
 11
98.157870802180426
 21
190.43627816523789
 31
0.0
  0
ARC
  5
31BF
  8
0
 10
100.598860883581
 20
189.86196659658029
 30
0.0
 40
0.4102564102566264
 50
194.954370333535
 51
216.87817385345579
  0
ARC
  5
31C0
  8
0
 10
99.921973366283865
 20
190.72345765241749
 30
0.0
 40
0.4102564102566264
 50
235.43967822000991
 51
326.63298703076168
  0
ARC
  5
31C1
  8
0
 10
99.921973366283865
 20
190.72345765241749
 30
0.0
 40
0.4102564102566264
 50
40.54160187349747
 51
90.0
  0
ARC
  5
31C2
  8
0
 10
99.724154889135207
 20
190.43627816523789
 30
0.0
 40
0.061538461538494
 50
90.0
 51
235.43967822000991
  0
LINE
  5
31C3
  8
0
 10
94.957870802178704
 20
190.02602175498129
 30
0.0
 11
94.957870802178704
 21
189.90294483190431
 31
0.0
  0
ARC
  5
31C4
  8
0
 10
94.670691314999104
 20
189.90294483190431
 30
0.0
 40
0.2871794871796385
 50
270.0
 51
0.0
  0
LINE
  5
31C5
  8
0
 10
97.645050289359574
 20
190.0260217549812
 30
0.0
 11
97.645050289359574
 21
189.90294483190431
 31
0.0
  0
ARC
  5
31C6
  8
0
 10
97.357870802179946
 20
189.90294483190431
 30
0.0
 40
0.2871794871796385
 50
270.0
 51
0.0
  0
TEXT
  5
31C7
  8
0
 10
95.186442230749236
 20
178.80166278062291
 30
0.0
 40
4.0
  1
5
 72
     4
 11
97.091204135511134
 21
180.80166278062291
 31
0.0
  0
TEXT
  5
31C8
  8
0
 10
106.63719922483411
 20
212.72073142515291
 30
0.0
 40
4.0
  1
9
 50
0.0000000000000368
 72
     4
 11
108.4467230343579
 21
214.72073142515291
 31
0.0
  0
TEXT
  5
31C9
  8
0
 10
113.0187519112833
 20
203.3457314251531
 30
0.0
 40
4.0
  1
8
 50
0.0000000000000368
 72
     4
 11
114.9235138160452
 21
205.3457314251531
 31
0.0
  0
TEXT
  5
31CA
  8
0
 10
113.0187519112831
 20
191.75759413609259
 30
0.0
 40
4.0
  1
7
 50
0.0000000000000368
 72
     4
 11
114.923513816045
 21
193.75759413609259
 31
0.0
  0
TEXT
  5
31CB
  8
0
 10
106.2794503251764
 20
183.19161113046761
 30
0.0
 40
4.0
  1
6
 50
0.0000000000000368
 72
     4
 11
108.2794503251764
 21
185.19161113046761
 31
0.0
  0
TEXT
  5
31CC
  8
0
 10
84.070230655027501
 20
182.38259413609291
 30
0.0
 40
4.0
  1
4
 50
0.0000000000000368
 72
     4
 11
86.070230655027487
 21
184.38259413609291
 31
0.0
  0
TEXT
  5
31CD
  8
0
 10
77.354132550214814
 20
191.75759413609259
 30
0.0
 40
4.0
  1
3
 50
0.0000000000000368
 72
     4
 11
79.258894454976712
 21
193.75759413609259
 31
0.0
  0
TEXT
  5
31CE
  8
0
 10
77.354132550214928
 20
203.34573142515319
 30
0.0
 40
4.0
  1
2
 50
0.0000000000000368
 72
     4
 11
79.258894454976826
 21
205.34573142515319
 31
0.0
  0
TEXT
  5
31CF
  8
0
 10
84.451183035980065
 20
212.72073142515319
 30
0.0
 40
4.0
  1
1
 50
0.0000000000000368
 72
     4
 11
86.070230655027672
 21
214.72073142515319
 31
0.0
  0
TEXT
  5
31D0
  8
0
 10
95.186442230749236
 20
216.30166278062291
 30
0.0
 40
4.0
  1
0
 72
     4
 11
97.091204135511134
 21
218.30166278062291
 31
0.0
  0
LINE
  5
31D1
  8
3
 10
78.888321762074838
 20
212.7768309572036
 30
0.0
 11
72.820694304262702
 21
217.1852203493971
 31
0.0
  0
LINE
  5
31D2
  8
0
 10
110.3163723120918
 20
217.7545451540592
 30
0.0
 11
114.7247617042853
 21
223.82217261187131
 31
0.0
  0
LINE
  5
31D3
  8
3
 10
74.591204135511134
 20
199.55166278062291
 30
0.0
 11
67.091204135511134
 21
199.55166278062291
 31
0.0
  0
LINE
  5
31D4
  8
0
 10
118.48997575215201
 20
206.5045451540592
 30
0.0
 11
125.6228996243658
 21
208.82217261187131
 31
0.0
  0
LINE
  5
31D5
  8
3
 10
115.2940865089475
 20
186.32649460404221
 30
0.0
 11
121.36171396675959
 21
181.9181052118486
 31
0.0
  0
LINE
  5
31D6
  8
0
 10
118.48997575215191
 20
192.59878040718661
 30
0.0
 11
125.6228996243658
 21
190.28115294937439
 31
0.0
  0
LINE
  5
31D7
  8
3
 10
104.0440865089474
 20
178.15289116398191
 30
0.0
 11
106.3617139667595
 21
171.0199672917683
 31
0.0
  0
LINE
  5
31D8
  8
0
 10
110.3163723120918
 20
181.3487804071865
 30
0.0
 11
114.7247617042852
 21
175.2811529493745
 31
0.0
  0
LINE
  5
31D9
  8
3
 10
90.138321762074767
 20
178.15289116398191
 30
0.0
 11
87.820694304262702
 21
171.0199672917683
 31
0.0
  0
LINE
  5
31DA
  8
0
 10
97.091204135511134
 20
177.05166278062291
 30
0.0
 11
97.091204135511134
 21
169.55166278062291
 31
0.0
  0
LINE
  5
31DB
  8
3
 10
78.888321762074895
 20
186.3264946040423
 30
0.0
 11
72.820694304262815
 21
181.9181052118488
 31
0.0
  0
LINE
  5
31DC
  8
0
 10
83.866035958930524
 20
181.34878040718661
 30
0.0
 11
79.457646566736969
 21
175.2811529493745
 31
0.0
  0
LINE
  5
31DD
  8
3
 10
123.0912041355115
 20
199.55166278062291
 30
0.0
 11
127.09120413551111
 21
199.55166278062291
 31
0.0
  0
LINE
  5
31DE
  8
0
 10
75.692432518870191
 20
192.59878040718661
 30
0.0
 11
68.559508646656468
 21
190.28115294937439
 31
0.0
  0
LINE
  5
31DF
  8
3
 10
115.2940865089476
 20
212.7768309572036
 30
0.0
 11
121.3617139667595
 21
217.1852203493971
 31
0.0
  0
LINE
  5
31E0
  8
0
 10
75.692432518870078
 20
206.5045451540592
 30
0.0
 11
68.559508646656525
 21
208.82217261187131
 31
0.0
  0
LINE
  5
31E1
  8
3
 10
90.138321762074838
 20
220.9504343972639
 30
0.0
 11
87.820694304262702
 21
228.0833582694776
 31
0.0
  0
LINE
  5
31E2
  8
0
 10
83.866035958930524
 20
217.75454515405909
 30
0.0
 11
79.457646566736912
 21
223.82217261187139
 31
0.0
  0
LINE
  5
31E3
  8
0
 10
97.091204135511134
 20
222.05166278062291
 30
0.0
 11
97.091204135511134
 21
229.55166278062291
 31
0.0
  0
LINE
  5
31E4
  8
3
 10
104.0440865089474
 20
220.9504343972639
 30
0.0
 11
106.3617139667595
 21
228.0833582694774
 31
0.0
  0
ARC
  5
3283
  8
0
 10
134.18240827102321
 20
211.60332556124649
 30
0.0
 40
9.9999999999990354
 50
326.35419672871672
 51
69.645803271287406
  0
ARC
  5
3284
  8
0
 10
97.09120413551085
 20
238.5516627806241
 30
0.0
 40
9.9999999999990337
 50
38.354196728715799
 51
141.6458032712867
  0
ARC
  5
3285
  8
0
 10
59.999999999998892
 20
211.6033255612459
 30
0.0
 40
9.9999999999990319
 50
110.3541967287147
 51
213.64580327128769
  0
ARC
  5
3286
  8
0
 10
74.167579296104179
 20
167.99999999999881
 30
0.0
 40
9.9999999999990301
 50
182.3541967287147
 51
285.6458032712867
  0
ARC
  5
3287
  8
0
 10
120.0148289749185
 20
167.99999999999909
 30
0.0
 40
9.9999999999990283
 50
254.35419672871339
 51
357.64580327128641
  0
ENDSEC
  0
EOF
