  0
SECTION
  2
HEADER
  9
$ACADVER
  1
AC1009
  9
$INSBASE
 10
0.0
 20
0.0
 30
0.0
  9
$EXTMIN
 10
0.0
 20
-2.960436562073669
 30
0.0
  9
$EXTMAX
 10
395.0
 20
264.92997016217532
 30
0.0
  9
$LIMMIN
 10
0.0
 20
0.0
  9
$LIMMAX
 10
390.0
 20
270.0
  9
$ORTHOMODE
 70
     1
  9
$REGENMODE
 70
     1
  9
$FILLMODE
 70
     1
  9
$QTEXTMODE
 70
     0
  9
$MIRRTEXT
 70
     0
  9
$DRAGMODE
 70
     2
  9
$LTSCALE
 40
10.0
  9
$OSMODE
 70
  3071
  9
$ATTMODE
 70
     1
  9
$TEXTSIZE
 40
0.2
  9
$TRACEWID
 40
0.05
  9
$TEXTSTYLE
  7
STANDARD
  9
$CLAYER
  8
0
  9
$CELTYPE
  6
BYLAYER
  9
$CECOLOR
 62
   256
  9
$DIMSCALE
 40
1.0
  9
$DIMASZ
 40
3.0
  9
$DIMEXO
 40
2.0
  9
$DIMDLI
 40
0.38
  9
$DIMRND
 40
0.0
  9
$DIMDLE
 40
0.0
  9
$DIMEXE
 40
2.0
  9
$DIMTP
 40
0.0
  9
$DIMTM
 40
0.0
  9
$DIMTXT
 40
3.0
  9
$DIMCEN
 40
0.0
  9
$DIMTSZ
 40
0.0
  9
$DIMTOL
 70
     0
  9
$DIMLIM
 70
     0
  9
$DIMTIH
 70
     0
  9
$DIMTOH
 70
     0
  9
$DIMSE1
 70
     0
  9
$DIMSE2
 70
     0
  9
$DIMTAD
 70
     1
  9
$DIMZIN
 70
     0
  9
$DIMBLK
  1

  9
$DIMASO
 70
     0
  9
$DIMSHO
 70
     0
  9
$DIMPOST
  1

  9
$DIMAPOST
  1

  9
$DIMALT
 70
     0
  9
$DIMALTD
 70
     2
  9
$DIMALTF
 40
25.399999999999999
  9
$DIMLFAC
 40
1.0
  9
$DIMTOFL
 70
     1
  9
$DIMTVP
 40
1.6000000000000001
  9
$DIMTIX
 70
     1
  9
$DIMSOXD
 70
     0
  9
$DIMSAH
 70
     0
  9
$DIMBLK1
  1

  9
$DIMBLK2
  1

  9
$DIMSTYLE
  2
STANDARD
  9
$DIMCLRD
 70
     0
  9
$DIMCLRE
 70
     0
  9
$DIMCLRT
 70
     0
  9
$DIMTFAC
 40
1.0
  9
$DIMGAP
 40
0.09
  9
$LUNITS
 70
     2
  9
$LUPREC
 70
     4
  9
$SKETCHINC
 40
0.1
  9
$FILLETRAD
 40
0.0
  9
$AUNITS
 70
     0
  9
$AUPREC
 70
     4
  9
$MENU
  1
E:\r13\win\SUPPORT\ACAD
  9
$ELEVATION
 40
0.0
  9
$PELEVATION
 40
0.0
  9
$THICKNESS
 40
0.0
  9
$LIMCHECK
 70
     0
  9
$BLIPMODE
 70
     0
  9
$CHAMFERA
 40
0.0
  9
$CHAMFERB
 40
0.0
  9
$SKPOLY
 70
     0
  9
$TDCREATE
 40
2449840.655439815
  9
$TDUPDATE
 40
2456598.6036303132
  9
$TDINDWG
 40
0.3689325926
  9
$TDUSRTIMER
 40
0.3689325926
  9
$USRTIMER
 70
     1
  9
$ANGBASE
 50
0.0
  9
$ANGDIR
 70
     0
  9
$PDMODE
 70
     0
  9
$PDSIZE
 40
0.0
  9
$PLINEWID
 40
0.0
  9
$COORDS
 70
     1
  9
$SPLFRAME
 70
     0
  9
$SPLINETYPE
 70
     6
  9
$SPLINESEGS
 70
     8
  9
$ATTDIA
 70
     0
  9
$ATTREQ
 70
     1
  9
$HANDLING
 70
     1
  9
$HANDSEED
  5
1907
  9
$SURFTAB1
 70
     6
  9
$SURFTAB2
 70
     6
  9
$SURFTYPE
 70
     6
  9
$SURFU
 70
     6
  9
$SURFV
 70
     6
  9
$UCSNAME
  2

  9
$UCSORG
 10
0.0
 20
0.0
 30
0.0
  9
$UCSXDIR
 10
1.0
 20
0.0
 30
0.0
  9
$UCSYDIR
 10
0.0
 20
1.0
 30
0.0
  9
$PUCSNAME
  2

  9
$PUCSORG
 10
0.0
 20
0.0
 30
0.0
  9
$PUCSXDIR
 10
1.0
 20
0.0
 30
0.0
  9
$PUCSYDIR
 10
0.0
 20
1.0
 30
0.0
  9
$USERI1
 70
     3
  9
$USERI2
 70
     1
  9
$USERI3
 70
     0
  9
$USERI4
 70
     0
  9
$USERI5
 70
     0
  9
$USERR1
 40
1.0
  9
$USERR2
 40
3.0
  9
$USERR3
 40
3.0
  9
$USERR4
 40
3.0
  9
$USERR5
 40
10.0
  9
$WORLDVIEW
 70
     1
  9
$SHADEDGE
 70
     3
  9
$SHADEDIF
 70
    70
  9
$TILEMODE
 70
     1
  9
$MAXACTVP
 70
    16
  9
$PLIMCHECK
 70
     0
  9
$PEXTMIN
 10
1.0000000000000000E+020
 20
1.0000000000000000E+020
 30
1.0000000000000000E+020
  9
$PEXTMAX
 10
-1.0000000000000000E+020
 20
-1.0000000000000000E+020
 30
-1.0000000000000000E+020
  9
$PLIMMIN
 10
0.0
 20
0.0
  9
$PLIMMAX
 10
12.0
 20
9.0
  9
$UNITMODE
 70
     0
  9
$VISRETAIN
 70
     0
  9
$PLINEGEN
 70
     0
  9
$PSLTSCALE
 70
     0
  0
ENDSEC
  0
SECTION
  2
TABLES
  0
TABLE
  2
VPORT
 70
     1
  0
VPORT
  2
*ACTIVE
 70
     0
 10
0.0
 20
0.0
 11
1.0
 21
1.0
 12
205.06383086111609
 22
133.5127261426681
 13
0.0
 23
0.0
 14
10.0
 24
10.0
 15
10.0
 25
10.0
 16
0.0
 26
0.0
 36
1.0
 17
0.0
 27
0.0
 37
0.0
 40
275.42274993631997
 41
1.831871345029239
 42
50.0
 43
0.0
 44
0.0
 50
0.0
 51
0.0
 71
     0
 72
   100
 73
     1
 74
     0
 75
     0
 76
     0
 77
     0
 78
     2
  0
ENDTAB
  0
TABLE
  2
LTYPE
 70
     4
  0
LTYPE
  2
CONTINUOUS
 70
     0
  3
Solid Line
 72
    65
 73
     0
 40
0.0
  0
LTYPE
  2
CENTER
 70
     0
  3
____ _ ____ _ ____ _ ____ _ ____ _ ____ _ ____
 72
    65
 73
     4
 40
2.0
 49
1.25
 49
-0.25
 49
0.25
 49
-0.25
  0
LTYPE
  2
HIDDEN
 70
     0
  3
_ _ _ _ _ _ _ _ _ _ _ _ _ _ _ _ _ _ _ _ _ _ _
 72
    65
 73
     2
 40
0.375
 49
0.25
 49
-0.125
  0
LTYPE
  2
PHANTOM2
 70
     0
  3
___ _ _ ___ _ _ ___ _ _ ___ _ _
 72
    65
 73
     6
 40
1.25
 49
0.625
 49
-0.125
 49
0.125
 49
-0.125
 49
0.125
 49
-0.125
  0
ENDTAB
  0
TABLE
  2
LAYER
 70
     3
  0
LAYER
  2
0
 70
     0
 62
     7
  6
CONTINUOUS
  0
LAYER
  2
1
 70
     0
 62
     1
  6
CENTER
  0
LAYER
  2
2
 70
     0
 62
     2
  6
HIDDEN
  0
ENDTAB
  0
TABLE
  2
STYLE
 70
     2
  0
STYLE
  2
STANDARD
 70
     0
 40
0.0
 41
1.0
 50
0.0
 71
     0
 42
0.2
  3
TXT
  4
BIGFONT
  0
STYLE
  2
STANDARD1
 70
     0
 40
0.0
 41
1.0
 50
0.0
 71
     0
 42
3.0
  3
txt
  4

  0
ENDTAB
  0
TABLE
  2
VIEW
 70
     1
  0
VIEW
  2
ALL
 70
     0
 40
179.538466
 10
135.0
 20
89.769233000000014
 41
0.0
 11
0.0
 21
0.0
 31
1.0
 12
0.0
 22
0.0
 32
0.0
 42
0.0
 43
0.0
 44
0.0
 50
0.0
 71
     0
  0
ENDTAB
  0
TABLE
  2
UCS
 70
     0
  0
ENDTAB
  0
TABLE
  2
APPID
 70
     4
  0
APPID
  2
ACAD
 70
     0
  0
APPID
  2
ACAD_EXEMPT_FROM_CAD_STANDARDS
 70
     0
  0
APPID
  2
ACAD_MLEADERVER
 70
     0
  0
APPID
  2
ACAD_NAV_VCDISPLAY
 70
     0
  0
ENDTAB
  0
TABLE
  2
DIMSTYLE
 70
     1
  0
DIMSTYLE
  2
STANDARD
 70
     0
  3

  4

  5

  6

  7

 40
1.0
 41
0.18
 42
0.0625
 43
0.38
 44
0.18
 45
0.0
 46
0.0
 47
0.0
 48
0.0
140
0.18
141
0.09
142
0.0
143
25.399999999999999
144
1.0
145
0.0
146
1.0
147
0.09
 71
     0
 72
     0
 73
     1
 74
     1
 75
     0
 76
     0
 77
     0
 78
     0
170
     0
171
     2
172
     0
173
     0
174
     0
175
     0
176
     0
177
     0
178
     0
  0
ENDTAB
  0
ENDSEC
  0
SECTION
  2
BLOCKS
  0
BLOCK
  8
0
  2
$MODEL_SPACE
 70
     0
 10
0.0
 20
0.0
 30
0.0
  3
$MODEL_SPACE
  1

  0
ENDBLK
  5
1F5
  8
0
  0
BLOCK
 67
     1
  8
0
  2
$PAPER_SPACE
 70
     0
 10
0.0
 20
0.0
 30
0.0
  3
$PAPER_SPACE
  1

  0
ENDBLK
  5
1F3
 67
     1
  8
0
  0
ENDSEC
  0
SECTION
  2
ENTITIES
  0
LINE
  5
784
  8
0
 10
390.0
 20
154.42997016217529
 30
0.0
 11
390.0
 21
165.92997016217529
 31
0.0
  0
LINE
  5
785
  8
0
 10
390.0
 20
53.929970162175323
 30
0.0
 11
390.0
 21
65.429970162175323
 31
0.0
  0
LINE
  5
786
  8
0
 10
390.0
 20
67.429970162175323
 30
0.0
 11
390.0
 21
152.42997016217529
 31
0.0
  0
LINE
  5
787
  8
0
 10
388.0
 20
152.42997016217529
 30
0.0
 11
388.0
 21
154.42997016217529
 31
0.0
  0
LINE
  5
788
  8
0
 10
388.0
 20
65.429970162175323
 30
0.0
 11
388.0
 21
67.429970162175323
 31
0.0
  0
LINE
  5
78C
  8
0
 10
383.5
 20
148.92997016217529
 30
0.0
 11
383.5
 21
156.92997016217529
 31
0.0
  0
LINE
  5
78F
  8
0
 10
383.5
 20
62.929970162175323
 30
0.0
 11
383.5
 21
70.929970162175323
 31
0.0
  0
LINE
  5
790
  8
0
 10
383.5
 20
104.42997016217529
 30
0.0
 11
383.5
 21
115.42997016217529
 31
0.0
  0
LINE
  5
796
  8
0
 10
374.0
 20
115.42997016217529
 30
0.0
 11
374.0
 21
148.92997016217529
 31
0.0
  0
LINE
  5
797
  8
0
 10
374.0
 20
70.929970162175323
 30
0.0
 11
374.0
 21
104.42997016217529
 31
0.0
  0
LINE
  5
799
  8
0
 10
374.0
 20
166.42997016217529
 30
0.0
 11
374.0
 21
168.42997016217529
 31
0.0
  0
LINE
  5
79A
  8
0
 10
374.0
 20
51.429970162175323
 30
0.0
 11
374.0
 21
53.429970162175323
 31
0.0
  0
LINE
  5
7A3
  8
0
 10
366.0
 20
70.929970162175323
 30
0.0
 11
366.0
 21
104.42997016217529
 31
0.0
  0
LINE
  5
7A6
  8
0
 10
366.0
 20
115.42997016217529
 30
0.0
 11
366.0
 21
148.92997016217529
 31
0.0
  0
LINE
  5
7A7
  8
0
 10
366.0
 20
166.42997016217529
 30
0.0
 11
366.0
 21
168.42997016217529
 31
0.0
  0
LINE
  5
7A8
  8
0
 10
366.0
 20
51.429970162175323
 30
0.0
 11
366.0
 21
53.429970162175323
 31
0.0
  0
LINE
  5
7AD
  8
0
 10
356.5
 20
104.42997016217529
 30
0.0
 11
356.5
 21
115.42997016217529
 31
0.0
  0
LINE
  5
7AF
  8
0
 10
356.5
 20
62.929970162175323
 30
0.0
 11
356.5
 21
70.929970162175323
 31
0.0
  0
LINE
  5
7B3
  8
0
 10
356.5
 20
148.92997016217529
 30
0.0
 11
356.5
 21
156.92997016217529
 31
0.0
  0
LINE
  5
7B7
  8
0
 10
352.0
 20
152.42997016217529
 30
0.0
 11
352.0
 21
154.42997016217529
 31
0.0
  0
LINE
  5
7B8
  8
0
 10
352.0
 20
65.429970162175323
 30
0.0
 11
352.0
 21
67.429970162175323
 31
0.0
  0
LINE
  5
7B9
  8
0
 10
350.0
 20
154.42997016217529
 30
0.0
 11
350.0
 21
165.92997016217529
 31
0.0
  0
LINE
  5
7BA
  8
0
 10
350.0
 20
67.429970162175323
 30
0.0
 11
350.0
 21
152.42997016217529
 31
0.0
  0
LINE
  5
7BB
  8
0
 10
350.0
 20
53.929970162175323
 30
0.0
 11
350.0
 21
65.429970162175323
 31
0.0
  0
LINE
  5
806
  8
0
 10
386.0
 20
49.92997016217533
 30
0.0
 11
354.0
 21
49.92997016217533
 31
0.0
  0
LINE
  5
809
  8
0
 10
378.91611499999999
 20
54.429970162175323
 30
0.0
 11
375.0
 21
54.429970162175323
 31
0.0
  0
LINE
  5
80A
  8
0
 10
365.0
 20
54.429970162175323
 30
0.0
 11
361.08388500000001
 21
54.429970162175323
 31
0.0
  0
LINE
  5
80B
  8
0
 10
372.19305600000001
 20
62.179970162175323
 30
0.0
 11
367.80694400000021
 21
62.179970162175323
 31
0.0
  0
LINE
  5
80C
  8
0
 10
383.5
 20
62.929970162175323
 30
0.0
 11
356.5
 21
62.929970162175323
 31
0.0
  0
LINE
  5
80D
  8
0
 10
390.0
 20
65.429970162175323
 30
0.0
 11
383.5
 21
65.429970162175323
 31
0.0
  0
LINE
  5
80E
  8
0
 10
356.5
 20
65.429970162175323
 30
0.0
 11
350.0
 21
65.429970162175323
 31
0.0
  0
LINE
  5
810
  8
0
 10
356.5
 20
67.429970162175323
 30
0.0
 11
350.0
 21
67.429970162175323
 31
0.0
  0
LINE
  5
812
  8
0
 10
390.0
 20
67.429970162175323
 30
0.0
 11
383.5
 21
67.429970162175323
 31
0.0
  0
LINE
  5
813
  8
0
 10
383.5
 20
70.929970162175323
 30
0.0
 11
356.5
 21
70.929970162175323
 31
0.0
  0
LINE
  5
81B
  8
0
 10
383.5
 20
104.42997016217529
 30
0.0
 11
356.5
 21
104.42997016217529
 31
0.0
  0
LINE
  5
81D
  8
0
 10
383.5
 20
115.42997016217529
 30
0.0
 11
356.5
 21
115.42997016217529
 31
0.0
  0
LINE
  5
821
  8
0
 10
383.5
 20
148.92997016217529
 30
0.0
 11
356.5
 21
148.92997016217529
 31
0.0
  0
LINE
  5
826
  8
0
 10
356.5
 20
152.42997016217529
 30
0.0
 11
350.0
 21
152.42997016217529
 31
0.0
  0
LINE
  5
828
  8
0
 10
390.0
 20
152.42997016217529
 30
0.0
 11
383.5
 21
152.42997016217529
 31
0.0
  0
LINE
  5
829
  8
0
 10
356.5
 20
154.42997016217529
 30
0.0
 11
350.0
 21
154.42997016217529
 31
0.0
  0
LINE
  5
82A
  8
0
 10
390.0
 20
154.42997016217529
 30
0.0
 11
383.5
 21
154.42997016217529
 31
0.0
  0
LINE
  5
82C
  8
0
 10
383.5
 20
156.92997016217529
 30
0.0
 11
356.5
 21
156.92997016217529
 31
0.0
  0
LINE
  5
82D
  8
0
 10
372.19305600000001
 20
157.67997016217529
 30
0.0
 11
367.80694400000021
 21
157.67997016217529
 31
0.0
  0
LINE
  5
82E
  8
0
 10
365.0
 20
165.42997016217529
 30
0.0
 11
361.08388500000001
 21
165.42997016217529
 31
0.0
  0
LINE
  5
82F
  8
0
 10
378.91611499999999
 20
165.42997016217529
 30
0.0
 11
375.0
 21
165.42997016217529
 31
0.0
  0
LINE
  5
833
  8
0
 10
386.0
 20
169.92997016217529
 30
0.0
 11
354.0
 21
169.92997016217529
 31
0.0
  0
ARC
  5
834
  8
0
 10
380.3400000000002
 20
41.3299701621753
 30
0.0
 40
25.00000066702145
 50
126.64192765228201
 51
143.62496657613971
  0
ARC
  5
835
  8
0
 10
359.66000000000008
 20
41.3299701621753
 30
0.0
 40
25.000000087992021
 50
36.375034720100302
 51
53.358072347702212
  0
ARC
  5
83A
  8
0
 10
354.0
 20
53.929970162175323
 30
0.0
 40
4.0
 50
180.0
 51
270.0
  0
ARC
  5
83B
  8
0
 10
378.91611499999999
 20
55.513855162175332
 30
0.0
 40
1.083884822288788
 50
270.0
 51
36.375058710859662
  0
ARC
  5
83C
  8
0
 10
361.08388500000001
 20
55.513855162175332
 30
0.0
 40
1.0838849999999991
 50
143.62497118728089
 51
270.0
  0
ARC
  5
83D
  8
0
 10
372.19305600000001
 20
58.179970162175323
 30
0.0
 40
4.0
 50
53.35807490003549
 51
90.0
  0
ARC
  5
83E
  8
0
 10
367.80694400000021
 20
58.179970162175323
 30
0.0
 40
4.0000002618221151
 50
90.0
 51
126.6419250999645
  0
ARC
  5
851
  8
0
 10
372.19305600000001
 20
161.67997016217529
 30
0.0
 40
4.0000002618221231
 50
270.0
 51
306.64190879461751
  0
ARC
  5
852
  8
0
 10
367.80694400000021
 20
161.67997016217529
 30
0.0
 40
4.0000000000000018
 50
233.35809120538249
 51
270.0
  0
ARC
  5
853
  8
0
 10
378.91611499999999
 20
164.34608516217531
 30
0.0
 40
1.0838850000000011
 50
323.62506305892327
 51
90.0
  0
ARC
  5
854
  8
0
 10
361.08388500000001
 20
164.34608516217531
 30
0.0
 40
1.0838848222887949
 50
90.0
 51
216.3749070429854
  0
ARC
  5
855
  8
0
 10
386.0
 20
165.92997016217529
 30
0.0
 40
4.0
 50
0.0
 51
90.0
  0
ARC
  5
856
  8
0
 10
354.0
 20
165.92997016217529
 30
0.0
 40
4.0
 50
90.0
 51
180.0
  0
ARC
  5
859
  8
0
 10
380.3400000000002
 20
178.5299701621752
 30
0.0
 40
25.000000087992021
 50
216.3750281444886
 51
233.35807495656999
  0
ARC
  5
85A
  8
0
 10
359.66000000000008
 20
178.5299701621752
 30
0.0
 40
25.00000066702145
 50
306.64192504342998
 51
323.62497055926252
  0
LINE
  5
AAA
  8
0
 10
89.999999999999986
 20
154.42997016217529
 30
0.0
 11
89.999999999999986
 21
165.92997016217529
 31
0.0
  0
LINE
  5
AAB
  8
0
 10
89.999999999999986
 20
67.429970162175323
 30
0.0
 11
89.999999999999986
 21
152.42997016217529
 31
0.0
  0
LINE
  5
AAD
  8
0
 10
89.999999999999986
 20
53.929970162175323
 30
0.0
 11
89.999999999999986
 21
65.429970162175323
 31
0.0
  0
LINE
  5
AB1
  8
0
 10
88.90473700000004
 20
105.8885191621752
 30
0.0
 11
88.90473700000004
 21
113.9714211621754
 31
0.0
  0
LINE
  5
AB2
  8
0
 10
87.999999999999972
 20
152.42997016217529
 30
0.0
 11
87.999999999999972
 21
154.42997016217529
 31
0.0
  0
LINE
  5
AB3
  8
0
 10
87.999999999999972
 20
65.429970162175323
 30
0.0
 11
87.999999999999972
 21
67.429970162175323
 31
0.0
  0
LINE
  5
AB7
  8
0
 10
83.499999999999972
 20
148.92997016217529
 30
0.0
 11
83.499999999999972
 21
156.92997016217529
 31
0.0
  0
LINE
  5
ABA
  8
0
 10
83.500000000000085
 20
62.929970162175323
 30
0.0
 11
83.499999999999972
 21
70.929970162175323
 31
0.0
  0
LINE
  5
ABC
  8
0
 10
73.999999999999972
 20
70.929970162175323
 30
0.0
 11
74.000000000000085
 21
104.92997016217529
 31
0.0
  0
LINE
  5
ABD
  8
0
 10
73.999999999999972
 20
166.42997016217529
 30
0.0
 11
73.999999999999972
 21
168.42997016217529
 31
0.0
  0
LINE
  5
ABE
  8
0
 10
73.999999999999972
 20
51.429970162175323
 30
0.0
 11
73.999999999999972
 21
53.429970162175323
 31
0.0
  0
LINE
  5
AC3
  8
0
 10
65.999999999999972
 20
70.929970162175323
 30
0.0
 11
66.000000000000085
 21
104.92997016217529
 31
0.0
  0
LINE
  5
AC4
  8
0
 10
65.999999999999972
 20
166.42997016217529
 30
0.0
 11
65.999999999999972
 21
168.42997016217529
 31
0.0
  0
LINE
  5
AC5
  8
0
 10
65.999999999999972
 20
51.429970162175323
 30
0.0
 11
65.999999999999972
 21
53.429970162175323
 31
0.0
  0
LINE
  5
AC7
  8
0
 10
56.499999999999972
 20
148.92997016217529
 30
0.0
 11
56.499999999999972
 21
156.92997016217529
 31
0.0
  0
LINE
  5
AC8
  8
0
 10
56.500000000000092
 20
62.929970162175323
 30
0.0
 11
56.499999999999972
 21
70.929970162175323
 31
0.0
  0
LINE
  5
ACE
  8
0
 10
51.999999999999972
 20
152.42997016217529
 30
0.0
 11
51.999999999999972
 21
154.42997016217529
 31
0.0
  0
LINE
  5
ACF
  8
0
 10
51.999999999999972
 20
65.429970162175323
 30
0.0
 11
51.999999999999972
 21
67.429970162175323
 31
0.0
  0
LINE
  5
AD0
  8
0
 10
51.095261000000022
 20
105.8885191621752
 30
0.0
 11
51.095261000000022
 21
113.9714211621754
 31
0.0
  0
LINE
  5
AD1
  8
0
 10
49.999999999999972
 20
154.42997016217529
 30
0.0
 11
49.999999999999972
 21
165.92997016217529
 31
0.0
  0
LINE
  5
AD2
  8
0
 10
49.999999999999972
 20
53.929970162175323
 30
0.0
 11
49.999999999999972
 21
65.429970162175323
 31
0.0
  0
LINE
  5
AD3
  8
0
 10
50.000000000000078
 20
67.429970162175323
 30
0.0
 11
49.999999999999972
 21
152.42997016217529
 31
0.0
  0
LINE
  5
B3E
  8
0
 10
85.999999999999972
 20
49.92997016217533
 30
0.0
 11
53.999999999999972
 21
49.92997016217533
 31
0.0
  0
LINE
  5
B41
  8
0
 10
64.999999999999972
 20
54.429970162175323
 30
0.0
 11
61.083884999999981
 21
54.429970162175323
 31
0.0
  0
LINE
  5
B42
  8
0
 10
78.916114999999962
 20
54.429970162175323
 30
0.0
 11
74.999999999999972
 21
54.429970162175323
 31
0.0
  0
LINE
  5
B44
  8
0
 10
72.193056000000041
 20
62.179970162175323
 30
0.0
 11
67.806944000000016
 21
62.179970162175323
 31
0.0
  0
LINE
  5
B45
  8
0
 10
83.499999999999972
 20
62.929970162175323
 30
0.0
 11
56.499999999999972
 21
62.929970162175323
 31
0.0
  0
LINE
  5
B46
  8
0
 10
89.999999999999986
 20
65.429970162175323
 30
0.0
 11
83.499999999999972
 21
65.429970162175323
 31
0.0
  0
LINE
  5
B48
  8
0
 10
56.499999999999972
 20
65.429970162175323
 30
0.0
 11
49.999999999999972
 21
65.429970162175323
 31
0.0
  0
LINE
  5
B49
  8
0
 10
56.499999999999972
 20
67.429970162175323
 30
0.0
 11
49.999999999999972
 21
67.429970162175323
 31
0.0
  0
LINE
  5
B4A
  8
0
 10
89.999999999999986
 20
67.429970162175323
 30
0.0
 11
83.500000000000085
 21
67.429970162175323
 31
0.0
  0
LINE
  5
B4C
  8
0
 10
83.499999999999972
 20
70.929970162175323
 30
0.0
 11
56.499999999999972
 21
70.929970162175323
 31
0.0
  0
LINE
  5
B4F
  8
0
 10
89.999999999999986
 20
105.8885191621752
 30
0.0
 11
88.904745000000005
 21
105.8885191621752
 31
0.0
  0
LINE
  5
B50
  8
0
 10
51.09523400000009
 20
105.8885191621752
 30
0.0
 11
49.999999999999972
 21
105.8885191621752
 31
0.0
  0
LINE
  5
B53
  8
0
 10
89.999999999999986
 20
113.9714211621754
 30
0.0
 11
88.904727999999949
 21
113.9714211621754
 31
0.0
  0
LINE
  5
B54
  8
0
 10
51.095253000000042
 20
113.9714211621754
 30
0.0
 11
49.999999999999972
 21
113.9714211621754
 31
0.0
  0
LINE
  5
B56
  8
0
 10
83.499999999999972
 20
148.92997016217529
 30
0.0
 11
56.499999999999972
 21
148.92997016217529
 31
0.0
  0
LINE
  5
B57
  8
0
 10
89.999999999999986
 20
152.42997016217529
 30
0.0
 11
83.499999999999972
 21
152.42997016217529
 31
0.0
  0
LINE
  5
B58
  8
0
 10
56.499999999999972
 20
152.42997016217529
 30
0.0
 11
49.999999999999972
 21
152.42997016217529
 31
0.0
  0
LINE
  5
B5A
  8
0
 10
56.499999999999972
 20
154.42997016217529
 30
0.0
 11
49.999999999999972
 21
154.42997016217529
 31
0.0
  0
LINE
  5
B5B
  8
0
 10
89.999999999999986
 20
154.42997016217529
 30
0.0
 11
83.499999999999972
 21
154.42997016217529
 31
0.0
  0
LINE
  5
B5D
  8
0
 10
83.499999999999972
 20
156.92997016217529
 30
0.0
 11
56.499999999999972
 21
156.92997016217529
 31
0.0
  0
LINE
  5
B5E
  8
0
 10
72.193056000000041
 20
157.67997016217529
 30
0.0
 11
67.806944000000016
 21
157.67997016217529
 31
0.0
  0
LINE
  5
B60
  8
0
 10
78.916114999999962
 20
165.42997016217529
 30
0.0
 11
74.999999999999972
 21
165.42997016217529
 31
0.0
  0
LINE
  5
B61
  8
0
 10
64.999999999999972
 20
165.42997016217529
 30
0.0
 11
61.083884999999981
 21
165.42997016217529
 31
0.0
  0
LINE
  5
B65
  8
0
 10
85.999999999999972
 20
169.92997016217529
 30
0.0
 11
53.999999999999972
 21
169.92997016217529
 31
0.0
  0
ARC
  5
B66
  8
0
 10
80.340000000000003
 20
41.3299701621753
 30
0.0
 40
25.000000087992021
 50
126.6419281430497
 51
143.6249663652591
  0
ARC
  5
B67
  8
0
 10
59.660000000000053
 20
41.3299701621753
 30
0.0
 40
25.00000066702145
 50
36.375033634740888
 51
53.358071856950211
  0
ARC
  5
B6A
  8
0
 10
85.999999999999972
 20
53.929970162175323
 30
0.0
 40
4.0
 50
270.0
 51
0.0
  0
ARC
  5
B6B
  8
0
 10
53.999999999999972
 20
53.929970162175323
 30
0.0
 40
4.0
 50
180.0
 51
270.0
  0
ARC
  5
B6C
  8
0
 10
78.916114999999962
 20
55.513855162175332
 30
0.0
 40
1.0838849999999991
 50
270.0
 51
36.375033676673937
  0
ARC
  5
B6D
  8
0
 10
61.083884999999981
 20
55.513855162175332
 30
0.0
 40
1.083884822288788
 50
143.62496632332599
 51
270.0
  0
ARC
  5
B6E
  8
0
 10
72.193056000000041
 20
58.179970162175323
 30
0.0
 40
4.0000002618221151
 50
53.358071832790088
 51
90.0
  0
ARC
  5
B6F
  8
0
 10
67.806944000000016
 20
58.179970162175323
 30
0.0
 40
4.0
 50
90.0
 51
126.6419281672099
  0
POLYLINE
  5
B70
  8
0
 10
89.999999999999972
 20
104.30080516217519
 30
0.0
 66
     1
 70
     8
  0
VERTEX
  8
0
  5
16FF
 10
90.0000
 20
104.301
 30
0.000000
  70
    32
  0
VERTEX
  8
0
  5
1700
 10
89.9999
 20
104.314
 30
0.000000
  70
    32
  0
VERTEX
  8
0
  5
1701
 10
89.9997
 20
104.328
 30
0.000000
  70
    32
  0
VERTEX
  8
0
  5
1702
 10
89.9994
 20
104.342
 30
0.000000
  70
    32
  0
VERTEX
  8
0
  5
1703
 10
89.9989
 20
104.356
 30
0.000000
  70
    32
  0
VERTEX
  8
0
  5
1704
 10
89.9982
 20
104.369
 30
0.000000
  70
    32
  0
VERTEX
  8
0
  5
1705
 10
89.9975
 20
104.383
 30
0.000000
  70
    32
  0
VERTEX
  8
0
  5
1706
 10
89.9966
 20
104.397
 30
0.000000
  70
    32
  0
VERTEX
  8
0
  5
1707
 10
89.9955
 20
104.410
 30
0.000000
  70
    32
  0
VERTEX
  8
0
  5
1708
 10
89.9943
 20
104.424
 30
0.000000
  70
    32
  0
VERTEX
  8
0
  5
1709
 10
89.9930
 20
104.437
 30
0.000000
  70
    32
  0
VERTEX
  8
0
  5
170A
 10
89.9915
 20
104.451
 30
0.000000
  70
    32
  0
VERTEX
  8
0
  5
170B
 10
89.9899
 20
104.465
 30
0.000000
  70
    32
  0
VERTEX
  8
0
  5
170C
 10
89.9882
 20
104.478
 30
0.000000
  70
    32
  0
VERTEX
  8
0
  5
170D
 10
89.9863
 20
104.492
 30
0.000000
  70
    32
  0
VERTEX
  8
0
  5
170E
 10
89.9842
 20
104.506
 30
0.000000
  70
    32
  0
VERTEX
  8
0
  5
170F
 10
89.9821
 20
104.519
 30
0.000000
  70
    32
  0
VERTEX
  8
0
  5
1710
 10
89.9797
 20
104.533
 30
0.000000
  70
    32
  0
VERTEX
  8
0
  5
1711
 10
89.9773
 20
104.547
 30
0.000000
  70
    32
  0
VERTEX
  8
0
  5
1712
 10
89.9747
 20
104.560
 30
0.000000
  70
    32
  0
VERTEX
  8
0
  5
1713
 10
89.9720
 20
104.574
 30
0.000000
  70
    32
  0
VERTEX
  8
0
  5
1714
 10
89.9691
 20
104.587
 30
0.000000
  70
    32
  0
VERTEX
  8
0
  5
1715
 10
89.9661
 20
104.601
 30
0.000000
  70
    32
  0
VERTEX
  8
0
  5
1716
 10
89.9630
 20
104.614
 30
0.000000
  70
    32
  0
VERTEX
  8
0
  5
1717
 10
89.9597
 20
104.628
 30
0.000000
  70
    32
  0
VERTEX
  8
0
  5
1718
 10
89.9562
 20
104.641
 30
0.000000
  70
    32
  0
VERTEX
  8
0
  5
1719
 10
89.9527
 20
104.655
 30
0.000000
  70
    32
  0
VERTEX
  8
0
  5
171A
 10
89.9490
 20
104.669
 30
0.000000
  70
    32
  0
VERTEX
  8
0
  5
171B
 10
89.9451
 20
104.682
 30
0.000000
  70
    32
  0
VERTEX
  8
0
  5
171C
 10
89.9412
 20
104.695
 30
0.000000
  70
    32
  0
VERTEX
  8
0
  5
171D
 10
89.9370
 20
104.709
 30
0.000000
  70
    32
  0
VERTEX
  8
0
  5
171E
 10
89.9328
 20
104.722
 30
0.000000
  70
    32
  0
VERTEX
  8
0
  5
171F
 10
89.9284
 20
104.736
 30
0.000000
  70
    32
  0
VERTEX
  8
0
  5
1720
 10
89.9239
 20
104.749
 30
0.000000
  70
    32
  0
VERTEX
  8
0
  5
1721
 10
89.9192
 20
104.763
 30
0.000000
  70
    32
  0
VERTEX
  8
0
  5
1722
 10
89.9144
 20
104.776
 30
0.000000
  70
    32
  0
VERTEX
  8
0
  5
1723
 10
89.9094
 20
104.789
 30
0.000000
  70
    32
  0
VERTEX
  8
0
  5
1724
 10
89.9044
 20
104.803
 30
0.000000
  70
    32
  0
VERTEX
  8
0
  5
1725
 10
89.8991
 20
104.816
 30
0.000000
  70
    32
  0
VERTEX
  8
0
  5
1726
 10
89.8938
 20
104.829
 30
0.000000
  70
    32
  0
VERTEX
  8
0
  5
1727
 10
89.8883
 20
104.843
 30
0.000000
  70
    32
  0
VERTEX
  8
0
  5
1728
 10
89.8827
 20
104.856
 30
0.000000
  70
    32
  0
VERTEX
  8
0
  5
1729
 10
89.8769
 20
104.869
 30
0.000000
  70
    32
  0
VERTEX
  8
0
  5
172A
 10
89.8710
 20
104.883
 30
0.000000
  70
    32
  0
VERTEX
  8
0
  5
172B
 10
89.8650
 20
104.896
 30
0.000000
  70
    32
  0
VERTEX
  8
0
  5
172C
 10
89.8588
 20
104.909
 30
0.000000
  70
    32
  0
VERTEX
  8
0
  5
172D
 10
89.8525
 20
104.922
 30
0.000000
  70
    32
  0
VERTEX
  8
0
  5
172E
 10
89.8460
 20
104.935
 30
0.000000
  70
    32
  0
VERTEX
  8
0
  5
172F
 10
89.8395
 20
104.948
 30
0.000000
  70
    32
  0
VERTEX
  8
0
  5
1730
 10
89.8328
 20
104.962
 30
0.000000
  70
    32
  0
VERTEX
  8
0
  5
1731
 10
89.8259
 20
104.975
 30
0.000000
  70
    32
  0
VERTEX
  8
0
  5
1732
 10
89.8189
 20
104.988
 30
0.000000
  70
    32
  0
VERTEX
  8
0
  5
1733
 10
89.8118
 20
105.001
 30
0.000000
  70
    32
  0
VERTEX
  8
0
  5
1734
 10
89.8046
 20
105.014
 30
0.000000
  70
    32
  0
VERTEX
  8
0
  5
1735
 10
89.7972
 20
105.027
 30
0.000000
  70
    32
  0
VERTEX
  8
0
  5
1736
 10
89.7897
 20
105.040
 30
0.000000
  70
    32
  0
VERTEX
  8
0
  5
1737
 10
89.7820
 20
105.053
 30
0.000000
  70
    32
  0
VERTEX
  8
0
  5
1738
 10
89.7743
 20
105.066
 30
0.000000
  70
    32
  0
VERTEX
  8
0
  5
1739
 10
89.7663
 20
105.079
 30
0.000000
  70
    32
  0
VERTEX
  8
0
  5
173A
 10
89.7583
 20
105.091
 30
0.000000
  70
    32
  0
VERTEX
  8
0
  5
173B
 10
89.7501
 20
105.104
 30
0.000000
  70
    32
  0
VERTEX
  8
0
  5
173C
 10
89.7418
 20
105.117
 30
0.000000
  70
    32
  0
VERTEX
  8
0
  5
173D
 10
89.7334
 20
105.130
 30
0.000000
  70
    32
  0
VERTEX
  8
0
  5
173E
 10
89.7248
 20
105.143
 30
0.000000
  70
    32
  0
VERTEX
  8
0
  5
173F
 10
89.7161
 20
105.155
 30
0.000000
  70
    32
  0
VERTEX
  8
0
  5
1740
 10
89.7073
 20
105.168
 30
0.000000
  70
    32
  0
VERTEX
  8
0
  5
1741
 10
89.6983
 20
105.181
 30
0.000000
  70
    32
  0
VERTEX
  8
0
  5
1742
 10
89.6892
 20
105.193
 30
0.000000
  70
    32
  0
VERTEX
  8
0
  5
1743
 10
89.6800
 20
105.206
 30
0.000000
  70
    32
  0
VERTEX
  8
0
  5
1744
 10
89.6707
 20
105.218
 30
0.000000
  70
    32
  0
VERTEX
  8
0
  5
1745
 10
89.6612
 20
105.231
 30
0.000000
  70
    32
  0
VERTEX
  8
0
  5
1746
 10
89.6516
 20
105.243
 30
0.000000
  70
    32
  0
VERTEX
  8
0
  5
1747
 10
89.6418
 20
105.256
 30
0.000000
  70
    32
  0
VERTEX
  8
0
  5
1748
 10
89.6320
 20
105.268
 30
0.000000
  70
    32
  0
VERTEX
  8
0
  5
1749
 10
89.6220
 20
105.281
 30
0.000000
  70
    32
  0
VERTEX
  8
0
  5
174A
 10
89.6119
 20
105.293
 30
0.000000
  70
    32
  0
VERTEX
  8
0
  5
174B
 10
89.6016
 20
105.305
 30
0.000000
  70
    32
  0
VERTEX
  8
0
  5
174C
 10
89.5913
 20
105.318
 30
0.000000
  70
    32
  0
VERTEX
  8
0
  5
174D
 10
89.5808
 20
105.330
 30
0.000000
  70
    32
  0
VERTEX
  8
0
  5
174E
 10
89.5702
 20
105.342
 30
0.000000
  70
    32
  0
VERTEX
  8
0
  5
174F
 10
89.5594
 20
105.354
 30
0.000000
  70
    32
  0
VERTEX
  8
0
  5
1750
 10
89.5485
 20
105.367
 30
0.000000
  70
    32
  0
VERTEX
  8
0
  5
1751
 10
89.5375
 20
105.379
 30
0.000000
  70
    32
  0
VERTEX
  8
0
  5
1752
 10
89.5264
 20
105.391
 30
0.000000
  70
    32
  0
VERTEX
  8
0
  5
1753
 10
89.5152
 20
105.403
 30
0.000000
  70
    32
  0
VERTEX
  8
0
  5
1754
 10
89.5038
 20
105.415
 30
0.000000
  70
    32
  0
VERTEX
  8
0
  5
1755
 10
89.4923
 20
105.427
 30
0.000000
  70
    32
  0
VERTEX
  8
0
  5
1756
 10
89.4807
 20
105.439
 30
0.000000
  70
    32
  0
VERTEX
  8
0
  5
1757
 10
89.4690
 20
105.451
 30
0.000000
  70
    32
  0
VERTEX
  8
0
  5
1758
 10
89.4571
 20
105.462
 30
0.000000
  70
    32
  0
VERTEX
  8
0
  5
1759
 10
89.4452
 20
105.474
 30
0.000000
  70
    32
  0
VERTEX
  8
0
  5
175A
 10
89.4331
 20
105.486
 30
0.000000
  70
    32
  0
VERTEX
  8
0
  5
175B
 10
89.4208
 20
105.498
 30
0.000000
  70
    32
  0
VERTEX
  8
0
  5
175C
 10
89.4085
 20
105.509
 30
0.000000
  70
    32
  0
VERTEX
  8
0
  5
175D
 10
89.3960
 20
105.521
 30
0.000000
  70
    32
  0
VERTEX
  8
0
  5
175E
 10
89.3835
 20
105.533
 30
0.000000
  70
    32
  0
VERTEX
  8
0
  5
175F
 10
89.3708
 20
105.544
 30
0.000000
  70
    32
  0
VERTEX
  8
0
  5
1760
 10
89.3580
 20
105.556
 30
0.000000
  70
    32
  0
VERTEX
  8
0
  5
1761
 10
89.3450
 20
105.567
 30
0.000000
  70
    32
  0
VERTEX
  8
0
  5
1762
 10
89.3320
 20
105.579
 30
0.000000
  70
    32
  0
VERTEX
  8
0
  5
1763
 10
89.3188
 20
105.590
 30
0.000000
  70
    32
  0
VERTEX
  8
0
  5
1764
 10
89.3055
 20
105.601
 30
0.000000
  70
    32
  0
VERTEX
  8
0
  5
1765
 10
89.2921
 20
105.613
 30
0.000000
  70
    32
  0
VERTEX
  8
0
  5
1766
 10
89.2786
 20
105.624
 30
0.000000
  70
    32
  0
VERTEX
  8
0
  5
1767
 10
89.2650
 20
105.635
 30
0.000000
  70
    32
  0
VERTEX
  8
0
  5
1768
 10
89.2513
 20
105.646
 30
0.000000
  70
    32
  0
VERTEX
  8
0
  5
1769
 10
89.2374
 20
105.657
 30
0.000000
  70
    32
  0
VERTEX
  8
0
  5
176A
 10
89.2234
 20
105.668
 30
0.000000
  70
    32
  0
VERTEX
  8
0
  5
176B
 10
89.2093
 20
105.679
 30
0.000000
  70
    32
  0
VERTEX
  8
0
  5
176C
 10
89.1952
 20
105.690
 30
0.000000
  70
    32
  0
VERTEX
  8
0
  5
176D
 10
89.1808
 20
105.701
 30
0.000000
  70
    32
  0
VERTEX
  8
0
  5
176E
 10
89.1664
 20
105.712
 30
0.000000
  70
    32
  0
VERTEX
  8
0
  5
176F
 10
89.1519
 20
105.723
 30
0.000000
  70
    32
  0
VERTEX
  8
0
  5
1770
 10
89.1373
 20
105.733
 30
0.000000
  70
    32
  0
VERTEX
  8
0
  5
1771
 10
89.1225
 20
105.744
 30
0.000000
  70
    32
  0
VERTEX
  8
0
  5
1772
 10
89.1076
 20
105.755
 30
0.000000
  70
    32
  0
VERTEX
  8
0
  5
1773
 10
89.0927
 20
105.765
 30
0.000000
  70
    32
  0
VERTEX
  8
0
  5
1774
 10
89.0776
 20
105.776
 30
0.000000
  70
    32
  0
VERTEX
  8
0
  5
1775
 10
89.0624
 20
105.786
 30
0.000000
  70
    32
  0
VERTEX
  8
0
  5
1776
 10
89.0471
 20
105.797
 30
0.000000
  70
    32
  0
VERTEX
  8
0
  5
1777
 10
89.0317
 20
105.807
 30
0.000000
  70
    32
  0
VERTEX
  8
0
  5
1778
 10
89.0162
 20
105.818
 30
0.000000
  70
    32
  0
VERTEX
  8
0
  5
1779
 10
89.0006
 20
105.828
 30
0.000000
  70
    32
  0
VERTEX
  8
0
  5
177A
 10
88.9849
 20
105.838
 30
0.000000
  70
    32
  0
VERTEX
  8
0
  5
177B
 10
88.9691
 20
105.848
 30
0.000000
  70
    32
  0
VERTEX
  8
0
  5
177C
 10
88.9531
 20
105.858
 30
0.000000
  70
    32
  0
VERTEX
  8
0
  5
177D
 10
88.9371
 20
105.869
 30
0.000000
  70
    32
  0
VERTEX
  8
0
  5
177E
 10
88.9210
 20
105.879
 30
0.000000
  70
    32
  0
VERTEX
  8
0
  5
177F
 10
88.9047
 20
105.889
 30
0.000000
  70
    32
  0
SEQEND
  8
0
  5
1780
  0
POLYLINE
  5
B71
  8
0
 10
51.095262535395818
 20
105.8885183771492
 30
0.0
 66
     1
 70
     8
  0
VERTEX
  8
0
  5
1781
 10
51.0953
 20
105.889
 30
0.000000
  70
    32
  0
VERTEX
  8
0
  5
1782
 10
51.0790
 20
105.879
 30
0.000000
  70
    32
  0
VERTEX
  8
0
  5
1783
 10
51.0629
 20
105.869
 30
0.000000
  70
    32
  0
VERTEX
  8
0
  5
1784
 10
51.0469
 20
105.858
 30
0.000000
  70
    32
  0
VERTEX
  8
0
  5
1785
 10
51.0309
 20
105.848
 30
0.000000
  70
    32
  0
VERTEX
  8
0
  5
1786
 10
51.0151
 20
105.838
 30
0.000000
  70
    32
  0
VERTEX
  8
0
  5
1787
 10
50.9994
 20
105.828
 30
0.000000
  70
    32
  0
VERTEX
  8
0
  5
1788
 10
50.9838
 20
105.818
 30
0.000000
  70
    32
  0
VERTEX
  8
0
  5
1789
 10
50.9683
 20
105.807
 30
0.000000
  70
    32
  0
VERTEX
  8
0
  5
178A
 10
50.9529
 20
105.797
 30
0.000000
  70
    32
  0
VERTEX
  8
0
  5
178B
 10
50.9376
 20
105.786
 30
0.000000
  70
    32
  0
VERTEX
  8
0
  5
178C
 10
50.9224
 20
105.776
 30
0.000000
  70
    32
  0
VERTEX
  8
0
  5
178D
 10
50.9073
 20
105.765
 30
0.000000
  70
    32
  0
VERTEX
  8
0
  5
178E
 10
50.8924
 20
105.755
 30
0.000000
  70
    32
  0
VERTEX
  8
0
  5
178F
 10
50.8775
 20
105.744
 30
0.000000
  70
    32
  0
VERTEX
  8
0
  5
1790
 10
50.8627
 20
105.733
 30
0.000000
  70
    32
  0
VERTEX
  8
0
  5
1791
 10
50.8481
 20
105.723
 30
0.000000
  70
    32
  0
VERTEX
  8
0
  5
1792
 10
50.8336
 20
105.712
 30
0.000000
  70
    32
  0
VERTEX
  8
0
  5
1793
 10
50.8192
 20
105.701
 30
0.000000
  70
    32
  0
VERTEX
  8
0
  5
1794
 10
50.8048
 20
105.690
 30
0.000000
  70
    32
  0
VERTEX
  8
0
  5
1795
 10
50.7907
 20
105.679
 30
0.000000
  70
    32
  0
VERTEX
  8
0
  5
1796
 10
50.7766
 20
105.668
 30
0.000000
  70
    32
  0
VERTEX
  8
0
  5
1797
 10
50.7626
 20
105.657
 30
0.000000
  70
    32
  0
VERTEX
  8
0
  5
1798
 10
50.7487
 20
105.646
 30
0.000000
  70
    32
  0
VERTEX
  8
0
  5
1799
 10
50.7350
 20
105.635
 30
0.000000
  70
    32
  0
VERTEX
  8
0
  5
179A
 10
50.7214
 20
105.624
 30
0.000000
  70
    32
  0
VERTEX
  8
0
  5
179B
 10
50.7079
 20
105.613
 30
0.000000
  70
    32
  0
VERTEX
  8
0
  5
179C
 10
50.6945
 20
105.601
 30
0.000000
  70
    32
  0
VERTEX
  8
0
  5
179D
 10
50.6812
 20
105.590
 30
0.000000
  70
    32
  0
VERTEX
  8
0
  5
179E
 10
50.6680
 20
105.579
 30
0.000000
  70
    32
  0
VERTEX
  8
0
  5
179F
 10
50.6550
 20
105.567
 30
0.000000
  70
    32
  0
VERTEX
  8
0
  5
17A0
 10
50.6420
 20
105.556
 30
0.000000
  70
    32
  0
VERTEX
  8
0
  5
17A1
 10
50.6292
 20
105.544
 30
0.000000
  70
    32
  0
VERTEX
  8
0
  5
17A2
 10
50.6165
 20
105.533
 30
0.000000
  70
    32
  0
VERTEX
  8
0
  5
17A3
 10
50.6040
 20
105.521
 30
0.000000
  70
    32
  0
VERTEX
  8
0
  5
17A4
 10
50.5915
 20
105.509
 30
0.000000
  70
    32
  0
VERTEX
  8
0
  5
17A5
 10
50.5792
 20
105.498
 30
0.000000
  70
    32
  0
VERTEX
  8
0
  5
17A6
 10
50.5669
 20
105.486
 30
0.000000
  70
    32
  0
VERTEX
  8
0
  5
17A7
 10
50.5548
 20
105.474
 30
0.000000
  70
    32
  0
VERTEX
  8
0
  5
17A8
 10
50.5429
 20
105.462
 30
0.000000
  70
    32
  0
VERTEX
  8
0
  5
17A9
 10
50.5310
 20
105.451
 30
0.000000
  70
    32
  0
VERTEX
  8
0
  5
17AA
 10
50.5193
 20
105.439
 30
0.000000
  70
    32
  0
VERTEX
  8
0
  5
17AB
 10
50.5077
 20
105.427
 30
0.000000
  70
    32
  0
VERTEX
  8
0
  5
17AC
 10
50.4962
 20
105.415
 30
0.000000
  70
    32
  0
VERTEX
  8
0
  5
17AD
 10
50.4848
 20
105.403
 30
0.000000
  70
    32
  0
VERTEX
  8
0
  5
17AE
 10
50.4736
 20
105.391
 30
0.000000
  70
    32
  0
VERTEX
  8
0
  5
17AF
 10
50.4625
 20
105.379
 30
0.000000
  70
    32
  0
VERTEX
  8
0
  5
17B0
 10
50.4515
 20
105.367
 30
0.000000
  70
    32
  0
VERTEX
  8
0
  5
17B1
 10
50.4406
 20
105.354
 30
0.000000
  70
    32
  0
VERTEX
  8
0
  5
17B2
 10
50.4298
 20
105.342
 30
0.000000
  70
    32
  0
VERTEX
  8
0
  5
17B3
 10
50.4192
 20
105.330
 30
0.000000
  70
    32
  0
VERTEX
  8
0
  5
17B4
 10
50.4087
 20
105.318
 30
0.000000
  70
    32
  0
VERTEX
  8
0
  5
17B5
 10
50.3984
 20
105.305
 30
0.000000
  70
    32
  0
VERTEX
  8
0
  5
17B6
 10
50.3881
 20
105.293
 30
0.000000
  70
    32
  0
VERTEX
  8
0
  5
17B7
 10
50.3780
 20
105.281
 30
0.000000
  70
    32
  0
VERTEX
  8
0
  5
17B8
 10
50.3680
 20
105.268
 30
0.000000
  70
    32
  0
VERTEX
  8
0
  5
17B9
 10
50.3582
 20
105.256
 30
0.000000
  70
    32
  0
VERTEX
  8
0
  5
17BA
 10
50.3484
 20
105.243
 30
0.000000
  70
    32
  0
VERTEX
  8
0
  5
17BB
 10
50.3388
 20
105.231
 30
0.000000
  70
    32
  0
VERTEX
  8
0
  5
17BC
 10
50.3293
 20
105.218
 30
0.000000
  70
    32
  0
VERTEX
  8
0
  5
17BD
 10
50.3200
 20
105.206
 30
0.000000
  70
    32
  0
VERTEX
  8
0
  5
17BE
 10
50.3108
 20
105.193
 30
0.000000
  70
    32
  0
VERTEX
  8
0
  5
17BF
 10
50.3017
 20
105.181
 30
0.000000
  70
    32
  0
VERTEX
  8
0
  5
17C0
 10
50.2927
 20
105.168
 30
0.000000
  70
    32
  0
VERTEX
  8
0
  5
17C1
 10
50.2839
 20
105.155
 30
0.000000
  70
    32
  0
VERTEX
  8
0
  5
17C2
 10
50.2752
 20
105.143
 30
0.000000
  70
    32
  0
VERTEX
  8
0
  5
17C3
 10
50.2666
 20
105.130
 30
0.000000
  70
    32
  0
VERTEX
  8
0
  5
17C4
 10
50.2582
 20
105.117
 30
0.000000
  70
    32
  0
VERTEX
  8
0
  5
17C5
 10
50.2499
 20
105.104
 30
0.000000
  70
    32
  0
VERTEX
  8
0
  5
17C6
 10
50.2417
 20
105.091
 30
0.000000
  70
    32
  0
VERTEX
  8
0
  5
17C7
 10
50.2337
 20
105.079
 30
0.000000
  70
    32
  0
VERTEX
  8
0
  5
17C8
 10
50.2257
 20
105.066
 30
0.000000
  70
    32
  0
VERTEX
  8
0
  5
17C9
 10
50.2180
 20
105.053
 30
0.000000
  70
    32
  0
VERTEX
  8
0
  5
17CA
 10
50.2103
 20
105.040
 30
0.000000
  70
    32
  0
VERTEX
  8
0
  5
17CB
 10
50.2028
 20
105.027
 30
0.000000
  70
    32
  0
VERTEX
  8
0
  5
17CC
 10
50.1954
 20
105.014
 30
0.000000
  70
    32
  0
VERTEX
  8
0
  5
17CD
 10
50.1882
 20
105.001
 30
0.000000
  70
    32
  0
VERTEX
  8
0
  5
17CE
 10
50.1811
 20
104.988
 30
0.000000
  70
    32
  0
VERTEX
  8
0
  5
17CF
 10
50.1741
 20
104.975
 30
0.000000
  70
    32
  0
VERTEX
  8
0
  5
17D0
 10
50.1672
 20
104.962
 30
0.000000
  70
    32
  0
VERTEX
  8
0
  5
17D1
 10
50.1605
 20
104.948
 30
0.000000
  70
    32
  0
VERTEX
  8
0
  5
17D2
 10
50.1540
 20
104.935
 30
0.000000
  70
    32
  0
VERTEX
  8
0
  5
17D3
 10
50.1475
 20
104.922
 30
0.000000
  70
    32
  0
VERTEX
  8
0
  5
17D4
 10
50.1412
 20
104.909
 30
0.000000
  70
    32
  0
VERTEX
  8
0
  5
17D5
 10
50.1350
 20
104.896
 30
0.000000
  70
    32
  0
VERTEX
  8
0
  5
17D6
 10
50.1290
 20
104.883
 30
0.000000
  70
    32
  0
VERTEX
  8
0
  5
17D7
 10
50.1231
 20
104.869
 30
0.000000
  70
    32
  0
VERTEX
  8
0
  5
17D8
 10
50.1173
 20
104.856
 30
0.000000
  70
    32
  0
VERTEX
  8
0
  5
17D9
 10
50.1117
 20
104.843
 30
0.000000
  70
    32
  0
VERTEX
  8
0
  5
17DA
 10
50.1062
 20
104.829
 30
0.000000
  70
    32
  0
VERTEX
  8
0
  5
17DB
 10
50.1009
 20
104.816
 30
0.000000
  70
    32
  0
VERTEX
  8
0
  5
17DC
 10
50.0956
 20
104.803
 30
0.000000
  70
    32
  0
VERTEX
  8
0
  5
17DD
 10
50.0906
 20
104.789
 30
0.000000
  70
    32
  0
VERTEX
  8
0
  5
17DE
 10
50.0856
 20
104.776
 30
0.000000
  70
    32
  0
VERTEX
  8
0
  5
17DF
 10
50.0808
 20
104.763
 30
0.000000
  70
    32
  0
VERTEX
  8
0
  5
17E0
 10
50.0761
 20
104.749
 30
0.000000
  70
    32
  0
VERTEX
  8
0
  5
17E1
 10
50.0716
 20
104.736
 30
0.000000
  70
    32
  0
VERTEX
  8
0
  5
17E2
 10
50.0672
 20
104.722
 30
0.000000
  70
    32
  0
VERTEX
  8
0
  5
17E3
 10
50.0630
 20
104.709
 30
0.000000
  70
    32
  0
VERTEX
  8
0
  5
17E4
 10
50.0588
 20
104.695
 30
0.000000
  70
    32
  0
VERTEX
  8
0
  5
17E5
 10
50.0549
 20
104.682
 30
0.000000
  70
    32
  0
VERTEX
  8
0
  5
17E6
 10
50.0510
 20
104.669
 30
0.000000
  70
    32
  0
VERTEX
  8
0
  5
17E7
 10
50.0473
 20
104.655
 30
0.000000
  70
    32
  0
VERTEX
  8
0
  5
17E8
 10
50.0438
 20
104.641
 30
0.000000
  70
    32
  0
VERTEX
  8
0
  5
17E9
 10
50.0403
 20
104.628
 30
0.000000
  70
    32
  0
VERTEX
  8
0
  5
17EA
 10
50.0370
 20
104.614
 30
0.000000
  70
    32
  0
VERTEX
  8
0
  5
17EB
 10
50.0339
 20
104.601
 30
0.000000
  70
    32
  0
VERTEX
  8
0
  5
17EC
 10
50.0309
 20
104.587
 30
0.000000
  70
    32
  0
VERTEX
  8
0
  5
17ED
 10
50.0280
 20
104.574
 30
0.000000
  70
    32
  0
VERTEX
  8
0
  5
17EE
 10
50.0253
 20
104.560
 30
0.000000
  70
    32
  0
VERTEX
  8
0
  5
17EF
 10
50.0227
 20
104.547
 30
0.000000
  70
    32
  0
VERTEX
  8
0
  5
17F0
 10
50.0203
 20
104.533
 30
0.000000
  70
    32
  0
VERTEX
  8
0
  5
17F1
 10
50.0179
 20
104.519
 30
0.000000
  70
    32
  0
VERTEX
  8
0
  5
17F2
 10
50.0158
 20
104.506
 30
0.000000
  70
    32
  0
VERTEX
  8
0
  5
17F3
 10
50.0137
 20
104.492
 30
0.000000
  70
    32
  0
VERTEX
  8
0
  5
17F4
 10
50.0118
 20
104.478
 30
0.000000
  70
    32
  0
VERTEX
  8
0
  5
17F5
 10
50.0101
 20
104.465
 30
0.000000
  70
    32
  0
VERTEX
  8
0
  5
17F6
 10
50.0085
 20
104.451
 30
0.000000
  70
    32
  0
VERTEX
  8
0
  5
17F7
 10
50.0070
 20
104.437
 30
0.000000
  70
    32
  0
VERTEX
  8
0
  5
17F8
 10
50.0057
 20
104.424
 30
0.000000
  70
    32
  0
VERTEX
  8
0
  5
17F9
 10
50.0045
 20
104.410
 30
0.000000
  70
    32
  0
VERTEX
  8
0
  5
17FA
 10
50.0034
 20
104.397
 30
0.000000
  70
    32
  0
VERTEX
  8
0
  5
17FB
 10
50.0025
 20
104.383
 30
0.000000
  70
    32
  0
VERTEX
  8
0
  5
17FC
 10
50.0018
 20
104.369
 30
0.000000
  70
    32
  0
VERTEX
  8
0
  5
17FD
 10
50.0011
 20
104.356
 30
0.000000
  70
    32
  0
VERTEX
  8
0
  5
17FE
 10
50.0006
 20
104.342
 30
0.000000
  70
    32
  0
VERTEX
  8
0
  5
17FF
 10
50.0003
 20
104.328
 30
0.000000
  70
    32
  0
VERTEX
  8
0
  5
1800
 10
50.0001
 20
104.314
 30
0.000000
  70
    32
  0
VERTEX
  8
0
  5
1801
 10
50.0000
 20
104.301
 30
0.000000
  70
    32
  0
SEQEND
  8
0
  5
1802
  0
POLYLINE
  5
B72
  8
0
 10
88.904737464604125
 20
113.97142194720129
 30
0.0
 66
     1
 70
     8
  0
VERTEX
  8
0
  5
1803
 10
88.9047
 20
113.971
 30
0.000000
  70
    32
  0
VERTEX
  8
0
  5
1804
 10
88.9210
 20
113.981
 30
0.000000
  70
    32
  0
VERTEX
  8
0
  5
1805
 10
88.9371
 20
113.991
 30
0.000000
  70
    32
  0
VERTEX
  8
0
  5
1806
 10
88.9531
 20
114.001
 30
0.000000
  70
    32
  0
VERTEX
  8
0
  5
1807
 10
88.9691
 20
114.012
 30
0.000000
  70
    32
  0
VERTEX
  8
0
  5
1808
 10
88.9849
 20
114.022
 30
0.000000
  70
    32
  0
VERTEX
  8
0
  5
1809
 10
89.0006
 20
114.032
 30
0.000000
  70
    32
  0
VERTEX
  8
0
  5
180A
 10
89.0162
 20
114.042
 30
0.000000
  70
    32
  0
VERTEX
  8
0
  5
180B
 10
89.0317
 20
114.053
 30
0.000000
  70
    32
  0
VERTEX
  8
0
  5
180C
 10
89.0471
 20
114.063
 30
0.000000
  70
    32
  0
VERTEX
  8
0
  5
180D
 10
89.0624
 20
114.073
 30
0.000000
  70
    32
  0
VERTEX
  8
0
  5
180E
 10
89.0776
 20
114.084
 30
0.000000
  70
    32
  0
VERTEX
  8
0
  5
180F
 10
89.0927
 20
114.095
 30
0.000000
  70
    32
  0
VERTEX
  8
0
  5
1810
 10
89.1076
 20
114.105
 30
0.000000
  70
    32
  0
VERTEX
  8
0
  5
1811
 10
89.1225
 20
114.116
 30
0.000000
  70
    32
  0
VERTEX
  8
0
  5
1812
 10
89.1373
 20
114.126
 30
0.000000
  70
    32
  0
VERTEX
  8
0
  5
1813
 10
89.1519
 20
114.137
 30
0.000000
  70
    32
  0
VERTEX
  8
0
  5
1814
 10
89.1664
 20
114.148
 30
0.000000
  70
    32
  0
VERTEX
  8
0
  5
1815
 10
89.1808
 20
114.159
 30
0.000000
  70
    32
  0
VERTEX
  8
0
  5
1816
 10
89.1952
 20
114.170
 30
0.000000
  70
    32
  0
VERTEX
  8
0
  5
1817
 10
89.2093
 20
114.181
 30
0.000000
  70
    32
  0
VERTEX
  8
0
  5
1818
 10
89.2234
 20
114.192
 30
0.000000
  70
    32
  0
VERTEX
  8
0
  5
1819
 10
89.2374
 20
114.203
 30
0.000000
  70
    32
  0
VERTEX
  8
0
  5
181A
 10
89.2513
 20
114.214
 30
0.000000
  70
    32
  0
VERTEX
  8
0
  5
181B
 10
89.2650
 20
114.225
 30
0.000000
  70
    32
  0
VERTEX
  8
0
  5
181C
 10
89.2786
 20
114.236
 30
0.000000
  70
    32
  0
VERTEX
  8
0
  5
181D
 10
89.2921
 20
114.247
 30
0.000000
  70
    32
  0
VERTEX
  8
0
  5
181E
 10
89.3055
 20
114.259
 30
0.000000
  70
    32
  0
VERTEX
  8
0
  5
181F
 10
89.3188
 20
114.270
 30
0.000000
  70
    32
  0
VERTEX
  8
0
  5
1820
 10
89.3320
 20
114.281
 30
0.000000
  70
    32
  0
VERTEX
  8
0
  5
1821
 10
89.3450
 20
114.293
 30
0.000000
  70
    32
  0
VERTEX
  8
0
  5
1822
 10
89.3580
 20
114.304
 30
0.000000
  70
    32
  0
VERTEX
  8
0
  5
1823
 10
89.3708
 20
114.316
 30
0.000000
  70
    32
  0
VERTEX
  8
0
  5
1824
 10
89.3835
 20
114.327
 30
0.000000
  70
    32
  0
VERTEX
  8
0
  5
1825
 10
89.3960
 20
114.339
 30
0.000000
  70
    32
  0
VERTEX
  8
0
  5
1826
 10
89.4085
 20
114.351
 30
0.000000
  70
    32
  0
VERTEX
  8
0
  5
1827
 10
89.4208
 20
114.362
 30
0.000000
  70
    32
  0
VERTEX
  8
0
  5
1828
 10
89.4331
 20
114.374
 30
0.000000
  70
    32
  0
VERTEX
  8
0
  5
1829
 10
89.4452
 20
114.386
 30
0.000000
  70
    32
  0
VERTEX
  8
0
  5
182A
 10
89.4571
 20
114.397
 30
0.000000
  70
    32
  0
VERTEX
  8
0
  5
182B
 10
89.4690
 20
114.409
 30
0.000000
  70
    32
  0
VERTEX
  8
0
  5
182C
 10
89.4807
 20
114.421
 30
0.000000
  70
    32
  0
VERTEX
  8
0
  5
182D
 10
89.4923
 20
114.433
 30
0.000000
  70
    32
  0
VERTEX
  8
0
  5
182E
 10
89.5038
 20
114.445
 30
0.000000
  70
    32
  0
VERTEX
  8
0
  5
182F
 10
89.5152
 20
114.457
 30
0.000000
  70
    32
  0
VERTEX
  8
0
  5
1830
 10
89.5264
 20
114.469
 30
0.000000
  70
    32
  0
VERTEX
  8
0
  5
1831
 10
89.5375
 20
114.481
 30
0.000000
  70
    32
  0
VERTEX
  8
0
  5
1832
 10
89.5485
 20
114.493
 30
0.000000
  70
    32
  0
VERTEX
  8
0
  5
1833
 10
89.5594
 20
114.505
 30
0.000000
  70
    32
  0
VERTEX
  8
0
  5
1834
 10
89.5702
 20
114.518
 30
0.000000
  70
    32
  0
VERTEX
  8
0
  5
1835
 10
89.5808
 20
114.530
 30
0.000000
  70
    32
  0
VERTEX
  8
0
  5
1836
 10
89.5913
 20
114.542
 30
0.000000
  70
    32
  0
VERTEX
  8
0
  5
1837
 10
89.6016
 20
114.554
 30
0.000000
  70
    32
  0
VERTEX
  8
0
  5
1838
 10
89.6119
 20
114.567
 30
0.000000
  70
    32
  0
VERTEX
  8
0
  5
1839
 10
89.6220
 20
114.579
 30
0.000000
  70
    32
  0
VERTEX
  8
0
  5
183A
 10
89.6320
 20
114.592
 30
0.000000
  70
    32
  0
VERTEX
  8
0
  5
183B
 10
89.6418
 20
114.604
 30
0.000000
  70
    32
  0
VERTEX
  8
0
  5
183C
 10
89.6516
 20
114.616
 30
0.000000
  70
    32
  0
VERTEX
  8
0
  5
183D
 10
89.6612
 20
114.629
 30
0.000000
  70
    32
  0
VERTEX
  8
0
  5
183E
 10
89.6707
 20
114.641
 30
0.000000
  70
    32
  0
VERTEX
  8
0
  5
183F
 10
89.6800
 20
114.654
 30
0.000000
  70
    32
  0
VERTEX
  8
0
  5
1840
 10
89.6892
 20
114.667
 30
0.000000
  70
    32
  0
VERTEX
  8
0
  5
1841
 10
89.6983
 20
114.679
 30
0.000000
  70
    32
  0
VERTEX
  8
0
  5
1842
 10
89.7073
 20
114.692
 30
0.000000
  70
    32
  0
VERTEX
  8
0
  5
1843
 10
89.7161
 20
114.705
 30
0.000000
  70
    32
  0
VERTEX
  8
0
  5
1844
 10
89.7248
 20
114.717
 30
0.000000
  70
    32
  0
VERTEX
  8
0
  5
1845
 10
89.7334
 20
114.730
 30
0.000000
  70
    32
  0
VERTEX
  8
0
  5
1846
 10
89.7418
 20
114.743
 30
0.000000
  70
    32
  0
VERTEX
  8
0
  5
1847
 10
89.7501
 20
114.756
 30
0.000000
  70
    32
  0
VERTEX
  8
0
  5
1848
 10
89.7583
 20
114.769
 30
0.000000
  70
    32
  0
VERTEX
  8
0
  5
1849
 10
89.7663
 20
114.781
 30
0.000000
  70
    32
  0
VERTEX
  8
0
  5
184A
 10
89.7743
 20
114.794
 30
0.000000
  70
    32
  0
VERTEX
  8
0
  5
184B
 10
89.7820
 20
114.807
 30
0.000000
  70
    32
  0
VERTEX
  8
0
  5
184C
 10
89.7897
 20
114.820
 30
0.000000
  70
    32
  0
VERTEX
  8
0
  5
184D
 10
89.7972
 20
114.833
 30
0.000000
  70
    32
  0
VERTEX
  8
0
  5
184E
 10
89.8046
 20
114.846
 30
0.000000
  70
    32
  0
VERTEX
  8
0
  5
184F
 10
89.8118
 20
114.859
 30
0.000000
  70
    32
  0
VERTEX
  8
0
  5
1850
 10
89.8189
 20
114.872
 30
0.000000
  70
    32
  0
VERTEX
  8
0
  5
1851
 10
89.8259
 20
114.885
 30
0.000000
  70
    32
  0
VERTEX
  8
0
  5
1852
 10
89.8328
 20
114.898
 30
0.000000
  70
    32
  0
VERTEX
  8
0
  5
1853
 10
89.8395
 20
114.911
 30
0.000000
  70
    32
  0
VERTEX
  8
0
  5
1854
 10
89.8460
 20
114.925
 30
0.000000
  70
    32
  0
VERTEX
  8
0
  5
1855
 10
89.8525
 20
114.938
 30
0.000000
  70
    32
  0
VERTEX
  8
0
  5
1856
 10
89.8588
 20
114.951
 30
0.000000
  70
    32
  0
VERTEX
  8
0
  5
1857
 10
89.8650
 20
114.964
 30
0.000000
  70
    32
  0
VERTEX
  8
0
  5
1858
 10
89.8710
 20
114.977
 30
0.000000
  70
    32
  0
VERTEX
  8
0
  5
1859
 10
89.8769
 20
114.991
 30
0.000000
  70
    32
  0
VERTEX
  8
0
  5
185A
 10
89.8827
 20
115.004
 30
0.000000
  70
    32
  0
VERTEX
  8
0
  5
185B
 10
89.8883
 20
115.017
 30
0.000000
  70
    32
  0
VERTEX
  8
0
  5
185C
 10
89.8938
 20
115.030
 30
0.000000
  70
    32
  0
VERTEX
  8
0
  5
185D
 10
89.8991
 20
115.044
 30
0.000000
  70
    32
  0
VERTEX
  8
0
  5
185E
 10
89.9044
 20
115.057
 30
0.000000
  70
    32
  0
VERTEX
  8
0
  5
185F
 10
89.9094
 20
115.070
 30
0.000000
  70
    32
  0
VERTEX
  8
0
  5
1860
 10
89.9144
 20
115.084
 30
0.000000
  70
    32
  0
VERTEX
  8
0
  5
1861
 10
89.9192
 20
115.097
 30
0.000000
  70
    32
  0
VERTEX
  8
0
  5
1862
 10
89.9239
 20
115.111
 30
0.000000
  70
    32
  0
VERTEX
  8
0
  5
1863
 10
89.9284
 20
115.124
 30
0.000000
  70
    32
  0
VERTEX
  8
0
  5
1864
 10
89.9328
 20
115.138
 30
0.000000
  70
    32
  0
VERTEX
  8
0
  5
1865
 10
89.9370
 20
115.151
 30
0.000000
  70
    32
  0
VERTEX
  8
0
  5
1866
 10
89.9412
 20
115.164
 30
0.000000
  70
    32
  0
VERTEX
  8
0
  5
1867
 10
89.9451
 20
115.178
 30
0.000000
  70
    32
  0
VERTEX
  8
0
  5
1868
 10
89.9490
 20
115.191
 30
0.000000
  70
    32
  0
VERTEX
  8
0
  5
1869
 10
89.9527
 20
115.205
 30
0.000000
  70
    32
  0
VERTEX
  8
0
  5
186A
 10
89.9562
 20
115.218
 30
0.000000
  70
    32
  0
VERTEX
  8
0
  5
186B
 10
89.9597
 20
115.232
 30
0.000000
  70
    32
  0
VERTEX
  8
0
  5
186C
 10
89.9630
 20
115.246
 30
0.000000
  70
    32
  0
VERTEX
  8
0
  5
186D
 10
89.9661
 20
115.259
 30
0.000000
  70
    32
  0
VERTEX
  8
0
  5
186E
 10
89.9691
 20
115.273
 30
0.000000
  70
    32
  0
VERTEX
  8
0
  5
186F
 10
89.9720
 20
115.286
 30
0.000000
  70
    32
  0
VERTEX
  8
0
  5
1870
 10
89.9747
 20
115.300
 30
0.000000
  70
    32
  0
VERTEX
  8
0
  5
1871
 10
89.9773
 20
115.313
 30
0.000000
  70
    32
  0
VERTEX
  8
0
  5
1872
 10
89.9797
 20
115.327
 30
0.000000
  70
    32
  0
VERTEX
  8
0
  5
1873
 10
89.9821
 20
115.341
 30
0.000000
  70
    32
  0
VERTEX
  8
0
  5
1874
 10
89.9842
 20
115.354
 30
0.000000
  70
    32
  0
VERTEX
  8
0
  5
1875
 10
89.9863
 20
115.368
 30
0.000000
  70
    32
  0
VERTEX
  8
0
  5
1876
 10
89.9882
 20
115.382
 30
0.000000
  70
    32
  0
VERTEX
  8
0
  5
1877
 10
89.9899
 20
115.395
 30
0.000000
  70
    32
  0
VERTEX
  8
0
  5
1878
 10
89.9915
 20
115.409
 30
0.000000
  70
    32
  0
VERTEX
  8
0
  5
1879
 10
89.9930
 20
115.422
 30
0.000000
  70
    32
  0
VERTEX
  8
0
  5
187A
 10
89.9943
 20
115.436
 30
0.000000
  70
    32
  0
VERTEX
  8
0
  5
187B
 10
89.9955
 20
115.450
 30
0.000000
  70
    32
  0
VERTEX
  8
0
  5
187C
 10
89.9966
 20
115.463
 30
0.000000
  70
    32
  0
VERTEX
  8
0
  5
187D
 10
89.9975
 20
115.477
 30
0.000000
  70
    32
  0
VERTEX
  8
0
  5
187E
 10
89.9982
 20
115.491
 30
0.000000
  70
    32
  0
VERTEX
  8
0
  5
187F
 10
89.9989
 20
115.504
 30
0.000000
  70
    32
  0
VERTEX
  8
0
  5
1880
 10
89.9994
 20
115.518
 30
0.000000
  70
    32
  0
VERTEX
  8
0
  5
1881
 10
89.9997
 20
115.532
 30
0.000000
  70
    32
  0
VERTEX
  8
0
  5
1882
 10
89.9999
 20
115.545
 30
0.000000
  70
    32
  0
VERTEX
  8
0
  5
1883
 10
90.0000
 20
115.559
 30
0.000000
  70
    32
  0
SEQEND
  8
0
  5
1884
  0
POLYLINE
  5
B73
  8
0
 10
49.999999999999972
 20
115.55913516217529
 30
0.0
 66
     1
 70
     8
  0
VERTEX
  8
0
  5
1885
 10
50.0000
 20
115.559
 30
0.000000
  70
    32
  0
VERTEX
  8
0
  5
1886
 10
50.0001
 20
115.545
 30
0.000000
  70
    32
  0
VERTEX
  8
0
  5
1887
 10
50.0003
 20
115.532
 30
0.000000
  70
    32
  0
VERTEX
  8
0
  5
1888
 10
50.0006
 20
115.518
 30
0.000000
  70
    32
  0
VERTEX
  8
0
  5
1889
 10
50.0011
 20
115.504
 30
0.000000
  70
    32
  0
VERTEX
  8
0
  5
188A
 10
50.0018
 20
115.491
 30
0.000000
  70
    32
  0
VERTEX
  8
0
  5
188B
 10
50.0025
 20
115.477
 30
0.000000
  70
    32
  0
VERTEX
  8
0
  5
188C
 10
50.0034
 20
115.463
 30
0.000000
  70
    32
  0
VERTEX
  8
0
  5
188D
 10
50.0045
 20
115.450
 30
0.000000
  70
    32
  0
VERTEX
  8
0
  5
188E
 10
50.0057
 20
115.436
 30
0.000000
  70
    32
  0
VERTEX
  8
0
  5
188F
 10
50.0070
 20
115.422
 30
0.000000
  70
    32
  0
VERTEX
  8
0
  5
1890
 10
50.0085
 20
115.409
 30
0.000000
  70
    32
  0
VERTEX
  8
0
  5
1891
 10
50.0101
 20
115.395
 30
0.000000
  70
    32
  0
VERTEX
  8
0
  5
1892
 10
50.0118
 20
115.382
 30
0.000000
  70
    32
  0
VERTEX
  8
0
  5
1893
 10
50.0137
 20
115.368
 30
0.000000
  70
    32
  0
VERTEX
  8
0
  5
1894
 10
50.0158
 20
115.354
 30
0.000000
  70
    32
  0
VERTEX
  8
0
  5
1895
 10
50.0179
 20
115.341
 30
0.000000
  70
    32
  0
VERTEX
  8
0
  5
1896
 10
50.0203
 20
115.327
 30
0.000000
  70
    32
  0
VERTEX
  8
0
  5
1897
 10
50.0227
 20
115.313
 30
0.000000
  70
    32
  0
VERTEX
  8
0
  5
1898
 10
50.0253
 20
115.300
 30
0.000000
  70
    32
  0
VERTEX
  8
0
  5
1899
 10
50.0280
 20
115.286
 30
0.000000
  70
    32
  0
VERTEX
  8
0
  5
189A
 10
50.0309
 20
115.273
 30
0.000000
  70
    32
  0
VERTEX
  8
0
  5
189B
 10
50.0339
 20
115.259
 30
0.000000
  70
    32
  0
VERTEX
  8
0
  5
189C
 10
50.0370
 20
115.246
 30
0.000000
  70
    32
  0
VERTEX
  8
0
  5
189D
 10
50.0403
 20
115.232
 30
0.000000
  70
    32
  0
VERTEX
  8
0
  5
189E
 10
50.0438
 20
115.218
 30
0.000000
  70
    32
  0
VERTEX
  8
0
  5
189F
 10
50.0473
 20
115.205
 30
0.000000
  70
    32
  0
VERTEX
  8
0
  5
18A0
 10
50.0510
 20
115.191
 30
0.000000
  70
    32
  0
VERTEX
  8
0
  5
18A1
 10
50.0549
 20
115.178
 30
0.000000
  70
    32
  0
VERTEX
  8
0
  5
18A2
 10
50.0588
 20
115.164
 30
0.000000
  70
    32
  0
VERTEX
  8
0
  5
18A3
 10
50.0630
 20
115.151
 30
0.000000
  70
    32
  0
VERTEX
  8
0
  5
18A4
 10
50.0672
 20
115.138
 30
0.000000
  70
    32
  0
VERTEX
  8
0
  5
18A5
 10
50.0716
 20
115.124
 30
0.000000
  70
    32
  0
VERTEX
  8
0
  5
18A6
 10
50.0761
 20
115.111
 30
0.000000
  70
    32
  0
VERTEX
  8
0
  5
18A7
 10
50.0808
 20
115.097
 30
0.000000
  70
    32
  0
VERTEX
  8
0
  5
18A8
 10
50.0856
 20
115.084
 30
0.000000
  70
    32
  0
VERTEX
  8
0
  5
18A9
 10
50.0906
 20
115.070
 30
0.000000
  70
    32
  0
VERTEX
  8
0
  5
18AA
 10
50.0956
 20
115.057
 30
0.000000
  70
    32
  0
VERTEX
  8
0
  5
18AB
 10
50.1009
 20
115.044
 30
0.000000
  70
    32
  0
VERTEX
  8
0
  5
18AC
 10
50.1062
 20
115.030
 30
0.000000
  70
    32
  0
VERTEX
  8
0
  5
18AD
 10
50.1117
 20
115.017
 30
0.000000
  70
    32
  0
VERTEX
  8
0
  5
18AE
 10
50.1173
 20
115.004
 30
0.000000
  70
    32
  0
VERTEX
  8
0
  5
18AF
 10
50.1231
 20
114.991
 30
0.000000
  70
    32
  0
VERTEX
  8
0
  5
18B0
 10
50.1290
 20
114.977
 30
0.000000
  70
    32
  0
VERTEX
  8
0
  5
18B1
 10
50.1350
 20
114.964
 30
0.000000
  70
    32
  0
VERTEX
  8
0
  5
18B2
 10
50.1412
 20
114.951
 30
0.000000
  70
    32
  0
VERTEX
  8
0
  5
18B3
 10
50.1475
 20
114.938
 30
0.000000
  70
    32
  0
VERTEX
  8
0
  5
18B4
 10
50.1540
 20
114.925
 30
0.000000
  70
    32
  0
VERTEX
  8
0
  5
18B5
 10
50.1605
 20
114.911
 30
0.000000
  70
    32
  0
VERTEX
  8
0
  5
18B6
 10
50.1672
 20
114.898
 30
0.000000
  70
    32
  0
VERTEX
  8
0
  5
18B7
 10
50.1741
 20
114.885
 30
0.000000
  70
    32
  0
VERTEX
  8
0
  5
18B8
 10
50.1811
 20
114.872
 30
0.000000
  70
    32
  0
VERTEX
  8
0
  5
18B9
 10
50.1882
 20
114.859
 30
0.000000
  70
    32
  0
VERTEX
  8
0
  5
18BA
 10
50.1954
 20
114.846
 30
0.000000
  70
    32
  0
VERTEX
  8
0
  5
18BB
 10
50.2028
 20
114.833
 30
0.000000
  70
    32
  0
VERTEX
  8
0
  5
18BC
 10
50.2103
 20
114.820
 30
0.000000
  70
    32
  0
VERTEX
  8
0
  5
18BD
 10
50.2180
 20
114.807
 30
0.000000
  70
    32
  0
VERTEX
  8
0
  5
18BE
 10
50.2257
 20
114.794
 30
0.000000
  70
    32
  0
VERTEX
  8
0
  5
18BF
 10
50.2337
 20
114.781
 30
0.000000
  70
    32
  0
VERTEX
  8
0
  5
18C0
 10
50.2417
 20
114.769
 30
0.000000
  70
    32
  0
VERTEX
  8
0
  5
18C1
 10
50.2499
 20
114.756
 30
0.000000
  70
    32
  0
VERTEX
  8
0
  5
18C2
 10
50.2582
 20
114.743
 30
0.000000
  70
    32
  0
VERTEX
  8
0
  5
18C3
 10
50.2666
 20
114.730
 30
0.000000
  70
    32
  0
VERTEX
  8
0
  5
18C4
 10
50.2752
 20
114.717
 30
0.000000
  70
    32
  0
VERTEX
  8
0
  5
18C5
 10
50.2839
 20
114.705
 30
0.000000
  70
    32
  0
VERTEX
  8
0
  5
18C6
 10
50.2927
 20
114.692
 30
0.000000
  70
    32
  0
VERTEX
  8
0
  5
18C7
 10
50.3017
 20
114.679
 30
0.000000
  70
    32
  0
VERTEX
  8
0
  5
18C8
 10
50.3108
 20
114.667
 30
0.000000
  70
    32
  0
VERTEX
  8
0
  5
18C9
 10
50.3200
 20
114.654
 30
0.000000
  70
    32
  0
VERTEX
  8
0
  5
18CA
 10
50.3293
 20
114.641
 30
0.000000
  70
    32
  0
VERTEX
  8
0
  5
18CB
 10
50.3388
 20
114.629
 30
0.000000
  70
    32
  0
VERTEX
  8
0
  5
18CC
 10
50.3484
 20
114.616
 30
0.000000
  70
    32
  0
VERTEX
  8
0
  5
18CD
 10
50.3582
 20
114.604
 30
0.000000
  70
    32
  0
VERTEX
  8
0
  5
18CE
 10
50.3680
 20
114.592
 30
0.000000
  70
    32
  0
VERTEX
  8
0
  5
18CF
 10
50.3780
 20
114.579
 30
0.000000
  70
    32
  0
VERTEX
  8
0
  5
18D0
 10
50.3881
 20
114.567
 30
0.000000
  70
    32
  0
VERTEX
  8
0
  5
18D1
 10
50.3984
 20
114.554
 30
0.000000
  70
    32
  0
VERTEX
  8
0
  5
18D2
 10
50.4087
 20
114.542
 30
0.000000
  70
    32
  0
VERTEX
  8
0
  5
18D3
 10
50.4192
 20
114.530
 30
0.000000
  70
    32
  0
VERTEX
  8
0
  5
18D4
 10
50.4298
 20
114.518
 30
0.000000
  70
    32
  0
VERTEX
  8
0
  5
18D5
 10
50.4406
 20
114.505
 30
0.000000
  70
    32
  0
VERTEX
  8
0
  5
18D6
 10
50.4515
 20
114.493
 30
0.000000
  70
    32
  0
VERTEX
  8
0
  5
18D7
 10
50.4625
 20
114.481
 30
0.000000
  70
    32
  0
VERTEX
  8
0
  5
18D8
 10
50.4736
 20
114.469
 30
0.000000
  70
    32
  0
VERTEX
  8
0
  5
18D9
 10
50.4848
 20
114.457
 30
0.000000
  70
    32
  0
VERTEX
  8
0
  5
18DA
 10
50.4962
 20
114.445
 30
0.000000
  70
    32
  0
VERTEX
  8
0
  5
18DB
 10
50.5077
 20
114.433
 30
0.000000
  70
    32
  0
VERTEX
  8
0
  5
18DC
 10
50.5193
 20
114.421
 30
0.000000
  70
    32
  0
VERTEX
  8
0
  5
18DD
 10
50.5310
 20
114.409
 30
0.000000
  70
    32
  0
VERTEX
  8
0
  5
18DE
 10
50.5429
 20
114.397
 30
0.000000
  70
    32
  0
VERTEX
  8
0
  5
18DF
 10
50.5548
 20
114.386
 30
0.000000
  70
    32
  0
VERTEX
  8
0
  5
18E0
 10
50.5669
 20
114.374
 30
0.000000
  70
    32
  0
VERTEX
  8
0
  5
18E1
 10
50.5792
 20
114.362
 30
0.000000
  70
    32
  0
VERTEX
  8
0
  5
18E2
 10
50.5915
 20
114.351
 30
0.000000
  70
    32
  0
VERTEX
  8
0
  5
18E3
 10
50.6040
 20
114.339
 30
0.000000
  70
    32
  0
VERTEX
  8
0
  5
18E4
 10
50.6165
 20
114.327
 30
0.000000
  70
    32
  0
VERTEX
  8
0
  5
18E5
 10
50.6292
 20
114.316
 30
0.000000
  70
    32
  0
VERTEX
  8
0
  5
18E6
 10
50.6420
 20
114.304
 30
0.000000
  70
    32
  0
VERTEX
  8
0
  5
18E7
 10
50.6550
 20
114.293
 30
0.000000
  70
    32
  0
VERTEX
  8
0
  5
18E8
 10
50.6680
 20
114.281
 30
0.000000
  70
    32
  0
VERTEX
  8
0
  5
18E9
 10
50.6812
 20
114.270
 30
0.000000
  70
    32
  0
VERTEX
  8
0
  5
18EA
 10
50.6945
 20
114.259
 30
0.000000
  70
    32
  0
VERTEX
  8
0
  5
18EB
 10
50.7079
 20
114.247
 30
0.000000
  70
    32
  0
VERTEX
  8
0
  5
18EC
 10
50.7214
 20
114.236
 30
0.000000
  70
    32
  0
VERTEX
  8
0
  5
18ED
 10
50.7350
 20
114.225
 30
0.000000
  70
    32
  0
VERTEX
  8
0
  5
18EE
 10
50.7487
 20
114.214
 30
0.000000
  70
    32
  0
VERTEX
  8
0
  5
18EF
 10
50.7626
 20
114.203
 30
0.000000
  70
    32
  0
VERTEX
  8
0
  5
18F0
 10
50.7766
 20
114.192
 30
0.000000
  70
    32
  0
VERTEX
  8
0
  5
18F1
 10
50.7907
 20
114.181
 30
0.000000
  70
    32
  0
VERTEX
  8
0
  5
18F2
 10
50.8048
 20
114.170
 30
0.000000
  70
    32
  0
VERTEX
  8
0
  5
18F3
 10
50.8192
 20
114.159
 30
0.000000
  70
    32
  0
VERTEX
  8
0
  5
18F4
 10
50.8336
 20
114.148
 30
0.000000
  70
    32
  0
VERTEX
  8
0
  5
18F5
 10
50.8481
 20
114.137
 30
0.000000
  70
    32
  0
VERTEX
  8
0
  5
18F6
 10
50.8627
 20
114.126
 30
0.000000
  70
    32
  0
VERTEX
  8
0
  5
18F7
 10
50.8775
 20
114.116
 30
0.000000
  70
    32
  0
VERTEX
  8
0
  5
18F8
 10
50.8924
 20
114.105
 30
0.000000
  70
    32
  0
VERTEX
  8
0
  5
18F9
 10
50.9073
 20
114.095
 30
0.000000
  70
    32
  0
VERTEX
  8
0
  5
18FA
 10
50.9224
 20
114.084
 30
0.000000
  70
    32
  0
VERTEX
  8
0
  5
18FB
 10
50.9376
 20
114.073
 30
0.000000
  70
    32
  0
VERTEX
  8
0
  5
18FC
 10
50.9529
 20
114.063
 30
0.000000
  70
    32
  0
VERTEX
  8
0
  5
18FD
 10
50.9683
 20
114.053
 30
0.000000
  70
    32
  0
VERTEX
  8
0
  5
18FE
 10
50.9838
 20
114.042
 30
0.000000
  70
    32
  0
VERTEX
  8
0
  5
18FF
 10
50.9994
 20
114.032
 30
0.000000
  70
    32
  0
VERTEX
  8
0
  5
1900
 10
51.0151
 20
114.022
 30
0.000000
  70
    32
  0
VERTEX
  8
0
  5
1901
 10
51.0309
 20
114.012
 30
0.000000
  70
    32
  0
VERTEX
  8
0
  5
1902
 10
51.0469
 20
114.001
 30
0.000000
  70
    32
  0
VERTEX
  8
0
  5
1903
 10
51.0629
 20
113.991
 30
0.000000
  70
    32
  0
VERTEX
  8
0
  5
1904
 10
51.0790
 20
113.981
 30
0.000000
  70
    32
  0
VERTEX
  8
0
  5
1905
 10
51.0953
 20
113.971
 30
0.000000
  70
    32
  0
SEQEND
  8
0
  5
1906
  0
ARC
  5
B74
  8
0
 10
72.193056000000041
 20
161.67997016217529
 30
0.0
 40
4.0
 50
270.0
 51
306.64192816720981
  0
ARC
  5
B75
  8
0
 10
67.806944000000016
 20
161.67997016217529
 30
0.0
 40
4.0000002618221151
 50
233.3580718327901
 51
270.0
  0
ARC
  5
B76
  8
0
 10
78.916114999999962
 20
164.34608516217531
 30
0.0
 40
1.083884822288788
 50
323.62496632332602
 51
90.0
  0
ARC
  5
B77
  8
0
 10
61.083884999999981
 20
164.34608516217531
 30
0.0
 40
1.083884999999994
 50
90.0
 51
216.37503367667389
  0
ARC
  5
B7A
  8
0
 10
53.999999999999972
 20
165.92997016217529
 30
0.0
 40
4.0
 50
90.0
 51
180.0
  0
ARC
  5
B7D
  8
0
 10
80.340000000000003
 20
178.5299701621752
 30
0.0
 40
25.00000066702145
 50
216.3750336347409
 51
233.35807185694981
  0
ARC
  5
B7E
  8
0
 10
59.660000000000053
 20
178.5299701621752
 30
0.0
 40
25.000000087992021
 50
306.64192814304971
 51
323.62496636525913
  0
LINE
  5
CDA
  8
0
 10
148.24999999999989
 20
118.0128711621753
 30
0.0
 11
141.24999999999989
 21
113.9714252798223
 31
0.0
  0
LINE
  5
CDB
  8
0
 10
251.75
 20
118.0128711621753
 30
0.0
 11
244.75
 21
113.9714211621754
 31
0.0
  0
LINE
  5
CDC
  8
0
 10
258.75
 20
105.8885191621752
 30
0.0
 11
251.75
 21
101.8470651621753
 31
0.0
  0
LINE
  5
CDD
  8
0
 10
155.25
 20
105.8885191621752
 30
0.0
 11
148.24999999999989
 21
101.8470651621753
 31
0.0
  0
LINE
  5
CF1
  8
0
 10
160.38674900000001
 20
75.429970162175323
 30
0.0
 11
158.943375
 21
72.929970162175323
 31
0.0
  0
LINE
  5
CF2
  8
0
 10
156.056625
 20
77.929970162175323
 30
0.0
 11
154.61325099999991
 21
75.429970162175323
 31
0.0
  0
LINE
  5
CFF
  8
0
 10
300.0
 20
67.429970162175323
 30
0.0
 11
300.0
 21
152.42997016217529
 31
0.0
  0
LINE
  5
D00
  8
0
 10
300.0
 20
154.42997016217529
 30
0.0
 11
300.0
 21
165.92997016217529
 31
0.0
  0
LINE
  5
D01
  8
0
 10
300.0
 20
53.929970162175323
 30
0.0
 11
300.0
 21
65.429970162175323
 31
0.0
  0
LINE
  5
D02
  8
0
 10
298.0
 20
152.42997016217529
 30
0.0
 11
298.0
 21
154.42997016217529
 31
0.0
  0
LINE
  5
D03
  8
0
 10
298.0
 20
65.429970162175323
 30
0.0
 11
298.0
 21
67.429970162175323
 31
0.0
  0
LINE
  5
D07
  8
0
 10
258.75
 20
105.8885191621752
 30
0.0
 11
258.75
 21
113.9714211621754
 31
0.0
  0
LINE
  5
D08
  8
0
 10
244.75
 20
105.8885191621752
 30
0.0
 11
244.75
 21
113.9714211621754
 31
0.0
  0
LINE
  5
D09
  8
0
 10
155.25
 20
105.8885191621752
 30
0.0
 11
155.25
 21
113.9714211621754
 31
0.0
  0
LINE
  5
D0F
  8
0
 10
141.99999999999989
 20
152.42997016217529
 30
0.0
 11
141.99999999999989
 21
154.42997016217529
 31
0.0
  0
LINE
  5
D10
  8
0
 10
141.99999999999989
 20
65.429970162175323
 30
0.0
 11
141.99999999999989
 21
67.429970162175323
 31
0.0
  0
LINE
  5
D11
  8
0
 10
141.24999999999989
 20
105.8885176327634
 30
0.0
 11
141.24999999999989
 21
113.9714252798224
 31
0.0
  0
LINE
  5
D12
  8
0
 10
139.99999999999989
 20
154.42997016217529
 30
0.0
 11
139.99999999999989
 21
165.92997016217529
 31
0.0
  0
LINE
  5
D13
  8
0
 10
139.99999999999989
 20
53.929970162175323
 30
0.0
 11
139.99999999999989
 21
65.429970162175323
 31
0.0
  0
LINE
  5
D14
  8
0
 10
139.99999999999989
 20
67.429970162175323
 30
0.0
 11
139.99999999999989
 21
152.42997016217529
 31
0.0
  0
LINE
  5
D1C
  8
0
 10
160.38674900000001
 20
75.429970162175323
 30
0.0
 11
158.943375
 21
77.929970162175323
 31
0.0
  0
LINE
  5
D1D
  8
0
 10
156.056625
 20
72.929970162175323
 30
0.0
 11
154.61325099999991
 21
75.429970162175323
 31
0.0
  0
LINE
  5
D2C
  8
0
 10
251.75
 20
101.8470651621753
 30
0.0
 11
244.75
 21
105.8885191621752
 31
0.0
  0
LINE
  5
D2D
  8
0
 10
148.24999999999989
 20
101.8470651621753
 30
0.0
 11
141.24999999999989
 21
105.8885176327634
 31
0.0
  0
LINE
  5
D2E
  8
0
 10
258.75
 20
113.9714211621754
 30
0.0
 11
251.75
 21
118.0128711621753
 31
0.0
  0
LINE
  5
D2F
  8
0
 10
155.25
 20
113.9714211621754
 30
0.0
 11
148.24999999999989
 21
118.0128711621753
 31
0.0
  0
LINE
  5
D30
  8
0
 10
296.0
 20
49.92997016217533
 30
0.0
 11
143.99999999999989
 21
49.92997016217533
 31
0.0
  0
LINE
  5
D3D
  8
0
 10
300.0
 20
65.429970162175323
 30
0.0
 11
139.99999999999989
 21
65.429970162175323
 31
0.0
  0
LINE
  5
D3E
  8
0
 10
300.0
 20
67.429970162175323
 30
0.0
 11
139.99999999999989
 21
67.429970162175323
 31
0.0
  0
LINE
  5
D3F
  8
0
 10
158.943375
 20
72.929970162175323
 30
0.0
 11
156.056625
 21
72.929970162175323
 31
0.0
  0
LINE
  5
D40
  8
0
 10
158.943375
 20
77.929970162175323
 30
0.0
 11
156.056625
 21
77.929970162175323
 31
0.0
  0
LINE
  5
D4B
  8
0
 10
300.0
 20
152.42997016217529
 30
0.0
 11
139.99999999999989
 21
152.42997016217529
 31
0.0
  0
LINE
  5
D4C
  8
0
 10
300.0
 20
154.42997016217529
 30
0.0
 11
139.99999999999989
 21
154.42997016217529
 31
0.0
  0
LINE
  5
D58
  8
0
 10
296.0
 20
169.92997016217529
 30
0.0
 11
143.99999999999989
 21
169.92997016217529
 31
0.0
  0
ARC
  5
D59
  8
0
 10
296.0
 20
53.929970162175323
 30
0.0
 40
4.0
 50
270.0
 51
0.0
  0
ARC
  5
D5A
  8
0
 10
143.99999999999989
 20
53.929970162175323
 30
0.0
 40
4.0
 50
180.0
 51
270.0
  0
CIRCLE
  5
D66
  8
0
 10
157.5
 20
75.429970162175323
 30
0.0
 40
2.887499999999998
  0
CIRCLE
  5
D6B
  8
0
 10
251.75
 20
109.92997016217529
 30
0.0
 40
4.0499999999999972
  0
CIRCLE
  5
D6C
  8
0
 10
200.0
 20
109.92997016217529
 30
0.0
 40
5.5
  0
CIRCLE
  5
D6D
  8
0
 10
200.0
 20
109.92997016217529
 30
0.0
 40
28.0
  0
CIRCLE
  5
D6E
  8
0
 10
200.0
 20
109.92997016217529
 30
0.0
 40
30.0
  0
CIRCLE
  5
D6F
  8
0
 10
148.24999999999989
 20
109.92997016217529
 30
0.0
 40
4.0499999999999972
  0
ARC
  5
D80
  8
0
 10
296.0
 20
165.92997016217529
 30
0.0
 40
4.0
 50
0.0
 51
90.0
  0
ARC
  5
D81
  8
0
 10
143.99999999999989
 20
165.92997016217529
 30
0.0
 40
4.0
 50
90.0
 51
180.0
  0
LINE
  5
FED
  8
0
 10
300.0
 20
223.92997016217529
 30
0.0
 11
300.0
 21
234.42997016217529
 31
0.0
  0
LINE
  5
FF0
  8
0
 10
260.00000000000011
 20
235.92997016217529
 30
0.0
 11
260.0
 21
243.92997016217529
 31
0.0
  0
LINE
  5
FF3
  8
0
 10
246.5
 20
226.42997016217529
 30
0.0
 11
246.5
 21
253.42997016217529
 31
0.0
  0
LINE
  5
FF4
  8
0
 10
239.5
 20
226.42997016217529
 30
0.0
 11
239.5
 21
253.42997016217529
 31
0.0
  0
LINE
  5
FF5
  8
0
 10
195.00000000000011
 20
235.92997016217529
 30
0.0
 11
194.9999999999998
 21
243.92997016217529
 31
0.0
  0
LINE
  5
FF8
  8
0
 10
184.99999999999989
 20
235.92997016217529
 30
0.0
 11
184.9999999999998
 21
243.92997016217529
 31
0.0
  0
LINE
  5
FFF
  8
0
 10
139.99999999999989
 20
223.92997016217529
 30
0.0
 11
139.99999999999989
 21
255.92997016217529
 31
0.0
  0
LINE
  5
1054
  8
0
 10
296.0
 20
219.92997016217529
 30
0.0
 11
143.99999999999989
 21
219.92997016217529
 31
0.0
  0
LINE
  5
105D
  8
0
 10
246.5
 20
226.42997016217529
 30
0.0
 11
239.5
 21
226.42997016217529
 31
0.0
  0
LINE
  5
1063
  8
0
 10
239.5
 20
235.92997016217529
 30
0.0
 11
195.0
 21
235.92997016217529
 31
0.0
  0
LINE
  5
1064
  8
0
 10
288.18139306235048
 20
235.92997016217529
 30
0.0
 11
260.0
 21
235.92997016217529
 31
0.0
  0
LINE
  5
1067
  8
0
 10
184.99999999999989
 20
235.92997016217529
 30
0.0
 11
151.81860693764961
 21
235.92997016217529
 31
0.0
  0
LINE
  5
106F
  8
0
 10
239.5
 20
243.92997016217529
 30
0.0
 11
195.0
 21
243.92997016217529
 31
0.0
  0
LINE
  5
1071
  8
0
 10
288.18139335582299
 20
243.92997016217529
 30
0.0
 11
260.0
 21
243.92997016217529
 31
0.0
  0
LINE
  5
1072
  8
0
 10
184.99999999999989
 20
243.92997016217529
 30
0.0
 11
151.8186066441769
 21
243.92997016217541
 31
0.0
  0
LINE
  5
1078
  8
0
 10
246.5
 20
253.42997016217529
 30
0.0
 11
239.5
 21
253.42997016217529
 31
0.0
  0
LINE
  5
107E
  8
0
 10
296.0
 20
259.92997016217532
 30
0.0
 11
143.99999999999989
 21
259.92997016217532
 31
0.0
  0
ARC
  5
107F
  8
0
 10
296.0
 20
223.92997016217529
 30
0.0
 40
4.0
 50
270.0
 51
0.0
  0
ARC
  5
1084
  8
0
 10
143.99999999999989
 20
223.92997016217529
 30
0.0
 40
4.0
 50
180.0
 51
270.0
  0
ARC
  5
1089
  8
0
 10
296.0
 20
255.92997016217529
 30
0.0
 40
4.0
 50
0.0
 51
90.0
  0
ARC
  5
108A
  8
0
 10
143.99999999999989
 20
255.92997016217529
 30
0.0
 40
4.0
 50
90.0
 51
180.0
  0
LINE
  5
11A8
  8
0
 10
139.99999999999989
 20
239.92997016217529
 30
0.0
 11
239.5
 21
239.92997016217529
 31
0.0
  0
ARC
  5
11BB
  8
0
 10
280.0
 20
239.92997016217529
 30
0.0
 40
4.0
 50
270.0
 51
90.0
  0
ARC
  5
11BC
  8
0
 10
275.0
 20
239.92997016217529
 30
0.0
 40
4.0
 50
90.0
 51
270.0
  0
LINE
  5
11BD
  8
0
 10
284.0
 20
239.92997016217529
 30
0.0
 11
287.80000000000018
 21
239.92997016217529
 31
0.0
  0
ARC
  5
11C0
  8
0
 10
164.99999999999989
 20
239.92997016217529
 30
0.0
 40
4.0
 50
270.0
 51
90.0
  0
ARC
  5
11C1
  8
0
 10
159.99999999999989
 20
239.92997016217529
 30
0.0
 40
4.0
 50
90.0
 51
270.0
  0
LINE
  5
11C7
  8
0
 10
246.50000000000011
 20
239.92997016217529
 30
0.0
 11
271.00000000000011
 21
239.92997016217529
 31
0.0
  0
LINE
  5
11C8
  8
1
 10
134.99999999999989
 20
239.92997016217529
 30
0.0
 11
305.0
 21
239.92997016217529
 31
0.0
  0
LINE
  5
11C9
  8
1
 10
200.0
 20
264.92997016217532
 30
0.0
 11
200.0
 21
214.92997016217529
 31
0.0
  0
ARC
  5
1289
  8
0
 10
64.499999999999972
 20
168.42997016217529
 30
0.0
 40
1.5
 50
0.0
 51
90.0
  0
ARC
  5
128A
  8
0
 10
75.499999999999972
 20
168.42997016217529
 30
0.0
 40
1.5
 50
90.0
 51
180.0
  0
ARC
  5
128B
  8
0
 10
85.999999999999972
 20
165.92997016217529
 30
0.0
 40
4.0
 50
0.0
 51
90.0
  0
ARC
  5
1293
  8
0
 10
64.499999999999972
 20
51.429970162175323
 30
0.0
 40
1.5
 50
270.0
 51
0.0
  0
ARC
  5
1294
  8
0
 10
75.499999999999972
 20
51.429970162175323
 30
0.0
 40
1.5
 50
180.0
 51
270.0
  0
LINE
  5
1335
  8
0
 10
184.22649700000011
 20
161.92997016217529
 30
0.0
 11
187.11324800000011
 21
166.92997016217529
 31
0.0
  0
LINE
  5
1336
  8
0
 10
187.11324800000011
 20
156.92997016217529
 30
0.0
 11
184.22649700000011
 21
161.92997016217529
 31
0.0
  0
LINE
  5
1337
  8
0
 10
192.886751
 20
156.92997016217529
 30
0.0
 11
187.11324800000011
 21
156.92997016217529
 31
0.0
  0
LINE
  5
1338
  8
0
 10
195.77350300000009
 20
161.92997016217529
 30
0.0
 11
192.886751
 21
156.92997016217529
 31
0.0
  0
LINE
  5
1339
  8
0
 10
192.886751
 20
166.92997016217529
 30
0.0
 11
195.77350300000009
 21
161.92997016217529
 31
0.0
  0
LINE
  5
133A
  8
0
 10
187.11324800000011
 20
166.92997016217529
 30
0.0
 11
192.886751
 21
166.92997016217529
 31
0.0
  0
LINE
  5
133B
  8
1
 10
190.0
 20
169.92997016217529
 30
0.0
 11
190.0
 21
153.92997016217529
 31
0.0
  0
LINE
  5
133C
  8
1
 10
198.77350300000009
 20
161.92997016217529
 30
0.0
 11
181.22649700000011
 21
161.92997016217529
 31
0.0
  0
CIRCLE
  5
133D
  8
0
 10
190.0
 20
161.92997016217529
 30
0.0
 40
4.3071799999999998
  0
LINE
  5
133E
  8
0
 10
191.443375
 20
164.42997016217529
 30
0.0
 11
192.886751
 21
161.92997016217529
 31
0.0
  0
LINE
  5
133F
  8
0
 10
192.886751
 20
161.92997016217529
 30
0.0
 11
191.443375
 21
159.42997016217529
 31
0.0
  0
LINE
  5
1340
  8
0
 10
191.443375
 20
159.42997016217529
 30
0.0
 11
188.556624
 21
159.42997016217529
 31
0.0
  0
LINE
  5
1341
  8
0
 10
188.556624
 20
159.42997016217529
 30
0.0
 11
187.11324800000011
 21
161.92997016217529
 31
0.0
  0
LINE
  5
1342
  8
0
 10
187.11324800000011
 20
161.92997016217529
 30
0.0
 11
188.556624
 21
164.42997016217529
 31
0.0
  0
LINE
  5
1343
  8
0
 10
188.556624
 20
164.42997016217529
 30
0.0
 11
191.443375
 21
164.42997016217529
 31
0.0
  0
CIRCLE
  5
1344
  8
0
 10
190.0
 20
161.92997016217529
 30
0.0
 40
5.0
  0
LINE
  5
1347
  8
0
 10
249.22649700000011
 20
161.92997016217529
 30
0.0
 11
252.11324800000011
 21
166.92997016217529
 31
0.0
  0
LINE
  5
1348
  8
0
 10
252.11324800000011
 20
156.92997016217529
 30
0.0
 11
249.22649700000011
 21
161.92997016217529
 31
0.0
  0
LINE
  5
1349
  8
0
 10
257.886751
 20
156.92997016217529
 30
0.0
 11
252.11324800000011
 21
156.92997016217529
 31
0.0
  0
LINE
  5
134A
  8
0
 10
260.77350300000012
 20
161.92997016217529
 30
0.0
 11
257.886751
 21
156.92997016217529
 31
0.0
  0
LINE
  5
134B
  8
0
 10
257.886751
 20
166.92997016217529
 30
0.0
 11
260.77350300000012
 21
161.92997016217529
 31
0.0
  0
LINE
  5
134C
  8
0
 10
252.11324800000011
 20
166.92997016217529
 30
0.0
 11
257.886751
 21
166.92997016217529
 31
0.0
  0
LINE
  5
134D
  8
1
 10
255.0
 20
169.92997016217529
 30
0.0
 11
255.0
 21
153.92997016217529
 31
0.0
  0
LINE
  5
134E
  8
1
 10
263.77350300000012
 20
161.92997016217529
 30
0.0
 11
246.22649700000011
 21
161.92997016217529
 31
0.0
  0
CIRCLE
  5
134F
  8
0
 10
255.0
 20
161.92997016217529
 30
0.0
 40
4.3071799999999998
  0
LINE
  5
1350
  8
0
 10
256.443375
 20
164.42997016217529
 30
0.0
 11
257.886751
 21
161.92997016217529
 31
0.0
  0
LINE
  5
1351
  8
0
 10
257.886751
 20
161.92997016217529
 30
0.0
 11
256.443375
 21
159.42997016217529
 31
0.0
  0
LINE
  5
1352
  8
0
 10
256.443375
 20
159.42997016217529
 30
0.0
 11
253.556624
 21
159.42997016217529
 31
0.0
  0
LINE
  5
1353
  8
0
 10
253.556624
 20
159.42997016217529
 30
0.0
 11
252.11324800000011
 21
161.92997016217529
 31
0.0
  0
LINE
  5
1354
  8
0
 10
252.11324800000011
 20
161.92997016217529
 30
0.0
 11
253.556624
 21
164.42997016217529
 31
0.0
  0
LINE
  5
1355
  8
0
 10
253.556624
 20
164.42997016217529
 30
0.0
 11
256.443375
 21
164.42997016217529
 31
0.0
  0
CIRCLE
  5
1356
  8
0
 10
255.0
 20
161.92997016217529
 30
0.0
 40
5.0
  0
LINE
  5
1358
  8
0
 10
249.22649700000011
 20
57.929970162175323
 30
0.0
 11
252.11324800000011
 21
62.929970162175323
 31
0.0
  0
LINE
  5
1359
  8
0
 10
252.11324800000011
 20
52.929970162175323
 30
0.0
 11
249.22649700000011
 21
57.929970162175323
 31
0.0
  0
LINE
  5
135A
  8
0
 10
257.886751
 20
52.929970162175323
 30
0.0
 11
252.11324800000011
 21
52.929970162175323
 31
0.0
  0
LINE
  5
135B
  8
0
 10
260.77350300000012
 20
57.929970162175323
 30
0.0
 11
257.886751
 21
52.929970162175323
 31
0.0
  0
LINE
  5
135C
  8
0
 10
257.886751
 20
62.929970162175323
 30
0.0
 11
260.77350300000012
 21
57.929970162175323
 31
0.0
  0
LINE
  5
135D
  8
0
 10
252.11324800000011
 20
62.929970162175323
 30
0.0
 11
257.886751
 21
62.929970162175323
 31
0.0
  0
LINE
  5
135E
  8
1
 10
255.0
 20
65.929970162175323
 30
0.0
 11
255.0
 21
49.92997016217533
 31
0.0
  0
LINE
  5
135F
  8
1
 10
263.77350300000012
 20
57.929970162175323
 30
0.0
 11
246.22649700000011
 21
57.929970162175323
 31
0.0
  0
CIRCLE
  5
1360
  8
0
 10
255.0
 20
57.929970162175323
 30
0.0
 40
4.3071799999999998
  0
LINE
  5
1361
  8
0
 10
256.443375
 20
60.429970162175323
 30
0.0
 11
257.886751
 21
57.929970162175323
 31
0.0
  0
LINE
  5
1362
  8
0
 10
257.886751
 20
57.929970162175323
 30
0.0
 11
256.443375
 21
55.429970162175323
 31
0.0
  0
LINE
  5
1363
  8
0
 10
256.443375
 20
55.429970162175323
 30
0.0
 11
253.556624
 21
55.429970162175323
 31
0.0
  0
LINE
  5
1364
  8
0
 10
253.556624
 20
55.429970162175323
 30
0.0
 11
252.11324800000011
 21
57.929970162175323
 31
0.0
  0
LINE
  5
1365
  8
0
 10
252.11324800000011
 20
57.929970162175323
 30
0.0
 11
253.556624
 21
60.429970162175323
 31
0.0
  0
LINE
  5
1366
  8
0
 10
253.556624
 20
60.429970162175323
 30
0.0
 11
256.443375
 21
60.429970162175323
 31
0.0
  0
CIRCLE
  5
1367
  8
0
 10
255.0
 20
57.929970162175323
 30
0.0
 40
5.0
  0
LINE
  5
1369
  8
0
 10
184.22649700000011
 20
57.929970162175323
 30
0.0
 11
187.11324800000011
 21
62.929970162175323
 31
0.0
  0
LINE
  5
136A
  8
0
 10
187.11324800000011
 20
52.929970162175323
 30
0.0
 11
184.22649700000011
 21
57.929970162175323
 31
0.0
  0
LINE
  5
136B
  8
0
 10
192.886751
 20
52.929970162175323
 30
0.0
 11
187.11324800000011
 21
52.929970162175323
 31
0.0
  0
LINE
  5
136C
  8
0
 10
195.77350300000009
 20
57.929970162175323
 30
0.0
 11
192.886751
 21
52.929970162175323
 31
0.0
  0
LINE
  5
136D
  8
0
 10
192.886751
 20
62.929970162175323
 30
0.0
 11
195.77350300000009
 21
57.929970162175323
 31
0.0
  0
LINE
  5
136E
  8
0
 10
187.11324800000011
 20
62.929970162175323
 30
0.0
 11
192.886751
 21
62.929970162175323
 31
0.0
  0
LINE
  5
136F
  8
1
 10
190.00000000000011
 20
65.929970162175323
 30
0.0
 11
190.0
 21
49.92997016217533
 31
0.0
  0
LINE
  5
1370
  8
1
 10
198.77350300000009
 20
57.929970162175323
 30
0.0
 11
181.22649700000011
 21
57.929970162175323
 31
0.0
  0
CIRCLE
  5
1371
  8
0
 10
190.0
 20
57.929970162175323
 30
0.0
 40
4.3071799999999998
  0
LINE
  5
1372
  8
0
 10
191.443375
 20
60.429970162175323
 30
0.0
 11
192.886751
 21
57.929970162175323
 31
0.0
  0
LINE
  5
1373
  8
0
 10
192.886751
 20
57.929970162175323
 30
0.0
 11
191.443375
 21
55.429970162175323
 31
0.0
  0
LINE
  5
1374
  8
0
 10
191.443375
 20
55.429970162175323
 30
0.0
 11
188.556624
 21
55.429970162175323
 31
0.0
  0
LINE
  5
1375
  8
0
 10
188.556624
 20
55.429970162175323
 30
0.0
 11
187.11324800000011
 21
57.929970162175323
 31
0.0
  0
LINE
  5
1376
  8
0
 10
187.11324800000011
 20
57.929970162175323
 30
0.0
 11
188.556624
 21
60.429970162175323
 31
0.0
  0
LINE
  5
1377
  8
0
 10
188.556624
 20
60.429970162175323
 30
0.0
 11
191.443375
 21
60.429970162175323
 31
0.0
  0
CIRCLE
  5
1378
  8
0
 10
190.0
 20
57.929970162175323
 30
0.0
 40
5.0
  0
LINE
  5
138B
  8
1
 10
134.99999999999989
 20
109.92997016217529
 30
0.0
 11
305.0
 21
109.92997016217529
 31
0.0
  0
LINE
  5
13A2
  8
1
 10
251.75
 20
121.0128711621753
 30
0.0
 11
251.75
 21
98.84706516217534
 31
0.0
  0
LINE
  5
13A3
  8
1
 10
148.24999999999989
 20
121.0128711621753
 30
0.0
 11
148.24999999999989
 21
98.84706516217534
 31
0.0
  0
LINE
  5
13A7
  8
1
 10
278.25
 20
132.42997016217529
 30
0.0
 11
257.75
 21
132.42997016217529
 31
0.0
  0
LINE
  5
13A8
  8
1
 10
268.0
 20
142.67997016217529
 30
0.0
 11
268.0
 21
122.17997016217529
 31
0.0
  0
CIRCLE
  5
13B1
  8
0
 10
157.5
 20
75.429970162175323
 30
0.0
 40
7.25
  0
LINE
  5
13B2
  8
1
 10
167.75
 20
75.429970162175323
 30
0.0
 11
147.24999999999989
 21
75.429970162175323
 31
0.0
  0
LINE
  5
13B3
  8
1
 10
157.5
 20
85.679970162175323
 30
0.0
 11
157.5
 21
65.179970162175323
 31
0.0
  0
CIRCLE
  5
13BB
  8
0
 10
157.5
 20
75.429970162175323
 30
0.0
 40
7.0
  0
LINE
  5
13BC
  8
0
 10
270.88674900000001
 20
132.42997016217529
 30
0.0
 11
269.44337500000012
 21
129.92997016217529
 31
0.0
  0
LINE
  5
13BD
  8
0
 10
266.55662500000011
 20
134.92997016217529
 30
0.0
 11
265.11325099999999
 21
132.42997016217529
 31
0.0
  0
LINE
  5
13BE
  8
0
 10
270.88674900000001
 20
132.42997016217529
 30
0.0
 11
269.44337500000012
 21
134.92997016217529
 31
0.0
  0
LINE
  5
13BF
  8
0
 10
266.55662500000011
 20
129.92997016217529
 30
0.0
 11
265.11325099999999
 21
132.42997016217529
 31
0.0
  0
LINE
  5
13C0
  8
0
 10
269.44337500000012
 20
129.92997016217529
 30
0.0
 11
266.55662500000011
 21
129.92997016217529
 31
0.0
  0
LINE
  5
13C1
  8
0
 10
269.44337500000012
 20
134.92997016217529
 30
0.0
 11
266.55662500000011
 21
134.92997016217529
 31
0.0
  0
CIRCLE
  5
13C2
  8
0
 10
268.0
 20
132.42997016217529
 30
0.0
 40
2.887499999999998
  0
CIRCLE
  5
13C3
  8
0
 10
268.0
 20
132.42997016217529
 30
0.0
 40
7.25
  0
CIRCLE
  5
13C4
  8
0
 10
268.0
 20
132.42997016217529
 30
0.0
 40
7.0
  0
LINE
  5
13C7
  8
1
 10
200.0
 20
144.92997016217529
 30
0.0
 11
200.0
 21
74.929970162175323
 31
0.0
  0
CIRCLE
  5
13D7
  8
2
 10
157.5
 20
144.92997016217529
 30
0.0
 40
4.0
  0
CIRCLE
  5
13D8
  8
2
 10
157.5
 20
144.92997016217529
 30
0.0
 40
3.3235000000000001
  0
CIRCLE
  5
13D9
  8
2
 10
268.0
 20
87.429970162175323
 30
0.0
 40
4.0
  0
CIRCLE
  5
13DA
  8
2
 10
268.0
 20
87.429970162175323
 30
0.0
 40
3.3235000000000001
  0
LINE
  5
13DB
  8
1
 10
164.5
 20
144.92997016217529
 30
0.0
 11
150.49999999999989
 21
144.92997016217529
 31
0.0
  0
LINE
  5
13DC
  8
1
 10
157.5
 20
151.92997016217529
 30
0.0
 11
157.5
 21
137.92997016217529
 31
0.0
  0
LINE
  5
13DD
  8
1
 10
275.0
 20
87.429970162175323
 30
0.0
 11
261.0
 21
87.429970162175323
 31
0.0
  0
LINE
  5
13DE
  8
1
 10
268.0
 20
94.429970162175323
 30
0.0
 11
268.0
 21
80.429970162175309
 31
0.0
  0
ARC
  5
13EF
  8
0
 10
64.999999999999972
 20
166.42997016217529
 30
0.0
 40
1.0
 50
270.0
 51
0.0
  0
ARC
  5
13F0
  8
0
 10
74.999999999999972
 20
166.42997016217529
 30
0.0
 40
1.0
 50
180.0
 51
270.0
  0
ARC
  5
13F1
  8
0
 10
74.999999999999972
 20
53.429970162175323
 30
0.0
 40
1.0
 50
90.0
 51
180.0
  0
ARC
  5
13F2
  8
0
 10
64.999999999999972
 20
53.429970162175323
 30
0.0
 40
1.0
 50
0.0
 51
90.0
  0
LINE
  5
13FA
  8
1
 10
69.999999999999972
 20
44.929970162175323
 30
0.0
 11
69.999999999999972
 21
174.92997016217529
 31
0.0
  0
LINE
  5
13FB
  8
1
 10
94.999999999999986
 20
109.92997016217529
 30
0.0
 11
44.999999999999972
 21
109.92997016217529
 31
0.0
  0
ARC
  5
1465
  8
0
 10
375.5
 20
168.42997016217529
 30
0.0
 40
1.5
 50
90.0
 51
180.0
  0
ARC
  5
1466
  8
0
 10
364.5
 20
168.42997016217529
 30
0.0
 40
1.5
 50
0.0
 51
90.0
  0
ARC
  5
1467
  8
0
 10
375.0
 20
166.42997016217529
 30
0.0
 40
1.0
 50
180.0
 51
270.0
  0
ARC
  5
1468
  8
0
 10
365.0
 20
166.42997016217529
 30
0.0
 40
1.0
 50
270.0
 51
0.0
  0
ARC
  5
1477
  8
0
 10
386.0
 20
53.929970162175323
 30
0.0
 40
4.0
 50
270.0
 51
0.0
  0
ARC
  5
1478
  8
0
 10
365.0
 20
53.429970162175323
 30
0.0
 40
1.0
 50
0.0
 51
90.0
  0
ARC
  5
1479
  8
0
 10
375.0
 20
53.429970162175323
 30
0.0
 40
1.0
 50
90.0
 51
180.0
  0
ARC
  5
147A
  8
0
 10
364.5
 20
51.429970162175323
 30
0.0
 40
1.5
 50
270.0
 51
0.0
  0
ARC
  5
147B
  8
0
 10
375.5
 20
51.429970162175323
 30
0.0
 40
1.5
 50
180.0
 51
270.0
  0
LINE
  5
1483
  8
1
 10
370.0
 20
174.92997016217529
 30
0.0
 11
370.0
 21
44.929970162175323
 31
0.0
  0
LINE
  5
1484
  8
1
 10
395.0
 20
109.92997016217529
 30
0.0
 11
345.0
 21
109.92997016217529
 31
0.0
  0
LINE
  5
1490
  8
0
 10
366.00000000000023
 20
158.11136351799831
 30
0.0
 11
366.00000000000023
 21
156.92997016217529
 31
0.0
  0
LINE
  5
1491
  8
0
 10
374.00000000000023
 20
158.11136322452569
 30
0.0
 11
374.00000000000023
 21
156.92997016217529
 31
0.0
  0
LINE
  5
1492
  8
0
 10
65.999999999999972
 20
158.11136322452569
 30
0.0
 11
65.999999999999972
 21
156.92997016217529
 31
0.0
  0
LINE
  5
1493
  8
0
 10
73.999999999999972
 20
158.11136351799831
 30
0.0
 11
73.999999999999858
 21
156.92997016217529
 31
0.0
  0
LINE
  5
1494
  8
0
 10
65.999999999999972
 20
61.748577099824928
 30
0.0
 11
65.999999999999972
 21
62.929970162175302
 31
0.0
  0
LINE
  5
1495
  8
0
 10
73.999999999999972
 20
61.748576806352332
 30
0.0
 11
73.999999999999858
 21
62.929970162175323
 31
0.0
  0
LINE
  5
1496
  8
0
 10
366.00000000000023
 20
61.748576806352332
 30
0.0
 11
366.00000000000023
 21
62.929970162175323
 31
0.0
  0
LINE
  5
1497
  8
0
 10
374.00000000000023
 20
61.748577099824871
 30
0.0
 11
374.00000000000023
 21
62.929970162175302
 31
0.0
  0
LINE
  5
1498
  8
0
 10
370.0
 20
148.92997016217529
 30
0.0
 11
370.00000000000023
 21
70.929970162175323
 31
0.0
  0
LINE
  5
1499
  8
0
 10
370.0
 20
169.92997016217529
 30
0.0
 11
370.0
 21
156.92997016217529
 31
0.0
  0
LINE
  5
149A
  8
0
 10
370.0
 20
49.92997016217533
 30
0.0
 11
370.0
 21
62.929970162175323
 31
0.0
  0
LINE
  5
149C
  8
0
 10
69.999999999999972
 20
148.92997016217529
 30
0.0
 11
69.999999999999972
 21
70.929970162175323
 31
0.0
  0
LINE
  5
149D
  8
0
 10
69.999999999999972
 20
49.92997016217533
 30
0.0
 11
70.000000000000085
 21
62.929970162175323
 31
0.0
  0
LINE
  5
149E
  8
0
 10
69.999999999999972
 20
169.92997016217529
 30
0.0
 11
69.999999999999744
 21
156.92997016217529
 31
0.0
  0
LINE
  5
14C9
  8
0
 10
143.5
 20
243.92997016217529
 30
0.0
 11
141.5
 21
243.92997016217529
 31
0.0
  0
LINE
  5
14CA
  8
0
 10
143.5
 20
235.92997016217529
 30
0.0
 11
141.5
 21
235.92997016217529
 31
0.0
  0
LINE
  5
14CB
  8
0
 10
152.24999999999989
 20
242.12302616217539
 30
0.0
 11
152.24999999999989
 21
237.7369141621754
 31
0.0
  0
LINE
  5
14CC
  8
0
 10
144.5
 20
248.84608516217531
 30
0.0
 11
144.5
 21
244.92997016217529
 31
0.0
  0
LINE
  5
14CD
  8
0
 10
144.5
 20
234.92997016217529
 30
0.0
 11
144.5
 21
231.0138551621753
 31
0.0
  0
ARC
  5
14CE
  8
0
 10
148.24999999999989
 20
242.12302616217539
 30
0.0
 40
4.0
 50
0.0
 51
36.641928167211631
  0
ARC
  5
14CF
  8
0
 10
148.24999999999989
 20
237.7369141621754
 30
0.0
 40
4.0000002618221151
 50
323.35807183278843
 51
0.0
  0
ARC
  5
14D0
  8
0
 10
145.58388500000001
 20
248.84608516217531
 30
0.0
 40
1.083884822288788
 50
53.624966323320287
 51
180.0
  0
ARC
  5
14D1
  8
0
 10
145.58388500000001
 20
231.0138551621753
 30
0.0
 40
1.083884999999994
 50
180.0
 51
306.37503367667972
  0
ARC
  5
14D2
  8
0
 10
131.40000000000001
 20
250.26997016217541
 30
0.0
 40
25.00000066702145
 50
306.3750336347411
 51
323.3580718569462
  0
ARC
  5
14D3
  8
0
 10
131.40000000000001
 20
229.5899701621754
 30
0.0
 40
25.000000087992021
 50
36.641928143053811
 51
53.624966365258402
  0
ARC
  5
14D4
  8
0
 10
141.5
 20
234.42997016217529
 30
0.0
 40
1.5
 50
90.0
 51
180.0
  0
ARC
  5
14D5
  8
0
 10
141.5
 20
245.42997016217529
 30
0.0
 40
1.5
 50
180.0
 51
270.0
  0
ARC
  5
14D6
  8
0
 10
143.5
 20
234.92997016217529
 30
0.0
 40
1.0
 50
0.0
 51
90.0
  0
ARC
  5
14D7
  8
0
 10
143.5
 20
244.92997016217529
 30
0.0
 40
1.0
 50
270.0
 51
0.0
  0
LINE
  5
14D9
  8
0
 10
296.5
 20
243.92997016217529
 30
0.0
 11
298.5
 21
243.92997016217529
 31
0.0
  0
LINE
  5
14DA
  8
0
 10
296.5
 20
235.92997016217529
 30
0.0
 11
298.5
 21
235.92997016217529
 31
0.0
  0
LINE
  5
14DB
  8
0
 10
287.75
 20
242.12302616217539
 30
0.0
 11
287.75
 21
237.7369141621754
 31
0.0
  0
LINE
  5
14DC
  8
0
 10
295.5
 20
248.84608516217531
 30
0.0
 11
295.5
 21
244.92997016217529
 31
0.0
  0
LINE
  5
14DD
  8
0
 10
295.5
 20
234.92997016217529
 30
0.0
 11
295.5
 21
231.0138551621753
 31
0.0
  0
ARC
  5
14DE
  8
0
 10
291.75
 20
242.12302616217539
 30
0.0
 40
4.0
 50
143.35807183278331
 51
180.0
  0
ARC
  5
14DF
  8
0
 10
291.75
 20
237.7369141621754
 30
0.0
 40
4.0000002618221151
 50
180.0
 51
216.64192816721669
  0
ARC
  5
14E0
  8
0
 10
294.41611499999999
 20
248.84608516217531
 30
0.0
 40
1.083884822288788
 50
0.0
 51
126.3750336766803
  0
ARC
  5
14E1
  8
0
 10
294.41611499999999
 20
231.0138551621753
 30
0.0
 40
1.083884999999994
 50
233.62496632331971
 51
0.0
  0
ARC
  5
14E2
  8
0
 10
308.59999999999991
 20
250.26997016217541
 30
0.0
 40
25.00000066702145
 50
216.6419281430538
 51
233.62496636525881
  0
ARC
  5
14E3
  8
0
 10
308.59999999999991
 20
229.5899701621754
 30
0.0
 40
25.000000087992021
 50
126.3750336347416
 51
143.35807185694571
  0
ARC
  5
14E4
  8
0
 10
298.5
 20
234.42997016217529
 30
0.0
 40
1.5
 50
0.0
 51
90.0
  0
ARC
  5
14E5
  8
0
 10
298.5
 20
245.42997016217529
 30
0.0
 40
1.5
 50
270.0
 51
0.0
  0
ARC
  5
14E6
  8
0
 10
296.5
 20
234.92997016217529
 30
0.0
 40
1.0
 50
90.0
 51
180.0
  0
ARC
  5
14E7
  8
0
 10
296.5
 20
244.92997016217529
 30
0.0
 40
1.0
 50
180.0
 51
270.0
  0
LINE
  5
14E8
  8
0
 10
300.0
 20
245.42997016217529
 30
0.0
 11
300.0
 21
255.92997016217529
 31
0.0
  0
LINE
  5
150D
  8
0
 10
74.000000000000185
 20
114.92997016217529
 30
0.0
 11
66.000000000000085
 21
114.92997016217529
 31
0.0
  0
LINE
  5
150E
  8
0
 10
74.000000000000085
 20
104.92997016217529
 30
0.0
 11
66.000000000000199
 21
104.92997016217529
 31
0.0
  0
LINE
  5
150F
  8
0
 10
66.000000000000085
 20
114.92997016217529
 30
0.0
 11
66.000000000000085
 21
148.92997016217529
 31
0.0
  0
LINE
  5
1510
  8
0
 10
74.000000000000085
 20
114.92997016217529
 30
0.0
 11
74.000000000000085
 21
148.92997016217529
 31
0.0
  0
TEXT
  5
16A3
  8
0
 62
     3
 10
0.0
 20
0.0
 30
0.0
 40
10.0
  1
DE-RU80-11
  7
STANDARD1
  0
ENDSEC
  0
EOF
