  0
SECTION
  2
HEADER
  9
$ACADVER
  1
AC1009
  9
$INSBASE
 10
0.0
 20
0.0
 30
0.0
  9
$EXTMIN
 10
0.0
 20
-2.960436562073669
 30
0.0
  9
$EXTMAX
 10
319.91545134125658
 20
259.89554842347349
 30
0.0
  9
$LIMMIN
 10
0.0
 20
0.0
  9
$LIMMAX
 10
375.0
 20
270.0
  9
$ORTHOMODE
 70
     1
  9
$REGENMODE
 70
     1
  9
$FILLMODE
 70
     1
  9
$QTEXTMODE
 70
     0
  9
$MIRRTEXT
 70
     0
  9
$DRAGMODE
 70
     2
  9
$LTSCALE
 40
10.0
  9
$OSMODE
 70
  3071
  9
$ATTMODE
 70
     1
  9
$TEXTSIZE
 40
0.2
  9
$TRACEWID
 40
0.05
  9
$TEXTSTYLE
  7
STANDARD
  9
$CLAYER
  8
0
  9
$CELTYPE
  6
BYLAYER
  9
$CECOLOR
 62
   256
  9
$DIMSCALE
 40
1.0
  9
$DIMASZ
 40
3.0
  9
$DIMEXO
 40
2.0
  9
$DIMDLI
 40
0.38
  9
$DIMRND
 40
0.0
  9
$DIMDLE
 40
0.0
  9
$DIMEXE
 40
2.0
  9
$DIMTP
 40
0.0
  9
$DIMTM
 40
0.0
  9
$DIMTXT
 40
3.2000000000000002
  9
$DIMCEN
 40
0.0
  9
$DIMTSZ
 40
0.0
  9
$DIMTOL
 70
     0
  9
$DIMLIM
 70
     0
  9
$DIMTIH
 70
     0
  9
$DIMTOH
 70
     0
  9
$DIMSE1
 70
     0
  9
$DIMSE2
 70
     0
  9
$DIMTAD
 70
     1
  9
$DIMZIN
 70
     0
  9
$DIMBLK
  1

  9
$DIMASO
 70
     0
  9
$DIMSHO
 70
     0
  9
$DIMPOST
  1

  9
$DIMAPOST
  1

  9
$DIMALT
 70
     0
  9
$DIMALTD
 70
     2
  9
$DIMALTF
 40
25.399999999999999
  9
$DIMLFAC
 40
1.0
  9
$DIMTOFL
 70
     1
  9
$DIMTVP
 40
1.6000000000000001
  9
$DIMTIX
 70
     1
  9
$DIMSOXD
 70
     0
  9
$DIMSAH
 70
     0
  9
$DIMBLK1
  1

  9
$DIMBLK2
  1

  9
$DIMSTYLE
  2
STANDARD
  9
$DIMCLRD
 70
     0
  9
$DIMCLRE
 70
     0
  9
$DIMCLRT
 70
     0
  9
$DIMTFAC
 40
1.0
  9
$DIMGAP
 40
0.09
  9
$LUNITS
 70
     2
  9
$LUPREC
 70
     4
  9
$SKETCHINC
 40
0.1
  9
$FILLETRAD
 40
0.0
  9
$AUNITS
 70
     0
  9
$AUPREC
 70
     4
  9
$MENU
  1
E:\r13\win\SUPPORT\ACAD
  9
$ELEVATION
 40
0.0
  9
$PELEVATION
 40
0.0
  9
$THICKNESS
 40
0.0
  9
$LIMCHECK
 70
     0
  9
$BLIPMODE
 70
     0
  9
$CHAMFERA
 40
0.0
  9
$CHAMFERB
 40
0.0
  9
$SKPOLY
 70
     0
  9
$TDCREATE
 40
2449840.6516898149
  9
$TDUPDATE
 40
2456598.603586331
  9
$TDINDWG
 40
0.0089528125
  9
$TDUSRTIMER
 40
0.0089528125
  9
$USRTIMER
 70
     1
  9
$ANGBASE
 50
0.0
  9
$ANGDIR
 70
     0
  9
$PDMODE
 70
     0
  9
$PDSIZE
 40
0.0
  9
$PLINEWID
 40
0.0
  9
$COORDS
 70
     1
  9
$SPLFRAME
 70
     0
  9
$SPLINETYPE
 70
     6
  9
$SPLINESEGS
 70
     8
  9
$ATTDIA
 70
     0
  9
$ATTREQ
 70
     1
  9
$HANDLING
 70
     1
  9
$HANDSEED
  5
38D
  9
$SURFTAB1
 70
     6
  9
$SURFTAB2
 70
     6
  9
$SURFTYPE
 70
     6
  9
$SURFU
 70
     6
  9
$SURFV
 70
     6
  9
$UCSNAME
  2

  9
$UCSORG
 10
0.0
 20
0.0
 30
0.0
  9
$UCSXDIR
 10
1.0
 20
0.0
 30
0.0
  9
$UCSYDIR
 10
0.0
 20
1.0
 30
0.0
  9
$PUCSNAME
  2

  9
$PUCSORG
 10
0.0
 20
0.0
 30
0.0
  9
$PUCSXDIR
 10
1.0
 20
0.0
 30
0.0
  9
$PUCSYDIR
 10
0.0
 20
1.0
 30
0.0
  9
$USERI1
 70
     0
  9
$USERI2
 70
     1
  9
$USERI3
 70
     0
  9
$USERI4
 70
     0
  9
$USERI5
 70
     0
  9
$USERR1
 40
0.0
  9
$USERR2
 40
0.0
  9
$USERR3
 40
0.0
  9
$USERR4
 40
0.0
  9
$USERR5
 40
0.0
  9
$WORLDVIEW
 70
     1
  9
$SHADEDGE
 70
     3
  9
$SHADEDIF
 70
    70
  9
$TILEMODE
 70
     1
  9
$MAXACTVP
 70
    16
  9
$PLIMCHECK
 70
     0
  9
$PEXTMIN
 10
1.0000000000000000E+020
 20
1.0000000000000000E+020
 30
1.0000000000000000E+020
  9
$PEXTMAX
 10
-1.0000000000000000E+020
 20
-1.0000000000000000E+020
 30
-1.0000000000000000E+020
  9
$PLIMMIN
 10
0.0
 20
0.0
  9
$PLIMMAX
 10
12.0
 20
9.0
  9
$UNITMODE
 70
     0
  9
$VISRETAIN
 70
     0
  9
$PLINEGEN
 70
     0
  9
$PSLTSCALE
 70
     0
  0
ENDSEC
  0
SECTION
  2
TABLES
  0
TABLE
  2
VPORT
 70
     1
  0
VPORT
  2
*ACTIVE
 70
     0
 10
0.0
 20
0.0
 11
1.0
 21
1.0
 12
195.0581083320873
 22
133.5127261426681
 13
0.0
 23
0.0
 14
10.0
 24
10.0
 15
10.0
 25
10.0
 16
0.0
 26
0.0
 36
1.0
 17
0.0
 27
0.0
 37
0.0
 40
275.42274993631997
 41
1.831871345029239
 42
50.0
 43
0.0
 44
0.0
 50
0.0
 51
0.0
 71
     0
 72
   500
 73
     1
 74
     0
 75
     0
 76
     0
 77
     0
 78
     2
  0
ENDTAB
  0
TABLE
  2
LTYPE
 70
     4
  0
LTYPE
  2
CONTINUOUS
 70
     0
  3
Solid Line
 72
    65
 73
     0
 40
0.0
  0
LTYPE
  2
CENTER
 70
     0
  3
____ _ ____ _ ____ _ ____ _ ____ _ ____ _ ____
 72
    65
 73
     4
 40
2.0
 49
1.25
 49
-0.25
 49
0.25
 49
-0.25
  0
LTYPE
  2
HIDDEN
 70
     0
  3
_ _ _ _ _ _ _ _ _ _ _ _ _ _ _ _ _ _ _ _ _ _ _
 72
    65
 73
     2
 40
0.375
 49
0.25
 49
-0.125
  0
LTYPE
  2
PHANTOM2
 70
     0
  3
___ _ _ ___ _ _ ___ _ _ ___ _ _
 72
    65
 73
     6
 40
1.25
 49
0.625
 49
-0.125
 49
0.125
 49
-0.125
 49
0.125
 49
-0.125
  0
ENDTAB
  0
TABLE
  2
LAYER
 70
     4
  0
LAYER
  2
0
 70
     0
 62
     7
  6
CONTINUOUS
  0
LAYER
  2
1
 70
     0
 62
     1
  6
CENTER
  0
LAYER
  2
2
 70
     0
 62
     2
  6
HIDDEN
  0
LAYER
  2
3
 70
     0
 62
     3
  6
CONTINUOUS
  0
ENDTAB
  0
TABLE
  2
STYLE
 70
     2
  0
STYLE
  2
STANDARD
 70
     0
 40
0.0
 41
1.0
 50
0.0
 71
     0
 42
0.2
  3
TXT
  4
BIGFONT
  0
STYLE
  2
STANDARD1
 70
     0
 40
0.0
 41
1.0
 50
0.0
 71
     0
 42
3.0
  3
txt
  4

  0
ENDTAB
  0
TABLE
  2
VIEW
 70
     1
  0
VIEW
  2
ALL
 70
     0
 40
179.5384664489153
 10
135.0
 20
89.769233224457665
 41
0.0
 11
0.0
 21
0.0
 31
1.0
 12
0.0
 22
0.0
 32
0.0
 42
0.0
 43
0.0
 44
0.0
 50
0.0
 71
     0
  0
ENDTAB
  0
TABLE
  2
UCS
 70
     0
  0
ENDTAB
  0
TABLE
  2
APPID
 70
     3
  0
APPID
  2
ACAD
 70
     0
  0
APPID
  2
ACAD_MLEADERVER
 70
     0
  0
APPID
  2
ACAD_NAV_VCDISPLAY
 70
     0
  0
ENDTAB
  0
TABLE
  2
DIMSTYLE
 70
     1
  0
DIMSTYLE
  2
STANDARD
 70
     0
  3

  4

  5

  6

  7

 40
1.0
 41
0.18
 42
0.0625
 43
0.38
 44
0.18
 45
0.0
 46
0.0
 47
0.0
 48
0.0
140
0.18
141
0.09
142
0.0
143
25.399999999999999
144
1.0
145
0.0
146
1.0
147
0.09
 71
     0
 72
     0
 73
     1
 74
     1
 75
     0
 76
     0
 77
     0
 78
     0
170
     0
171
     2
172
     0
173
     0
174
     0
175
     0
176
     0
177
     0
178
     0
  0
ENDTAB
  0
ENDSEC
  0
SECTION
  2
BLOCKS
  0
BLOCK
  8
0
  2
$MODEL_SPACE
 70
     0
 10
0.0
 20
0.0
 30
0.0
  3
$MODEL_SPACE
  1

  0
ENDBLK
  5
1C2
  8
0
  0
BLOCK
 67
     1
  8
0
  2
$PAPER_SPACE
 70
     0
 10
0.0
 20
0.0
 30
0.0
  3
$PAPER_SPACE
  1

  0
ENDBLK
  5
1C0
 67
     1
  8
0
  0
ENDSEC
  0
SECTION
  2
ENTITIES
  0
LINE
  5
3F
  8
0
 10
290.91545134125658
 20
115.6204041947789
 30
0.0
 11
280.9154513412567
 21
115.6204041947789
 31
0.0
  0
LINE
  5
40
  8
0
 10
298.91545134125658
 20
114.6204041947789
 30
0.0
 11
290.91545134125658
 21
114.6204041947789
 31
0.0
  0
LINE
  5
41
  8
0
 10
290.91545134125658
 20
121.1204041947789
 30
0.0
 11
290.91545134125658
 21
161.12040419477901
 31
0.0
  0
LINE
  5
42
  8
0
 10
294.91545134125658
 20
101.1204041947789
 30
0.0
 11
294.91545134125658
 21
109.070404194788
 31
0.0
  0
LINE
  5
43
  8
0
 10
298.91545134125658
 20
121.1204041947789
 30
0.0
 11
298.91545134125658
 21
161.12040419477901
 31
0.0
  0
LINE
  5
44
  8
0
 10
308.91545134125658
 20
115.6204041947788
 30
0.0
 11
308.91545134125658
 21
121.1204041947788
 31
0.0
  0
LINE
  5
45
  8
0
 10
280.9154513412567
 20
115.6204041947789
 30
0.0
 11
280.9154513412567
 21
121.1204041947789
 31
0.0
  0
LINE
  5
46
  8
0
 10
308.91545134125658
 20
115.6204041947788
 30
0.0
 11
298.91545134125658
 21
115.6204041947789
 31
0.0
  0
LINE
  5
47
  8
0
 10
308.91545134125658
 20
121.1204041947788
 30
0.0
 11
280.9154513412567
 21
121.1204041947789
 31
0.0
  0
LINE
  5
48
  8
0
 10
274.9154513412567
 20
105.1204041947789
 30
0.0
 11
274.9154513412567
 21
177.1204041947789
 31
0.0
  0
ARC
  5
49
  8
0
 10
278.9154513412567
 20
105.1204041947789
 30
0.0
 40
4.0
 50
180.0
 51
269.99999999999989
  0
LINE
  5
4A
  8
0
 10
310.91545134125658
 20
101.1204041947788
 30
0.0
 11
278.9154513412567
 21
101.1204041947789
 31
0.0
  0
ARC
  5
4B
  8
0
 10
310.91545134125658
 20
105.1204041947789
 30
0.0
 40
4.0
 50
270.00000000000023
 51
0.000000000000014
  0
LINE
  5
4C
  8
0
 10
314.91545134125658
 20
105.1204041947789
 30
0.0
 11
314.91545134125658
 21
177.1204041947789
 31
0.0
  0
LINE
  5
4D
  8
0
 10
298.91545134125658
 20
112.4859753177565
 30
0.0
 11
298.91545134125658
 21
115.6204041947788
 31
0.0
  0
LINE
  5
4E
  8
0
 10
290.91545134125658
 20
112.4859753177567
 30
0.0
 11
290.91545134125658
 21
115.6204041947789
 31
0.0
  0
LINE
  5
4F
  8
1
 10
319.91545134125658
 20
141.1204041947789
 30
0.0
 11
269.91545134125658
 21
141.1204041947789
 31
0.0
  0
LINE
  5
50
  8
1
 10
75.112947505085955
 20
129.1204041947789
 30
0.0
 11
61.012947505085947
 21
129.1204041947789
 31
0.0
  0
LINE
  5
51
  8
1
 10
75.112947505085955
 20
113.1204041947789
 30
0.0
 11
61.012947505085947
 21
113.1204041947789
 31
0.0
  0
LINE
  5
52
  8
1
 10
75.112947505085955
 20
169.1204041947789
 30
0.0
 11
61.012947505085947
 21
169.1204041947789
 31
0.0
  0
LINE
  5
53
  8
1
 10
75.112947505085955
 20
153.1204041947789
 30
0.0
 11
61.012947505085947
 21
153.1204041947789
 31
0.0
  0
LINE
  5
54
  8
0
 10
72.062947505085958
 20
146.1204041947789
 30
0.0
 11
72.062947505086015
 21
181.1204041947789
 31
0.0
  0
LINE
  5
55
  8
0
 10
64.062947505085958
 20
146.1204041947789
 30
0.0
 11
64.062947505086015
 21
181.1204041947789
 31
0.0
  0
LINE
  5
56
  8
0
 10
64.062947505085958
 20
136.1204041947789
 30
0.0
 11
72.062947505085958
 21
136.1204041947789
 31
0.0
  0
LINE
  5
57
  8
0
 10
64.062947505085958
 20
146.1204041947789
 30
0.0
 11
72.062947505085958
 21
146.1204041947789
 31
0.0
  0
LINE
  5
58
  8
1
 10
43.062947505085958
 20
141.1204041947789
 30
0.0
 11
93.062947505085958
 21
141.1204041947789
 31
0.0
  0
LINE
  5
59
  8
0
 10
72.062947505085901
 20
101.1204041947788
 30
0.0
 11
72.062947505085958
 21
136.1204041947789
 31
0.0
  0
LINE
  5
5A
  8
0
 10
64.062947505085901
 20
101.1204041947788
 30
0.0
 11
64.062947505085958
 21
136.1204041947789
 31
0.0
  0
ARC
  5
5B
  8
0
 10
52.062947505085958
 20
177.1204041947789
 30
0.0
 40
4.0
 50
89.999999999999758
 51
180.0
  0
ARC
  5
5C
  8
0
 10
52.062947505086008
 20
177.1204041947789
 30
0.0
 40
4.0
 50
90.000000000000014
 51
180.0
  0
LINE
  5
5D
  8
0
 10
48.062947505086022
 20
105.1204041947789
 30
0.0
 11
48.062947505085958
 21
177.1204041947789
 31
0.0
  0
ARC
  5
5E
  8
0
 10
52.062947505086008
 20
105.1204041947789
 30
0.0
 40
4.0
 50
180.0
 51
269.99999999999989
  0
LINE
  5
5F
  8
0
 10
68.062947505085901
 20
101.1204041947788
 30
0.0
 11
68.062947505085901
 21
109.1204041947789
 31
0.0
  0
LINE
  5
60
  8
0
 10
52.062947505085958
 20
101.1204041947788
 30
0.0
 11
84.062947505085958
 21
101.1204041947789
 31
0.0
  0
ARC
  5
61
  8
0
 10
84.062947505085958
 20
105.1204041947789
 30
0.0
 40
4.0
 50
270.00000000000023
 51
0.000000000000014
  0
LINE
  5
62
  8
0
 10
88.062947505085958
 20
105.1204041947789
 30
0.0
 11
88.062947505086015
 21
177.1204041947789
 31
0.0
  0
LINE
  5
63
  8
0
 10
84.062947505085958
 20
181.1204041947789
 30
0.0
 11
52.062947505085958
 21
181.1204041947789
 31
0.0
  0
ARC
  5
64
  8
0
 10
84.062947505085958
 20
177.1204041947789
 30
0.0
 40
4.0
 50
0.0000000000000649
 51
90.000000000000014
  0
ARC
  5
65
  8
0
 10
84.062947505086015
 20
177.1204041947789
 30
0.0
 40
4.0
 50
0.0000000000000649
 51
90.000000000000313
  0
LINE
  5
66
  8
1
 10
126.9881413721873
 20
141.1204041947789
 30
0.0
 11
236.98814137218719
 21
141.1204041947789
 31
0.0
  0
LINE
  5
67
  8
0
 10
290.91545134125658
 20
169.7548330718011
 30
0.0
 11
290.91545134125658
 21
166.6204041947789
 31
0.0
  0
LINE
  5
68
  8
0
 10
298.91545134125658
 20
169.7548330718013
 30
0.0
 11
298.91545134125658
 21
166.62040419477901
 31
0.0
  0
ARC
  5
69
  8
0
 10
310.91545134125658
 20
177.1204041947789
 30
0.0
 40
4.0
 50
360.0
 51
89.999999999999844
  0
LINE
  5
6A
  8
0
 10
310.91545134125658
 20
181.12040419477901
 30
0.0
 11
278.9154513412567
 21
181.1204041947789
 31
0.0
  0
ARC
  5
6B
  8
0
 10
278.9154513412567
 20
177.1204041947789
 30
0.0
 40
4.0
 50
90.000000000000114
 51
180.0
  0
LINE
  5
6C
  8
0
 10
308.91545134125658
 20
161.12040419477901
 30
0.0
 11
280.9154513412567
 21
161.1204041947789
 31
0.0
  0
LINE
  5
6D
  8
0
 10
308.91545134125658
 20
166.62040419477901
 30
0.0
 11
298.91545134125658
 21
166.62040419477901
 31
0.0
  0
LINE
  5
6E
  8
0
 10
280.9154513412567
 20
166.6204041947789
 30
0.0
 11
280.9154513412567
 21
161.1204041947789
 31
0.0
  0
LINE
  5
6F
  8
0
 10
308.91545134125658
 20
166.62040419477901
 30
0.0
 11
308.91545134125658
 21
161.12040419477901
 31
0.0
  0
LINE
  5
70
  8
0
 10
298.91545134125658
 20
167.62040419477901
 30
0.0
 11
290.91545134125658
 21
167.6204041947789
 31
0.0
  0
LINE
  5
71
  8
0
 10
290.91545134125658
 20
166.6204041947789
 30
0.0
 11
280.9154513412567
 21
166.6204041947789
 31
0.0
  0
ARC
  5
75
  8
0
 10
297.40411961757633
 20
109.3204041947788
 30
0.0
 40
4.0
 50
67.800486146788046
 51
90.000000000000014
  0
LINE
  5
76
  8
0
 10
292.42678306493673
 20
113.3204041947788
 30
0.0
 11
297.40411961757633
 21
113.3204041947788
 31
0.0
  0
ARC
  5
77
  8
0
 10
292.42678306493673
 20
109.3204041947788
 30
0.0
 40
4.0
 50
90.000000000000014
 51
112.19951385318539
  0
ARC
  5
78
  8
0
 10
294.91545134125658
 20
113.120404194779
 30
0.0
 40
4.0499999999999989
 50
189.01245149905341
 51
350.98754850094667
  0
LINE
  5
79
  8
0
 10
294.91545134125658
 20
113.3204041947788
 30
0.0
 11
294.91545134125658
 21
167.6204041947789
 31
0.0
  0
ARC
  5
7A
  8
0
 10
294.91545134125658
 20
169.12040419477881
 30
0.0
 40
4.0499999999999989
 50
9.0124514990533147
 51
170.9875485009467
  0
LINE
  5
7B
  8
0
 10
294.91545134125658
 20
173.17040419477851
 30
0.0
 11
294.91545134125658
 21
181.1204041947789
 31
0.0
  0
LINE
  5
7C
  8
0
 10
68.062947505086015
 20
173.1204041947789
 30
0.0
 11
68.062947505086015
 21
181.1204041947789
 31
0.0
  0
LINE
  5
7D
  8
0
 10
68.062947505085901
 20
133.1204041947789
 30
0.0
 11
68.062947505085958
 21
149.1204041947789
 31
0.0
  0
LINE
  5
7E
  8
1
 10
68.062947505085958
 20
186.1204041947789
 30
0.0
 11
68.062947505085901
 21
96.120404194778914
 31
0.0
  0
LINE
  5
7F
  8
1
 10
126.9881413721873
 20
234.8955484234736
 30
0.0
 11
236.98814137218719
 21
234.8955484234736
 31
0.0
  0
LINE
  5
80
  8
0
 10
159.98814137218719
 20
232.8955484234736
 30
0.0
 11
181.98814137218719
 21
232.89554842347351
 31
0.0
  0
LINE
  5
81
  8
0
 10
145.48814137218719
 20
234.8955484234736
 30
0.0
 11
131.98814137218719
 21
234.8955484234736
 31
0.0
  0
LINE
  5
82
  8
0
 10
186.98814137218719
 20
234.89554842347351
 30
0.0
 11
181.98814137218719
 21
234.89554842347351
 31
0.0
  0
LINE
  5
83
  8
0
 10
186.98814137218719
 20
238.8955484234738
 30
0.0
 11
186.98814137218719
 21
230.8955484234736
 31
0.0
  0
LINE
  5
84
  8
0
 10
159.98814137218719
 20
234.8955484234736
 30
0.0
 11
151.98814137218719
 21
234.8955484234736
 31
0.0
  0
LINE
  5
85
  8
0
 10
181.98814137218719
 20
234.89554842347351
 30
0.0
 11
181.98814137218719
 21
232.89554842347351
 31
0.0
  0
LINE
  5
86
  8
0
 10
159.98814137218719
 20
234.89554842347351
 30
0.0
 11
159.98814137218719
 21
232.8955484234736
 31
0.0
  0
LINE
  5
87
  8
1
 10
210.9881413721873
 20
240.9455484234735
 30
0.0
 11
210.9881413721873
 21
228.8455484234735
 31
0.0
  0
LINE
  5
88
  8
0
 10
207.48814137218531
 20
234.89554842347351
 30
0.0
 11
198.28814137218711
 21
234.89554842347351
 31
0.0
  0
LINE
  5
89
  8
0
 10
227.48814137218719
 20
229.89554842347371
 30
0.0
 11
227.48814137218719
 21
226.0955484234731
 31
0.0
  0
LINE
  5
8A
  8
0
 10
230.48814137218719
 20
230.8955484234736
 30
0.0
 11
228.48814137218719
 21
230.8955484234736
 31
0.0
  0
LINE
  5
8B
  8
0
 10
230.48814137218719
 20
238.8955484234736
 30
0.0
 11
228.48814137218719
 21
238.8955484234736
 31
0.0
  0
ARC
  5
8C
  8
0
 10
230.48814137218719
 20
229.39554842347371
 30
0.0
 40
1.5
 50
0.0000000000000254
 51
90.000000000000057
  0
ARC
  5
8D
  8
0
 10
230.48814137218719
 20
240.39554842347371
 30
0.0
 40
1.5
 50
270.00000000000011
 51
0.0000000000000254
  0
ARC
  5
8E
  8
0
 10
228.48814137218719
 20
229.89554842347371
 30
0.0
 40
1.0
 50
90.000000000000327
 51
180.0
  0
ARC
  5
8F
  8
0
 10
228.48814137218719
 20
239.89554842347371
 30
0.0
 40
1.0
 50
180.00000000000011
 51
270.00000000000028
  0
ARC
  5
90
  8
0
 10
240.38814137218731
 20
245.26922829980509
 30
0.0
 40
25.0
 50
217.76996547760831
 51
233.66986529099159
  0
ARC
  5
91
  8
0
 10
226.28814137218919
 20
226.0955484234731
 30
0.0
 40
1.1999999999999991
 50
233.66984860020949
 51
0.0001287912819524
  0
ARC
  5
92
  8
0
 10
240.38814137218731
 20
224.52186854714219
 30
0.0
 40
25.0
 50
126.3301347090085
 51
142.23003452239149
  0
ARC
  5
93
  8
0
 10
226.28814137218919
 20
243.69554842347421
 30
0.0
 40
1.1999999999999991
 50
359.9998712087181
 51
126.33015139979059
  0
LINE
  5
94
  8
0
 10
227.48814137218719
 20
239.89554842347371
 30
0.0
 11
227.48814137218719
 21
243.69554842347421
 31
0.0
  0
LINE
  5
95
  8
0
 10
219.7881413721874
 20
237.3842166997936
 30
0.0
 11
219.7881413721874
 21
232.40688014715391
 31
0.0
  0
ARC
  5
96
  8
0
 10
223.7881413721874
 20
237.3842166997936
 30
0.0
 40
4.0
 50
142.23003452239149
 51
180.0
  0
ARC
  5
97
  8
0
 10
223.7881413721874
 20
232.40688014715391
 30
0.0
 40
4.0
 50
180.0
 51
217.76996547760839
  0
ARC
  5
98
  8
0
 10
140.1881413721872
 20
232.40688014715391
 30
0.0
 40
4.0
 50
322.23003452239158
 51
0.0
  0
ARC
  5
99
  8
0
 10
140.1881413721872
 20
237.3842166997936
 30
0.0
 40
4.0
 50
0.0
 51
37.769965477608537
  0
LINE
  5
9A
  8
0
 10
144.1881413721872
 20
237.3842166997936
 30
0.0
 11
144.1881413721872
 21
232.40688014715391
 31
0.0
  0
LINE
  5
9B
  8
0
 10
220.0846462093711
 20
238.8955484234738
 30
0.0
 11
198.28814137218711
 21
238.8955484234738
 31
0.0
  0
LINE
  5
9C
  8
0
 10
220.08464620936911
 20
230.8955484234736
 30
0.0
 11
198.28814137218711
 21
230.8955484234736
 31
0.0
  0
LINE
  5
9D
  8
0
 10
231.98814137218719
 20
229.39554842347371
 30
0.0
 11
231.98814137218719
 21
218.8955484234734
 31
0.0
  0
LINE
  5
9E
  8
0
 10
231.98814137218719
 20
250.89554842347351
 30
0.0
 11
231.98814137218719
 21
240.39554842347371
 31
0.0
  0
LINE
  5
9F
  8
0
 10
191.7881413721872
 20
230.8955484234736
 30
0.0
 11
191.7881413721872
 21
220.8955484234736
 31
0.0
  0
LINE
  5
A0
  8
0
 10
196.98814137218741
 20
220.8955484234736
 30
0.0
 11
196.98814137218741
 21
214.89554842347351
 31
0.0
  0
LINE
  5
A1
  8
0
 10
195.48814137218719
 20
220.8955484234736
 30
0.0
 11
195.48814137218719
 21
214.89554842347351
 31
0.0
  0
LINE
  5
A2
  8
0
 10
198.28814137218711
 20
248.8955484234736
 30
0.0
 11
198.28814137218711
 21
220.8955484234736
 31
0.0
  0
LINE
  5
A3
  8
0
 10
198.28814137218711
 20
220.89554842347351
 30
0.0
 11
191.7881413721872
 21
220.8955484234736
 31
0.0
  0
LINE
  5
A4
  8
0
 10
198.28814137218711
 20
248.8955484234736
 30
0.0
 11
191.7881413721872
 21
248.8955484234736
 31
0.0
  0
LINE
  5
A5
  8
0
 10
191.7881413721872
 20
248.8955484234736
 30
0.0
 11
191.7881413721872
 21
238.8955484234738
 31
0.0
  0
LINE
  5
A6
  8
0
 10
151.98814137218719
 20
248.8955484234736
 30
0.0
 11
151.98814137218719
 21
220.8955484234736
 31
0.0
  0
LINE
  5
A7
  8
0
 10
146.48814137218719
 20
230.8955484234736
 30
0.0
 11
146.48814137218719
 21
220.89554842347351
 31
0.0
  0
LINE
  5
A8
  8
0
 10
146.98814137218719
 20
220.8955484234736
 30
0.0
 11
146.9881413721873
 21
214.8955484234734
 31
0.0
  0
LINE
  5
A9
  8
0
 10
148.48814137218719
 20
220.89554842347351
 30
0.0
 11
148.48814137218719
 21
214.8955484234734
 31
0.0
  0
LINE
  5
AA
  8
0
 10
151.98814137218719
 20
248.8955484234736
 30
0.0
 11
146.4881413721873
 21
248.8955484234736
 31
0.0
  0
LINE
  5
AB
  8
0
 10
151.98814137218719
 20
220.89554842347351
 30
0.0
 11
146.48814137218719
 21
220.8955484234736
 31
0.0
  0
LINE
  5
AC
  8
0
 10
151.98814137218719
 20
238.8955484234736
 30
0.0
 11
191.7881413721872
 21
238.8955484234738
 31
0.0
  0
LINE
  5
AD
  8
0
 10
151.98814137218719
 20
230.8955484234736
 30
0.0
 11
191.7881413721872
 21
230.8955484234736
 31
0.0
  0
LINE
  5
AE
  8
0
 10
146.4881413721873
 20
248.8955484234736
 30
0.0
 11
146.4881413721873
 21
238.8955484234736
 31
0.0
  0
LINE
  5
AF
  8
0
 10
145.48814137218719
 20
238.8955484234736
 30
0.0
 11
145.48814137218719
 21
230.8955484234736
 31
0.0
  0
LINE
  5
B0
  8
0
 10
145.48814137218719
 20
238.8955484234736
 30
0.0
 11
146.48814137218719
 21
238.8955484234736
 31
0.0
  0
LINE
  5
B1
  8
0
 10
145.48814137218719
 20
230.8955484234736
 30
0.0
 11
146.48814137218719
 21
230.8955484234736
 31
0.0
  0
LINE
  5
B2
  8
0
 10
136.4881413721873
 20
239.89554842347371
 30
0.0
 11
136.4881413721873
 21
243.69554842347421
 31
0.0
  0
ARC
  5
B3
  8
0
 10
137.68814137218521
 20
243.69554842347421
 30
0.0
 40
1.1999999999999991
 50
53.669848600209463
 51
180.0001287912819
  0
ARC
  5
B4
  8
0
 10
123.5881413721872
 20
224.52186854714219
 30
0.0
 40
25.0
 50
37.76996547760853
 51
53.669865290991503
  0
ARC
  5
B5
  8
0
 10
137.68814137218521
 20
226.0955484234731
 30
0.0
 40
1.1999999999999991
 50
179.99987120871799
 51
306.33015139979051
  0
ARC
  5
B6
  8
0
 10
123.5881413721872
 20
245.26922829980509
 30
0.0
 40
25.0
 50
306.33013470900852
 51
322.2300345223918
  0
ARC
  5
B7
  8
0
 10
135.48814137218719
 20
239.89554842347371
 30
0.0
 40
1.0
 50
269.99999999999972
 51
360.0
  0
ARC
  5
B8
  8
0
 10
135.4881413721873
 20
229.89554842347371
 30
0.0
 40
1.0
 50
360.0
 51
89.999999999999687
  0
ARC
  5
B9
  8
0
 10
133.48814137218719
 20
240.39554842347371
 30
0.0
 40
1.5
 50
180.0
 51
270.0
  0
ARC
  5
BA
  8
0
 10
133.48814137218719
 20
229.39554842347371
 30
0.0
 40
1.5
 50
89.999999999999986
 51
180.0
  0
LINE
  5
BB
  8
0
 10
133.48814137218719
 20
238.8955484234736
 30
0.0
 11
135.48814137218719
 21
238.8955484234736
 31
0.0
  0
LINE
  5
BC
  8
0
 10
133.48814137218719
 20
230.8955484234736
 30
0.0
 11
135.4881413721873
 21
230.8955484234736
 31
0.0
  0
LINE
  5
BD
  8
0
 10
136.4881413721873
 20
229.89554842347371
 30
0.0
 11
136.4881413721873
 21
226.0955484234731
 31
0.0
  0
ARC
  5
BE
  8
0
 10
135.98814137218719
 20
218.8955484234734
 30
0.0
 40
4.0
 50
180.0
 51
269.99999999999977
  0
LINE
  5
BF
  8
0
 10
146.98814137218719
 20
214.8955484234734
 30
0.0
 11
135.98814137218719
 21
214.8955484234734
 31
0.0
  0
LINE
  5
C0
  8
0
 10
195.4881413721873
 20
214.89554842347351
 30
0.0
 11
148.48814137218719
 21
214.8955484234734
 31
0.0
  0
LINE
  5
C1
  8
0
 10
146.98814137218719
 20
216.8955484234734
 30
0.0
 11
148.48814137218719
 21
216.8955484234734
 31
0.0
  0
ARC
  5
C2
  8
0
 10
227.98814137218719
 20
218.8955484234734
 30
0.0
 40
4.0
 50
269.99999999999989
 51
0.0
  0
LINE
  5
C3
  8
0
 10
195.48814137218719
 20
216.8955484234734
 30
0.0
 11
196.98814137218719
 21
216.8955484234734
 31
0.0
  0
LINE
  5
C4
  8
0
 10
227.98814137218719
 20
214.8955484234734
 30
0.0
 11
196.9881413721873
 21
214.89554842347351
 31
0.0
  0
LINE
  5
C5
  8
0
 10
219.88814137218731
 20
234.89554842347351
 30
0.0
 11
214.48814137218841
 21
234.89554842347351
 31
0.0
  0
LINE
  5
C6
  8
0
 10
227.98814137218719
 20
254.89554842347351
 30
0.0
 11
196.9881413721873
 21
254.89554842347351
 31
0.0
  0
LINE
  5
C7
  8
0
 10
196.98814137218719
 20
254.89554842347351
 30
0.0
 11
196.9881413721873
 21
248.89554842347371
 31
0.0
  0
LINE
  5
C8
  8
0
 10
195.48814137218719
 20
254.89554842347351
 30
0.0
 11
195.48814137218719
 21
248.8955484234736
 31
0.0
  0
LINE
  5
C9
  8
0
 10
195.48814137218719
 20
252.8955484234736
 30
0.0
 11
196.98814137218719
 21
252.8955484234736
 31
0.0
  0
ARC
  5
CA
  8
0
 10
227.98814137218719
 20
250.89554842347351
 30
0.0
 40
4.0
 50
0.0
 51
90.000000000000057
  0
LINE
  5
CB
  8
0
 10
131.98814137218719
 20
250.89554842347351
 30
0.0
 11
131.98814137218719
 21
218.8955484234734
 31
0.0
  0
LINE
  5
CC
  8
0
 10
146.98814137218719
 20
254.89554842347351
 30
0.0
 11
146.98814137218719
 21
248.8955484234736
 31
0.0
  0
LINE
  5
CD
  8
0
 10
148.48814137218719
 20
254.89554842347351
 30
0.0
 11
148.48814137218719
 21
248.8955484234736
 31
0.0
  0
LINE
  5
CE
  8
0
 10
146.98814137218719
 20
252.8955484234736
 30
0.0
 11
148.48814137218719
 21
252.8955484234736
 31
0.0
  0
LINE
  5
CF
  8
0
 10
195.4881413721873
 20
254.89554842347351
 30
0.0
 11
148.48814137218719
 21
254.8955484234736
 31
0.0
  0
LINE
  5
D0
  8
0
 10
146.98814137218719
 20
254.8955484234736
 30
0.0
 11
135.98814137218719
 21
254.89554842347351
 31
0.0
  0
ARC
  5
D1
  8
0
 10
135.98814137218719
 20
250.89554842347351
 30
0.0
 40
4.0
 50
90.000000000000171
 51
180.0
  0
ARC
  5
D2
  8
0
 10
135.98814137218719
 20
177.12040419477901
 30
0.0
 40
4.0
 50
89.999999999999687
 51
179.99999999999989
  0
LINE
  5
D3
  8
0
 10
204.14284191056629
 20
154.1204041947791
 30
0.0
 11
205.29754244894559
 21
156.1204041947791
 31
0.0
  0
LINE
  5
D4
  8
0
 10
205.29754244894559
 20
156.1204041947791
 30
0.0
 11
204.14284191056629
 21
158.1204041947789
 31
0.0
  0
LINE
  5
D5
  8
0
 10
204.14284191056629
 20
158.1204041947789
 30
0.0
 11
201.83344083380749
 21
158.1204041947789
 31
0.0
  0
LINE
  5
D6
  8
0
 10
201.83344083380749
 20
158.1204041947789
 30
0.0
 11
200.67874029542861
 21
156.1204041947789
 31
0.0
  0
LINE
  5
D7
  8
0
 10
200.67874029542861
 20
156.1204041947789
 30
0.0
 11
201.83344083380811
 21
154.12040419477859
 31
0.0
  0
LINE
  5
D8
  8
0
 10
201.83344083380811
 20
154.12040419477859
 30
0.0
 11
204.14284191056629
 21
154.1204041947791
 31
0.0
  0
CIRCLE
  5
D9
  8
0
 10
202.98814137218719
 20
156.1204041947789
 30
0.0
 40
6.0
  0
ARC
  5
DA
  8
0
 10
202.98814137218719
 20
156.1204041947789
 30
0.0
 40
6.2999999999999989
 50
197.75279016196859
 51
162.24720983803141
  0
LINE
  5
DB
  8
1
 10
214.28814137218731
 20
156.1204041947789
 30
0.0
 11
191.6881413721872
 21
156.1204041947789
 31
0.0
  0
LINE
  5
DC
  8
1
 10
202.98814137218719
 20
167.42040419477891
 30
0.0
 11
202.98814137218719
 21
144.82040419477889
 31
0.0
  0
LINE
  5
DD
  8
1
 10
161.9881413721873
 20
109.1204041947789
 30
0.0
 11
181.9881413721873
 21
109.1204041947789
 31
0.0
  0
LINE
  5
DE
  8
1
 10
161.9881413721873
 20
173.12040419477881
 30
0.0
 11
181.9881413721873
 21
173.12040419477881
 31
0.0
  0
LINE
  5
DF
  8
1
 10
139.98814137218719
 20
151.1204041947789
 30
0.0
 11
139.98814137218719
 21
131.1204041947789
 31
0.0
  0
LINE
  5
E0
  8
1
 10
188.48814137218719
 20
171.12040419477881
 30
0.0
 11
188.48814137218719
 21
159.12040419477881
 31
0.0
  0
LINE
  5
E1
  8
1
 10
194.48814137218719
 20
165.12040419477881
 30
0.0
 11
182.48814137218719
 21
165.12040419477881
 31
0.0
  0
LINE
  5
E2
  8
1
 10
155.48814137218741
 20
123.1204041947789
 30
0.0
 11
155.48814137218741
 21
111.1204041947789
 31
0.0
  0
LINE
  5
E3
  8
1
 10
161.48814137218741
 20
117.1204041947789
 30
0.0
 11
149.48814137218741
 21
117.1204041947789
 31
0.0
  0
LINE
  5
E4
  8
1
 10
188.48814137218719
 20
128.42040419477891
 30
0.0
 11
188.48814137218719
 21
105.8204041947789
 31
0.0
  0
LINE
  5
E5
  8
1
 10
199.78814137218711
 20
117.1204041947789
 30
0.0
 11
177.1881413721872
 21
117.1204041947789
 31
0.0
  0
LINE
  5
E6
  8
1
 10
155.48814137218741
 20
176.42040419477891
 30
0.0
 11
155.48814137218741
 21
153.82040419477889
 31
0.0
  0
LINE
  5
E7
  8
1
 10
166.7881413721874
 20
165.1204041947789
 30
0.0
 11
144.1881413721874
 21
165.1204041947789
 31
0.0
  0
CIRCLE
  5
E8
  8
2
 10
155.48814137218741
 20
117.1204041947789
 30
0.0
 40
3.0
  0
CIRCLE
  5
E9
  8
2
 10
155.48814137218741
 20
117.1204041947789
 30
0.0
 40
2.458499999999999
  0
CIRCLE
  5
EA
  8
0
 10
155.48814137218741
 20
165.1204041947789
 30
0.0
 40
6.2999999999999989
  0
CIRCLE
  5
EB
  8
0
 10
188.48814137218719
 20
117.1204041947789
 30
0.0
 40
6.2999999999999989
  0
CIRCLE
  5
EC
  8
0
 10
188.48814137218719
 20
117.1204041947789
 30
0.0
 40
6.0
  0
LINE
  5
ED
  8
0
 10
187.33344083380811
 20
115.1204041947787
 30
0.0
 11
189.64284191056629
 21
115.1204041947791
 31
0.0
  0
LINE
  5
EE
  8
0
 10
186.17874029542861
 20
117.1204041947789
 30
0.0
 11
187.33344083380811
 21
115.1204041947787
 31
0.0
  0
LINE
  5
EF
  8
0
 10
187.3334408338074
 20
119.1204041947789
 30
0.0
 11
186.17874029542861
 21
117.1204041947789
 31
0.0
  0
LINE
  5
F0
  8
0
 10
189.64284191056629
 20
119.1204041947789
 30
0.0
 11
187.3334408338074
 21
119.1204041947789
 31
0.0
  0
LINE
  5
F1
  8
0
 10
190.79754244894559
 20
117.1204041947791
 30
0.0
 11
189.64284191056629
 21
119.1204041947789
 31
0.0
  0
LINE
  5
F2
  8
0
 10
189.64284191056629
 20
115.1204041947791
 30
0.0
 11
190.79754244894559
 21
117.1204041947791
 31
0.0
  0
CIRCLE
  5
F3
  8
0
 10
155.48814137218741
 20
165.1204041947789
 30
0.0
 40
6.0
  0
LINE
  5
F4
  8
0
 10
154.33344083380831
 20
163.1204041947787
 30
0.0
 11
156.64284191056649
 21
163.1204041947791
 31
0.0
  0
LINE
  5
F5
  8
0
 10
153.17874029542881
 20
165.1204041947789
 30
0.0
 11
154.33344083380831
 21
163.1204041947787
 31
0.0
  0
LINE
  5
F6
  8
0
 10
154.33344083380771
 20
167.1204041947789
 30
0.0
 11
153.17874029542881
 21
165.1204041947789
 31
0.0
  0
LINE
  5
F7
  8
0
 10
156.64284191056649
 20
167.1204041947789
 30
0.0
 11
154.33344083380771
 21
167.1204041947789
 31
0.0
  0
LINE
  5
F8
  8
0
 10
157.79754244894579
 20
165.1204041947791
 30
0.0
 11
156.64284191056649
 21
167.1204041947789
 31
0.0
  0
LINE
  5
F9
  8
0
 10
156.64284191056649
 20
163.1204041947791
 30
0.0
 11
157.79754244894579
 21
165.1204041947791
 31
0.0
  0
CIRCLE
  5
FA
  8
0
 10
188.48814137218719
 20
165.12040419477881
 30
0.0
 40
2.458499999999999
  0
CIRCLE
  5
FB
  8
3
 10
188.48814137218719
 20
165.12040419477881
 30
0.0
 40
3.0
  0
LINE
  5
FC
  8
0
 10
137.10139002623899
 20
136.12040419477901
 30
0.0
 11
142.8748927181353
 21
136.12040419477881
 31
0.0
  0
LINE
  5
FD
  8
0
 10
142.8748927181353
 20
136.12040419477881
 30
0.0
 11
145.7616440640835
 21
141.1204041947789
 31
0.0
  0
LINE
  5
FE
  8
0
 10
145.7616440640835
 20
141.1204041947789
 30
0.0
 11
142.8748927181353
 21
146.1204041947789
 31
0.0
  0
LINE
  5
FF
  8
0
 10
142.8748927181353
 20
146.1204041947789
 30
0.0
 11
137.10139002623899
 21
146.1204041947789
 31
0.0
  0
LINE
  5
100
  8
0
 10
137.10139002623899
 20
146.1204041947789
 30
0.0
 11
134.2146386802909
 21
141.1204041947789
 31
0.0
  0
LINE
  5
101
  8
0
 10
134.2146386802909
 20
141.1204041947789
 30
0.0
 11
137.10139002623899
 21
136.12040419477901
 31
0.0
  0
ARC
  5
102
  8
0
 10
227.98814137218719
 20
177.1204041947789
 30
0.0
 40
4.0
 50
0.0
 51
90.0
  0
ARC
  5
103
  8
0
 10
227.9881413721873
 20
105.120404194779
 30
0.0
 40
4.0
 50
269.99999999999989
 51
0.0
  0
ARC
  5
104
  8
0
 10
135.9881413721873
 20
105.120404194779
 30
0.0
 40
4.0
 50
180.0
 51
269.99999999999977
  0
ARC
  5
105
  8
0
 10
135.9881413721873
 20
177.12040419477901
 30
0.0
 40
4.0
 50
90.0
 51
179.99999999999989
  0
LINE
  5
106
  8
0
 10
146.9881413721873
 20
101.1204041947789
 30
0.0
 11
135.9881413721873
 21
101.120404194779
 31
0.0
  0
LINE
  5
107
  8
0
 10
195.48814137218741
 20
101.120404194779
 30
0.0
 11
148.4881413721873
 21
101.1204041947789
 31
0.0
  0
LINE
  5
108
  8
0
 10
195.4881413721873
 20
103.1204041947789
 30
0.0
 11
196.9881413721873
 21
103.1204041947789
 31
0.0
  0
LINE
  5
109
  8
0
 10
146.98814137218719
 20
103.1204041947789
 30
0.0
 11
148.48814137218719
 21
103.1204041947789
 31
0.0
  0
LINE
  5
10A
  8
0
 10
196.9881413721873
 20
181.1204041947789
 30
0.0
 11
227.9881413721873
 21
181.1204041947789
 31
0.0
  0
LINE
  5
10B
  8
0
 10
148.4881413721873
 20
181.1204041947789
 30
0.0
 11
195.4881413721873
 21
181.1204041947789
 31
0.0
  0
LINE
  5
10C
  8
0
 10
146.98814137218719
 20
179.1204041947789
 30
0.0
 11
148.48814137218719
 21
179.1204041947789
 31
0.0
  0
LINE
  5
10D
  8
0
 10
195.4881413721873
 20
179.1204041947789
 30
0.0
 11
196.9881413721873
 21
179.1204041947789
 31
0.0
  0
CIRCLE
  5
10E
  8
0
 10
171.98814137218741
 20
141.1204041947789
 30
0.0
 40
11.0
  0
CIRCLE
  5
10F
  8
0
 10
171.98814137218741
 20
141.1204041947789
 30
0.0
 40
10.25
  0
CIRCLE
  5
110
  8
0
 10
171.98814137218741
 20
141.1204041947789
 30
0.0
 40
9.0
  0
LINE
  5
111
  8
0
 10
166.21463868029099
 20
173.1204041947789
 30
0.0
 11
169.10139002623899
 21
168.12040419477901
 31
0.0
  0
LINE
  5
112
  8
0
 10
169.1013900262393
 20
178.1204041947789
 30
0.0
 11
166.21463868029099
 21
173.1204041947789
 31
0.0
  0
LINE
  5
113
  8
0
 10
174.87489271813541
 20
178.1204041947789
 30
0.0
 11
169.1013900262393
 21
178.1204041947789
 31
0.0
  0
LINE
  5
114
  8
0
 10
177.76164406408361
 20
173.1204041947789
 30
0.0
 11
174.87489271813541
 21
178.1204041947789
 31
0.0
  0
LINE
  5
115
  8
0
 10
174.87489271813541
 20
168.12040419477881
 30
0.0
 11
177.76164406408361
 21
173.1204041947789
 31
0.0
  0
LINE
  5
116
  8
0
 10
169.10139002623899
 20
168.12040419477901
 30
0.0
 11
174.87489271813541
 21
168.12040419477881
 31
0.0
  0
LINE
  5
117
  8
0
 10
166.21463868029099
 20
109.120404194779
 30
0.0
 11
169.10139002623899
 21
104.120404194779
 31
0.0
  0
LINE
  5
118
  8
0
 10
169.1013900262393
 20
114.1204041947789
 30
0.0
 11
166.21463868029099
 21
109.120404194779
 31
0.0
  0
LINE
  5
119
  8
0
 10
174.87489271813541
 20
114.120404194779
 30
0.0
 11
169.1013900262393
 21
114.1204041947789
 31
0.0
  0
LINE
  5
11A
  8
0
 10
177.76164406408361
 20
109.120404194779
 30
0.0
 11
174.87489271813541
 21
114.120404194779
 31
0.0
  0
LINE
  5
11B
  8
0
 10
174.87489271813541
 20
104.1204041947789
 30
0.0
 11
177.76164406408361
 21
109.120404194779
 31
0.0
  0
LINE
  5
11C
  8
0
 10
169.10139002623899
 20
104.120404194779
 30
0.0
 11
174.87489271813541
 21
104.1204041947789
 31
0.0
  0
LINE
  5
11D
  8
0
 10
195.4881413721873
 20
101.120404194779
 30
0.0
 11
195.4881413721873
 21
181.1204041947789
 31
0.0
  0
LINE
  5
11E
  8
0
 10
148.4881413721873
 20
101.120404194779
 30
0.0
 11
148.4881413721873
 21
181.1204041947789
 31
0.0
  0
LINE
  5
11F
  8
0
 10
196.9881413721873
 20
101.120404194779
 30
0.0
 11
196.9881413721873
 21
181.1204041947789
 31
0.0
  0
LINE
  5
120
  8
0
 10
146.9881413721873
 20
101.120404194779
 30
0.0
 11
146.9881413721873
 21
181.1204041947789
 31
0.0
  0
LINE
  5
121
  8
0
 10
227.9881413721873
 20
101.120404194779
 30
0.0
 11
196.98814137218741
 21
101.120404194779
 31
0.0
  0
LINE
  5
122
  8
0
 10
231.9881413721873
 20
177.1204041947789
 30
0.0
 11
231.9881413721873
 21
105.120404194779
 31
0.0
  0
LINE
  5
123
  8
0
 10
135.9881413721873
 20
181.12040419477901
 30
0.0
 11
146.9881413721873
 21
181.1204041947789
 31
0.0
  0
LINE
  5
124
  8
0
 10
131.9881413721873
 20
105.120404194779
 30
0.0
 11
131.98814137218719
 21
177.12040419477901
 31
0.0
  0
LINE
  5
125
  8
1
 10
171.98814137218741
 20
209.89554842347351
 30
0.0
 11
171.98814137218741
 21
259.89554842347349
 31
0.0
  0
LINE
  5
126
  8
1
 10
294.91545134125653
 20
186.1204041947789
 30
0.0
 11
294.91545134125641
 21
96.120404194778914
 31
0.0
  0
LINE
  5
127
  8
1
 10
171.98814137218741
 20
96.120404194778956
 30
0.0
 11
171.98814137218741
 21
186.1204041947789
 31
0.0
  0
CIRCLE
  5
128
  8
0
 10
171.98814137218741
 20
173.12040419477881
 30
0.0
 40
3.0499999999999989
  0
CIRCLE
  5
129
  8
0
 10
171.98814137218741
 20
109.1204041947789
 30
0.0
 40
3.0499999999999989
  0
CIRCLE
  5
12A
  8
0
 10
139.98814137218719
 20
141.1204041947789
 30
0.0
 40
5.0
  0
CIRCLE
  5
12B
  8
0
 10
139.98814137218719
 20
141.1204041947789
 30
0.0
 40
4.3071796769724946
  0
LINE
  5
12C
  8
0
 10
138.54476569921329
 20
138.6204041947787
 30
0.0
 11
141.431517045161
 21
138.62040419477921
 31
0.0
  0
LINE
  5
12D
  8
0
 10
137.1013900262389
 20
141.1204041947789
 30
0.0
 11
138.54476569921329
 21
138.6204041947787
 31
0.0
  0
LINE
  5
12E
  8
0
 10
138.54476569921241
 20
143.6204041947789
 30
0.0
 11
137.1013900262389
 21
141.1204041947789
 31
0.0
  0
LINE
  5
12F
  8
0
 10
141.431517045161
 20
143.6204041947789
 30
0.0
 11
138.54476569921241
 21
143.6204041947789
 31
0.0
  0
LINE
  5
130
  8
0
 10
142.8748927181351
 20
141.12040419477921
 30
0.0
 11
141.431517045161
 21
143.6204041947789
 31
0.0
  0
LINE
  5
131
  8
0
 10
141.431517045161
 20
138.62040419477921
 30
0.0
 11
142.8748927181351
 21
141.12040419477921
 31
0.0
  0
CIRCLE
  5
132
  8
0
 10
171.98814137218741
 20
141.1204041947789
 30
0.0
 40
4.0
  0
CIRCLE
  5
133
  8
0
 10
68.062947505085958
 20
169.1204041947789
 30
0.0
 40
4.0
  0
CIRCLE
  5
134
  8
0
 10
68.062947505085958
 20
153.1204041947789
 30
0.0
 40
4.0
  0
CIRCLE
  5
135
  8
0
 10
68.062947505085901
 20
129.1204041947789
 30
0.0
 40
4.0
  0
CIRCLE
  5
136
  8
0
 10
68.062947505085901
 20
113.1204041947789
 30
0.0
 40
4.0
  0
LINE
  5
137
  8
0
 10
68.062947505085958
 20
165.1204041947789
 30
0.0
 11
68.062947505085958
 21
157.1204041947789
 31
0.0
  0
LINE
  5
138
  8
0
 10
68.062947505085901
 20
125.1204041947789
 30
0.0
 11
68.062947505085901
 21
117.1204041947789
 31
0.0
  0
CIRCLE
  5
139
  8
0
 10
210.9881413721873
 20
234.8955484234736
 30
0.0
 40
3.5
  0
CIRCLE
  5
13A
  8
0
 10
210.9881413721873
 20
49.191859642551428
 30
0.0
 40
3.5
  0
LINE
  5
13B
  8
1
 10
171.98814137218741
 20
24.19185964255124
 30
0.0
 11
171.98814137218741
 21
74.191859642551321
 31
0.0
  0
ARC
  5
13C
  8
0
 10
135.98814137218719
 20
65.191859642551265
 30
0.0
 40
4.0
 50
90.000000000000171
 51
180.0
  0
LINE
  5
13D
  8
0
 10
146.98814137218719
 20
69.191859642551378
 30
0.0
 11
135.98814137218719
 21
69.191859642551265
 31
0.0
  0
LINE
  5
13E
  8
0
 10
195.4881413721873
 20
69.191859642551265
 30
0.0
 11
148.48814137218719
 21
69.191859642551378
 31
0.0
  0
LINE
  5
13F
  8
0
 10
146.98814137218719
 20
67.191859642551378
 30
0.0
 11
148.48814137218719
 21
67.191859642551378
 31
0.0
  0
LINE
  5
140
  8
0
 10
148.48814137218719
 20
69.191859642551265
 30
0.0
 11
148.48814137218719
 21
63.191859642551321
 31
0.0
  0
LINE
  5
141
  8
0
 10
146.98814137218719
 20
69.191859642551265
 30
0.0
 11
146.98814137218719
 21
63.191859642551321
 31
0.0
  0
LINE
  5
142
  8
0
 10
131.98814137218719
 20
65.191859642551265
 30
0.0
 11
131.98814137218719
 21
33.191859642551208
 31
0.0
  0
ARC
  5
143
  8
0
 10
227.98814137218719
 20
65.191859642551265
 30
0.0
 40
4.0
 50
0.0
 51
90.000000000000057
  0
LINE
  5
144
  8
0
 10
195.48814137218719
 20
67.191859642551378
 30
0.0
 11
196.98814137218719
 21
67.191859642551378
 31
0.0
  0
LINE
  5
145
  8
0
 10
195.48814137218719
 20
69.191859642551265
 30
0.0
 11
195.48814137218719
 21
63.191859642551321
 31
0.0
  0
LINE
  5
146
  8
0
 10
196.98814137218719
 20
69.191859642551265
 30
0.0
 11
196.9881413721873
 21
63.191859642551442
 31
0.0
  0
LINE
  5
147
  8
0
 10
227.98814137218719
 20
69.191859642551265
 30
0.0
 11
196.9881413721873
 21
69.191859642551265
 31
0.0
  0
LINE
  5
148
  8
0
 10
219.88814137218731
 20
49.191859642551321
 30
0.0
 11
214.48814137218841
 21
49.191859642551321
 31
0.0
  0
LINE
  5
149
  8
0
 10
227.98814137218719
 20
29.19185964255124
 30
0.0
 11
196.9881413721873
 21
29.191859642551261
 31
0.0
  0
LINE
  5
14A
  8
0
 10
195.48814137218719
 20
31.191859642551211
 30
0.0
 11
196.98814137218719
 21
31.191859642551211
 31
0.0
  0
ARC
  5
14B
  8
0
 10
227.98814137218719
 20
33.191859642551208
 30
0.0
 40
4.0
 50
269.99999999999989
 51
0.0
  0
LINE
  5
14C
  8
0
 10
146.98814137218719
 20
31.191859642551211
 30
0.0
 11
148.48814137218719
 21
31.191859642551211
 31
0.0
  0
LINE
  5
14D
  8
0
 10
195.4881413721873
 20
29.191859642551261
 30
0.0
 11
148.48814137218719
 21
29.191859642551211
 31
0.0
  0
LINE
  5
14E
  8
0
 10
146.98814137218719
 20
29.191859642551211
 30
0.0
 11
135.98814137218719
 21
29.19185964255124
 31
0.0
  0
ARC
  5
14F
  8
0
 10
135.98814137218719
 20
33.191859642551208
 30
0.0
 40
4.0
 50
180.0
 51
269.99999999999977
  0
LINE
  5
150
  8
0
 10
136.4881413721873
 20
44.191859642551428
 30
0.0
 11
136.4881413721873
 21
40.391859642550912
 31
0.0
  0
LINE
  5
151
  8
0
 10
133.48814137218719
 20
45.191859642551428
 30
0.0
 11
135.4881413721873
 21
45.191859642551428
 31
0.0
  0
LINE
  5
152
  8
0
 10
133.48814137218719
 20
53.191859642551442
 30
0.0
 11
135.48814137218719
 21
53.191859642551442
 31
0.0
  0
ARC
  5
153
  8
0
 10
133.48814137218719
 20
43.691859642551442
 30
0.0
 40
1.5
 50
89.999999999999986
 51
180.0
  0
ARC
  5
154
  8
0
 10
133.48814137218719
 20
54.691859642551428
 30
0.0
 40
1.5
 50
180.0
 51
270.0
  0
ARC
  5
155
  8
0
 10
135.4881413721873
 20
44.191859642551428
 30
0.0
 40
1.0
 50
360.0
 51
89.999999999999687
  0
ARC
  5
156
  8
0
 10
135.48814137218719
 20
54.191859642551428
 30
0.0
 40
1.0
 50
269.99999999999972
 51
360.0
  0
ARC
  5
157
  8
0
 10
123.5881413721872
 20
59.565539518882872
 30
0.0
 40
25.0
 50
306.33013470900852
 51
322.2300345223918
  0
ARC
  5
158
  8
0
 10
137.68814137218521
 20
40.391859642550848
 30
0.0
 40
1.1999999999999991
 50
179.99987120871799
 51
306.33015139979051
  0
ARC
  5
159
  8
0
 10
123.5881413721872
 20
38.818179766219998
 30
0.0
 40
25.0
 50
37.76996547760853
 51
53.669865290991503
  0
ARC
  5
15A
  8
0
 10
137.68814137218521
 20
57.991859642552008
 30
0.0
 40
1.1999999999999991
 50
53.669848600209463
 51
180.0001287912819
  0
LINE
  5
15B
  8
0
 10
136.4881413721873
 20
54.191859642551492
 30
0.0
 11
136.4881413721873
 21
57.991859642552008
 31
0.0
  0
LINE
  5
15C
  8
0
 10
145.48814137218719
 20
45.191859642551428
 30
0.0
 11
146.48814137218719
 21
45.191859642551428
 31
0.0
  0
LINE
  5
15D
  8
0
 10
145.48814137218719
 20
53.191859642551442
 30
0.0
 11
146.48814137218719
 21
53.191859642551442
 31
0.0
  0
LINE
  5
15E
  8
0
 10
145.48814137218719
 20
53.191859642551442
 30
0.0
 11
145.48814137218719
 21
45.191859642551428
 31
0.0
  0
LINE
  5
15F
  8
0
 10
146.4881413721873
 20
63.191859642551321
 30
0.0
 11
146.4881413721873
 21
53.191859642551442
 31
0.0
  0
LINE
  5
160
  8
0
 10
151.98814137218719
 20
45.191859642551428
 30
0.0
 11
191.7881413721872
 21
45.191859642551428
 31
0.0
  0
LINE
  5
161
  8
0
 10
151.98814137218719
 20
53.191859642551442
 30
0.0
 11
191.7881413721872
 21
53.191859642551542
 31
0.0
  0
LINE
  5
162
  8
0
 10
151.98814137218719
 20
35.191859642551321
 30
0.0
 11
146.48814137218719
 21
35.191859642551378
 31
0.0
  0
LINE
  5
163
  8
0
 10
151.98814137218719
 20
63.191859642551321
 30
0.0
 11
146.4881413721873
 21
63.191859642551321
 31
0.0
  0
LINE
  5
164
  8
0
 10
148.48814137218719
 20
35.191859642551321
 30
0.0
 11
148.48814137218719
 21
29.191859642551211
 31
0.0
  0
LINE
  5
165
  8
0
 10
146.98814137218719
 20
35.191859642551378
 30
0.0
 11
146.9881413721873
 21
29.191859642551179
 31
0.0
  0
LINE
  5
166
  8
0
 10
146.48814137218719
 20
45.191859642551428
 30
0.0
 11
146.48814137218719
 21
35.191859642551321
 31
0.0
  0
LINE
  5
167
  8
0
 10
151.98814137218719
 20
63.191859642551321
 30
0.0
 11
151.98814137218719
 21
35.191859642551378
 31
0.0
  0
LINE
  5
168
  8
0
 10
191.7881413721872
 20
63.191859642551321
 30
0.0
 11
191.7881413721872
 21
53.191859642551542
 31
0.0
  0
LINE
  5
169
  8
0
 10
198.28814137218711
 20
63.191859642551321
 30
0.0
 11
191.7881413721872
 21
63.191859642551321
 31
0.0
  0
LINE
  5
16A
  8
0
 10
198.28814137218711
 20
35.191859642551321
 30
0.0
 11
191.7881413721872
 21
35.191859642551378
 31
0.0
  0
LINE
  5
16B
  8
0
 10
198.28814137218711
 20
63.191859642551321
 30
0.0
 11
198.28814137218711
 21
35.191859642551378
 31
0.0
  0
LINE
  5
16C
  8
0
 10
195.48814137218719
 20
35.191859642551378
 30
0.0
 11
195.48814137218719
 21
29.191859642551261
 31
0.0
  0
LINE
  5
16D
  8
0
 10
196.98814137218741
 20
35.191859642551378
 30
0.0
 11
196.98814137218741
 21
29.1918596425513
 31
0.0
  0
LINE
  5
16E
  8
0
 10
191.7881413721872
 20
45.191859642551378
 30
0.0
 11
191.7881413721872
 21
35.191859642551378
 31
0.0
  0
LINE
  5
16F
  8
0
 10
231.98814137218719
 20
65.191859642551265
 30
0.0
 11
231.98814137218719
 21
54.691859642551428
 31
0.0
  0
LINE
  5
170
  8
0
 10
231.98814137218719
 20
43.691859642551442
 30
0.0
 11
231.98814137218719
 21
33.191859642551208
 31
0.0
  0
LINE
  5
171
  8
0
 10
220.08464620936911
 20
45.191859642551428
 30
0.0
 11
198.28814137218711
 21
45.191859642551428
 31
0.0
  0
LINE
  5
172
  8
0
 10
220.0846462093711
 20
53.191859642551542
 30
0.0
 11
198.28814137218711
 21
53.191859642551542
 31
0.0
  0
LINE
  5
173
  8
0
 10
144.1881413721872
 20
51.680527918871341
 30
0.0
 11
144.1881413721872
 21
46.703191366231692
 31
0.0
  0
ARC
  5
174
  8
0
 10
140.1881413721872
 20
51.680527918871341
 30
0.0
 40
4.0
 50
0.0
 51
37.769965477608537
  0
ARC
  5
175
  8
0
 10
140.1881413721872
 20
46.703191366231692
 30
0.0
 40
4.0
 50
322.23003452239158
 51
0.0
  0
ARC
  5
176
  8
0
 10
223.7881413721874
 20
46.703191366231692
 30
0.0
 40
4.0
 50
180.0
 51
217.76996547760839
  0
ARC
  5
177
  8
0
 10
223.7881413721874
 20
51.680527918871341
 30
0.0
 40
4.0
 50
142.23003452239149
 51
180.0
  0
LINE
  5
178
  8
0
 10
219.7881413721874
 20
51.680527918871341
 30
0.0
 11
219.7881413721874
 21
46.703191366231692
 31
0.0
  0
LINE
  5
179
  8
0
 10
227.48814137218719
 20
54.191859642551492
 30
0.0
 11
227.48814137218719
 21
57.991859642552008
 31
0.0
  0
ARC
  5
17A
  8
0
 10
226.28814137218919
 20
57.991859642552008
 30
0.0
 40
1.1999999999999991
 50
359.9998712087181
 51
126.33015139979059
  0
ARC
  5
17B
  8
0
 10
240.38814137218731
 20
38.818179766219998
 30
0.0
 40
25.0
 50
126.3301347090085
 51
142.23003452239149
  0
ARC
  5
17C
  8
0
 10
226.28814137218919
 20
40.391859642550848
 30
0.0
 40
1.1999999999999991
 50
233.66984860020949
 51
0.0001287912819524
  0
ARC
  5
17D
  8
0
 10
240.38814137218731
 20
59.565539518882872
 30
0.0
 40
25.0
 50
217.76996547760831
 51
233.66986529099159
  0
ARC
  5
17E
  8
0
 10
228.48814137218719
 20
54.191859642551428
 30
0.0
 40
1.0
 50
180.00000000000011
 51
270.00000000000028
  0
ARC
  5
17F
  8
0
 10
228.48814137218719
 20
44.191859642551428
 30
0.0
 40
1.0
 50
90.000000000000327
 51
180.0
  0
ARC
  5
180
  8
0
 10
230.48814137218719
 20
54.691859642551428
 30
0.0
 40
1.5
 50
270.00000000000011
 51
0.0000000000000254
  0
ARC
  5
181
  8
0
 10
230.48814137218719
 20
43.691859642551442
 30
0.0
 40
1.5
 50
0.0000000000000254
 51
90.000000000000057
  0
LINE
  5
182
  8
0
 10
230.48814137218719
 20
53.191859642551442
 30
0.0
 11
228.48814137218719
 21
53.191859642551442
 31
0.0
  0
LINE
  5
183
  8
0
 10
230.48814137218719
 20
45.191859642551428
 30
0.0
 11
228.48814137218719
 21
45.191859642551428
 31
0.0
  0
LINE
  5
184
  8
0
 10
227.48814137218719
 20
44.191859642551428
 30
0.0
 11
227.48814137218719
 21
40.391859642550912
 31
0.0
  0
LINE
  5
185
  8
0
 10
207.48814137218531
 20
49.191859642551321
 30
0.0
 11
198.28814137218711
 21
49.191859642551321
 31
0.0
  0
LINE
  5
186
  8
1
 10
210.9881413721873
 20
55.241859642551283
 30
0.0
 11
210.9881413721873
 21
43.141859642551253
 31
0.0
  0
LINE
  5
187
  8
0
 10
159.98814137218719
 20
49.191859642551321
 30
0.0
 11
159.98814137218719
 21
47.191859642551428
 31
0.0
  0
LINE
  5
188
  8
0
 10
181.98814137218719
 20
49.191859642551321
 30
0.0
 11
181.98814137218719
 21
47.191859642551321
 31
0.0
  0
LINE
  5
189
  8
0
 10
159.98814137218719
 20
49.191859642551378
 30
0.0
 11
151.98814137218719
 21
49.191859642551428
 31
0.0
  0
LINE
  5
18A
  8
0
 10
186.98814137218719
 20
53.191859642551542
 30
0.0
 11
186.98814137218719
 21
45.191859642551428
 31
0.0
  0
LINE
  5
18B
  8
0
 10
186.98814137218719
 20
49.191859642551321
 30
0.0
 11
181.98814137218719
 21
49.191859642551321
 31
0.0
  0
LINE
  5
18C
  8
0
 10
145.48814137218719
 20
49.191859642551378
 30
0.0
 11
131.98814137218719
 21
49.191859642551428
 31
0.0
  0
LINE
  5
18D
  8
0
 10
159.98814137218719
 20
47.191859642551428
 30
0.0
 11
181.98814137218719
 21
47.191859642551321
 31
0.0
  0
LINE
  5
18E
  8
1
 10
126.9881413721873
 20
49.191859642551428
 30
0.0
 11
236.98814137218719
 21
49.191859642551428
 31
0.0
  0
LINE
  5
236
  8
0
 10
289.91545134125658
 20
105.620404194779
 30
0.0
 11
286.11545134125612
 21
105.620404194779
 31
0.0
  0
LINE
  5
237
  8
0
 10
290.91545134125658
 20
102.6204041947789
 30
0.0
 11
290.91545134125658
 21
104.620404194779
 31
0.0
  0
LINE
  5
238
  8
0
 10
298.91545134125658
 20
102.6204041947789
 30
0.0
 11
298.91545134125658
 21
104.6204041947789
 31
0.0
  0
ARC
  5
239
  8
0
 10
289.4154513412567
 20
102.6204041947789
 30
0.0
 40
1.5
 50
270.0
 51
0.0
  0
ARC
  5
23A
  8
0
 10
300.41545134125658
 20
102.6204041947789
 30
0.0
 40
1.5
 50
180.0
 51
270.0
  0
ARC
  5
23B
  8
0
 10
289.91545134125658
 20
104.620404194779
 30
0.0
 40
1.0
 50
0.0000000000003194
 51
90.000000000000028
  0
ARC
  5
23C
  8
0
 10
299.91545134125658
 20
104.6204041947789
 30
0.0
 40
1.0
 50
90.000000000000057
 51
180.00000000000031
  0
ARC
  5
23D
  8
0
 10
305.28913121758808
 20
92.720404194778936
 30
0.0
 40
25.0
 50
127.7699654776082
 51
143.66986529099151
  0
ARC
  5
23E
  8
0
 10
286.11545134125612
 20
106.8204041947769
 30
0.0
 40
1.1999999999999991
 50
143.66984860020941
 51
270.00012879128201
  0
ARC
  5
23F
  8
0
 10
284.5417714649252
 20
92.720404194778936
 30
0.0
 40
25.0
 50
36.330134709008547
 51
52.230034522391513
  0
ARC
  5
240
  8
0
 10
303.71545134125722
 20
106.8204041947769
 30
0.0
 40
1.1999999999999991
 50
269.9998712087181
 51
36.330151399790587
  0
LINE
  5
241
  8
0
 10
299.9154513412567
 20
105.620404194779
 30
0.0
 11
303.71545134125722
 21
105.620404194779
 31
0.0
  0
LINE
  5
242
  8
0
 10
297.40411961757661
 20
113.3204041947789
 30
0.0
 11
292.4267830649369
 21
113.3204041947789
 31
0.0
  0
ARC
  5
243
  8
0
 10
297.40411961757661
 20
109.3204041947789
 30
0.0
 40
4.0
 50
52.230034522391513
 51
90.000000000000028
  0
ARC
  5
244
  8
0
 10
292.4267830649369
 20
109.3204041947789
 30
0.0
 40
4.0
 50
90.000000000000028
 51
127.76996547760839
  0
LINE
  5
245
  8
0
 10
299.9154513412567
 20
176.62040419477881
 30
0.0
 11
303.71545134125722
 21
176.62040419477881
 31
0.0
  0
ARC
  5
246
  8
0
 10
303.71545134125722
 20
175.42040419478079
 30
0.0
 40
1.1999999999999991
 50
323.66984860020938
 51
90.000128791281895
  0
ARC
  5
247
  8
0
 10
286.11545134125612
 20
175.42040419478079
 30
0.0
 40
1.1999999999999991
 50
89.999871208718048
 51
216.33015139979051
  0
ARC
  5
248
  8
0
 10
299.91545134125658
 20
177.62040419477881
 30
0.0
 40
1.0
 50
179.99999999999969
 51
269.99999999999989
  0
ARC
  5
249
  8
0
 10
289.91545134125658
 20
177.6204041947787
 30
0.0
 40
1.0
 50
270.0
 51
359.99999999999972
  0
ARC
  5
24A
  8
0
 10
300.41545134125658
 20
179.62040419477881
 30
0.0
 40
1.5
 50
90.000000000000028
 51
180.0
  0
ARC
  5
24B
  8
0
 10
289.4154513412567
 20
179.62040419477881
 30
0.0
 40
1.5
 50
0.0
 51
90.000000000000028
  0
LINE
  5
24C
  8
0
 10
298.91545134125658
 20
179.6204041947789
 30
0.0
 11
298.91545134125658
 21
177.6204041947789
 31
0.0
  0
LINE
  5
24D
  8
0
 10
290.91545134125658
 20
179.6204041947789
 30
0.0
 11
290.91545134125658
 21
177.62040419477881
 31
0.0
  0
LINE
  5
24E
  8
0
 10
289.91545134125658
 20
176.62040419477881
 30
0.0
 11
286.11545134125612
 21
176.62040419477881
 31
0.0
  0
ARC
  5
24F
  8
0
 10
284.5417714649252
 20
189.52040419477879
 30
0.0
 40
25.0
 50
307.76996547760848
 51
323.66986529099148
  0
ARC
  5
250
  8
0
 10
305.28913121758808
 20
189.52040419477879
 30
0.0
 40
25.0
 50
216.33013470900849
 51
232.2300345223918
  0
ARC
  5
251
  8
0
 10
297.40411961757661
 20
172.9204041947788
 30
0.0
 40
4.0
 50
270.0
 51
307.76996547760848
  0
LINE
  5
252
  8
0
 10
297.40411961757661
 20
168.9204041947788
 30
0.0
 11
292.4267830649369
 21
168.9204041947788
 31
0.0
  0
ARC
  5
253
  8
0
 10
292.4267830649369
 20
172.9204041947788
 30
0.0
 40
4.0
 50
232.23003452239161
 51
270.0
  0
TEXT
  5
2FC
  8
0
 62
     3
 10
0.0
 20
0.0
 30
0.0
 40
10.0
  1
DE-RU40-8
  7
STANDARD1
  0
ENDSEC
  0
EOF
