  0
SECTION
  2
HEADER
  9
$ACADVER
  1
AC1009
  9
$INSBASE
 10
0.0
 20
0.0
 30
0.0
  9
$EXTMIN
 10
0.0
 20
-2.960436562073669
 30
0.0
  9
$EXTMAX
 10
126.11050118078489
 20
102.2587195614876
 30
0.0
  9
$LIMMIN
 10
0.0
 20
0.0
  9
$LIMMAX
 10
390.0
 20
270.0
  9
$ORTHOMODE
 70
     1
  9
$REGENMODE
 70
     1
  9
$FILLMODE
 70
     1
  9
$QTEXTMODE
 70
     0
  9
$MIRRTEXT
 70
     0
  9
$DRAGMODE
 70
     2
  9
$LTSCALE
 40
5.0
  9
$OSMODE
 70
  3071
  9
$ATTMODE
 70
     1
  9
$TEXTSIZE
 40
0.2
  9
$TRACEWID
 40
0.05
  9
$TEXTSTYLE
  7
STANDARD
  9
$CLAYER
  8
0
  9
$CELTYPE
  6
BYLAYER
  9
$CECOLOR
 62
   256
  9
$DIMSCALE
 40
1.0
  9
$DIMASZ
 40
3.0
  9
$DIMEXO
 40
1.0
  9
$DIMDLI
 40
6.0
  9
$DIMRND
 40
0.0
  9
$DIMDLE
 40
0.0
  9
$DIMEXE
 40
1.0
  9
$DIMTP
 40
495.0
  9
$DIMTM
 40
0.0
  9
$DIMTXT
 40
3.0
  9
$DIMCEN
 40
0.0
  9
$DIMTSZ
 40
0.0
  9
$DIMTOL
 70
     0
  9
$DIMLIM
 70
     0
  9
$DIMTIH
 70
     0
  9
$DIMTOH
 70
     0
  9
$DIMSE1
 70
     0
  9
$DIMSE2
 70
     0
  9
$DIMTAD
 70
     1
  9
$DIMZIN
 70
     0
  9
$DIMBLK
  1

  9
$DIMASO
 70
     0
  9
$DIMSHO
 70
     0
  9
$DIMPOST
  1

  9
$DIMAPOST
  1

  9
$DIMALT
 70
     0
  9
$DIMALTD
 70
     2
  9
$DIMALTF
 40
25.399999999999999
  9
$DIMLFAC
 40
1.0
  9
$DIMTOFL
 70
     1
  9
$DIMTVP
 40
0.0
  9
$DIMTIX
 70
     1
  9
$DIMSOXD
 70
     0
  9
$DIMSAH
 70
     0
  9
$DIMBLK1
  1

  9
$DIMBLK2
  1

  9
$DIMSTYLE
  2
STANDARD
  9
$DIMCLRD
 70
     0
  9
$DIMCLRE
 70
     0
  9
$DIMCLRT
 70
     0
  9
$DIMTFAC
 40
1.0
  9
$DIMGAP
 40
0.09
  9
$LUNITS
 70
     2
  9
$LUPREC
 70
     2
  9
$SKETCHINC
 40
0.1
  9
$FILLETRAD
 40
1.0
  9
$AUNITS
 70
     0
  9
$AUPREC
 70
     2
  9
$MENU
  1
E:\r13\win\SUPPORT\ACAD
  9
$ELEVATION
 40
0.0
  9
$PELEVATION
 40
0.0
  9
$THICKNESS
 40
0.0
  9
$LIMCHECK
 70
     0
  9
$BLIPMODE
 70
     0
  9
$CHAMFERA
 40
0.0
  9
$CHAMFERB
 40
0.0
  9
$SKPOLY
 70
     0
  9
$TDCREATE
 40
2449840.6557060191
  9
$TDUPDATE
 40
2456598.6033046409
  9
$TDINDWG
 40
0.094651713
  9
$TDUSRTIMER
 40
0.094651713
  9
$USRTIMER
 70
     1
  9
$ANGBASE
 50
0.0
  9
$ANGDIR
 70
     0
  9
$PDMODE
 70
     0
  9
$PDSIZE
 40
0.0
  9
$PLINEWID
 40
0.0
  9
$COORDS
 70
     1
  9
$SPLFRAME
 70
     0
  9
$SPLINETYPE
 70
     6
  9
$SPLINESEGS
 70
     8
  9
$ATTDIA
 70
     0
  9
$ATTREQ
 70
     1
  9
$HANDLING
 70
     1
  9
$HANDSEED
  5
37F
  9
$SURFTAB1
 70
     6
  9
$SURFTAB2
 70
     6
  9
$SURFTYPE
 70
     6
  9
$SURFU
 70
     6
  9
$SURFV
 70
     6
  9
$UCSNAME
  2

  9
$UCSORG
 10
0.0
 20
0.0
 30
0.0
  9
$UCSXDIR
 10
1.0
 20
0.0
 30
0.0
  9
$UCSYDIR
 10
0.0
 20
1.0
 30
0.0
  9
$PUCSNAME
  2

  9
$PUCSORG
 10
0.0
 20
0.0
 30
0.0
  9
$PUCSXDIR
 10
1.0
 20
0.0
 30
0.0
  9
$PUCSYDIR
 10
0.0
 20
1.0
 30
0.0
  9
$USERI1
 70
     3
  9
$USERI2
 70
     1
  9
$USERI3
 70
     1
  9
$USERI4
 70
     1
  9
$USERI5
 70
     0
  9
$USERR1
 40
1.0
  9
$USERR2
 40
3.0
  9
$USERR3
 40
3.0
  9
$USERR4
 40
3.0
  9
$USERR5
 40
10.0
  9
$WORLDVIEW
 70
     1
  9
$SHADEDGE
 70
     3
  9
$SHADEDIF
 70
    70
  9
$TILEMODE
 70
     1
  9
$MAXACTVP
 70
    16
  9
$PLIMCHECK
 70
     0
  9
$PEXTMIN
 10
1.0000000000000000E+020
 20
1.0000000000000000E+020
 30
1.0000000000000000E+020
  9
$PEXTMAX
 10
-1.0000000000000000E+020
 20
-1.0000000000000000E+020
 30
-1.0000000000000000E+020
  9
$PLIMMIN
 10
0.0
 20
0.0
  9
$PLIMMAX
 10
12.0
 20
9.0
  9
$UNITMODE
 70
     0
  9
$VISRETAIN
 70
     0
  9
$PLINEGEN
 70
     0
  9
$PSLTSCALE
 70
     0
  0
ENDSEC
  0
SECTION
  2
TABLES
  0
TABLE
  2
VPORT
 70
     1
  0
VPORT
  2
*ACTIVE
 70
     0
 10
0.0
 20
0.0
 11
1.0
 21
1.0
 12
202.55787946771341
 22
133.5127261426681
 13
0.0
 23
0.0
 14
10.0
 24
10.0
 15
10.0
 25
10.0
 16
0.0
 26
0.0
 36
1.0
 17
0.0
 27
0.0
 37
0.0
 40
275.42274993631997
 41
1.831871345029239
 42
50.0
 43
0.0
 44
0.0
 50
0.0
 51
0.0
 71
     0
 72
   100
 73
     1
 74
     0
 75
     0
 76
     0
 77
     0
 78
     0
  0
ENDTAB
  0
TABLE
  2
LTYPE
 70
     4
  0
LTYPE
  2
CONTINUOUS
 70
     0
  3
Solid Line
 72
    65
 73
     0
 40
0.0
  0
LTYPE
  2
CENTER
 70
     0
  3
____ _ ____ _ ____ _ ____ _ ____ _ ____ _ ____
 72
    65
 73
     4
 40
2.0
 49
1.25
 49
-0.25
 49
0.25
 49
-0.25
  0
LTYPE
  2
HIDDEN
 70
     0
  3
_ _ _ _ _ _ _ _ _ _ _ _ _ _ _ _ _ _ _ _ _ _ _
 72
    65
 73
     2
 40
0.375
 49
0.25
 49
-0.125
  0
LTYPE
  2
PHANTOM2
 70
     0
  3
___ _ _ ___ _ _ ___ _ _ ___ _ _
 72
    65
 73
     6
 40
1.25
 49
0.625
 49
-0.125
 49
0.125
 49
-0.125
 49
0.125
 49
-0.125
  0
ENDTAB
  0
TABLE
  2
LAYER
 70
     4
  0
LAYER
  2
0
 70
     0
 62
     7
  6
CONTINUOUS
  0
LAYER
  2
1
 70
     0
 62
     1
  6
CENTER
  0
LAYER
  2
ITEM_HILFE
 70
     0
 62
     3
  6
CONTINUOUS
  0
LAYER
  2
2
 70
     0
 62
     2
  6
HIDDEN
  0
ENDTAB
  0
TABLE
  2
STYLE
 70
     2
  0
STYLE
  2
STANDARD
 70
     0
 40
0.0
 41
1.0
 50
0.0
 71
     0
 42
0.2
  3
TXT
  4
BIGFONT
  0
STYLE
  2
STANDARD1
 70
     0
 40
0.0
 41
1.0
 50
0.0
 71
     0
 42
3.0
  3
txt
  4

  0
ENDTAB
  0
TABLE
  2
VIEW
 70
     0
  0
ENDTAB
  0
TABLE
  2
UCS
 70
     0
  0
ENDTAB
  0
TABLE
  2
APPID
 70
     4
  0
APPID
  2
ACAD
 70
     0
  0
APPID
  2
DCO15
 70
     0
  0
APPID
  2
ACAD_MLEADERVER
 70
     0
  0
APPID
  2
ACAD_NAV_VCDISPLAY
 70
     0
  0
ENDTAB
  0
TABLE
  2
DIMSTYLE
 70
     1
  0
DIMSTYLE
  2
STANDARD
 70
     0
  3

  4

  5

  6

  7

 40
1.0
 41
0.18
 42
0.0625
 43
0.38
 44
0.18
 45
0.0
 46
0.0
 47
0.0
 48
0.0
140
0.18
141
0.09
142
0.0
143
25.399999999999999
144
1.0
145
0.0
146
1.0
147
0.09
 71
     0
 72
     0
 73
     1
 74
     1
 75
     0
 76
     0
 77
     0
 78
     0
170
     0
171
     2
172
     0
173
     0
174
     0
175
     0
176
     0
177
     0
178
     0
  0
ENDTAB
  0
ENDSEC
  0
SECTION
  2
BLOCKS
  0
BLOCK
  8
0
  2
$MODEL_SPACE
 70
     0
 10
0.0
 20
0.0
 30
0.0
  3
$MODEL_SPACE
  1

  0
ENDBLK
  5
EE
  8
0
  0
BLOCK
 67
     1
  8
0
  2
$PAPER_SPACE
 70
     0
 10
0.0
 20
0.0
 30
0.0
  3
$PAPER_SPACE
  1

  0
ENDBLK
  5
EC
 67
     1
  8
0
  0
BLOCK
  8
0
  2
ACAD
 70
     0
 10
0.0
 20
0.0
 30
0.0
  3
ACAD
  1

  0
ENDBLK
  5
2F
  8
0
  0
BLOCK
  8
0
  2
37346B
 70
     0
 10
0.0
 20
0.0
 30
0.0
  3
37346B
  1

  0
ENDBLK
  5
31
  8
0
  0
BLOCK
  8
0
  2
37390B
 70
     0
 10
0.0
 20
0.0
 30
0.0
  3
37390B
  1

  0
ENDBLK
  5
33
  8
0
  0
ENDSEC
  0
SECTION
  2
ENTITIES
  0
INSERT
  5
3F
  8
0
  2
ACAD
 10
-39.07825600000001
 20
-31.896606999999999
 30
0.0
  0
INSERT
  5
40
  8
ITEM_HILFE
  2
ACAD
 10
144.12264200000001
 20
106.69976
 30
0.0
  0
INSERT
  5
41
  8
0
  2
ACAD
 10
340.68383799999998
 20
295.48077899999998
 30
0.0
  0
INSERT
  5
42
  8
0
  2
37346B
 10
139.52114700000001
 20
-10.988166
 30
0.0
  0
INSERT
  5
43
  8
0
  2
37390B
 10
139.52114700000001
 20
-10.988166
 30
0.0
  0
INSERT
  5
44
  8
0
  2
37346B
 10
139.52114700000001
 20
-10.988166
 30
0.0
  0
INSERT
  5
45
  8
0
  2
37390B
 10
139.52114700000001
 20
-10.988166
 30
0.0
  0
INSERT
  5
46
  8
0
  2
37346B
 10
158.30576199999999
 20
396.68875700000001
 30
0.0
  0
INSERT
  5
47
  8
0
  2
37390B
 10
158.30576199999999
 20
396.68875700000001
 30
0.0
  0
INSERT
  5
48
  8
0
  2
37346B
 10
158.30576199999999
 20
396.68875700000001
 30
0.0
  0
INSERT
  5
49
  8
0
  2
37390B
 10
158.30576199999999
 20
396.68875700000001
 30
0.0
  0
INSERT
  5
4A
  8
0
  2
37390B
 10
652.92548599999986
 20
307.17464999999999
 30
0.0
  0
LINE
  5
54
  8
1
 10
77.148353757585411
 20
99.671286561487662
 30
0.0
 11
77.148353757585411
 21
88.224238561487638
 31
0.0
  0
LINE
  5
55
  8
1
 10
84.266681757585417
 20
93.758719561487624
 30
0.0
 11
69.931802757585402
 21
93.758719561487624
 31
0.0
  0
CIRCLE
  5
6C
  8
0
 10
77.148353757585411
 20
93.758719561487652
 30
0.0
 40
2.649999999999999
  0
LINE
  5
6D
  8
0
 10
87.148353757585383
 20
98.758719561487624
 30
0.0
 11
87.148353757585383
 21
88.758719561487624
 31
0.0
  0
LINE
  5
6E
  8
0
 10
59.148353757585411
 20
98.758719561487624
 30
0.0
 11
59.148353757585411
 21
88.758719561487624
 31
0.0
  0
LINE
  5
6F
  8
0
 10
60.148353757585411
 20
87.758719561487638
 30
0.0
 11
86.148353757585397
 21
87.758719561487638
 31
0.0
  0
LINE
  5
70
  8
0
 10
86.148353757585397
 20
99.758719561487652
 30
0.0
 11
60.148353757585411
 21
99.758719561487652
 31
0.0
  0
LINE
  5
71
  8
1
 10
67.148353757585383
 20
85.258719561487638
 30
0.0
 11
67.148353757585411
 21
102.2587195614876
 31
0.0
  0
ARC
  5
72
  8
0
 10
60.148353757585411
 20
88.758719561487624
 30
0.0
 40
1.0
 50
180.0
 51
270.0
  0
ARC
  5
73
  8
0
 10
60.148353757585411
 20
98.758719561487624
 30
0.0
 40
1.0
 50
90.0
 51
180.0
  0
ARC
  5
74
  8
0
 10
86.148353757585397
 20
98.758719561487624
 30
0.0
 40
1.0
 50
0.0
 51
90.0
  0
ARC
  5
75
  8
0
 10
86.148353757585397
 20
88.758719561487624
 30
0.0
 40
1.0
 50
270.0
 51
0.0
  0
LINE
  5
76
  8
0
 10
73.098359757585413
 20
58.422906561487643
 30
0.0
 11
73.167012757585411
 21
58.354253561487639
 31
0.0
  0
LINE
  5
77
  8
0
 10
82.778617757585437
 20
65.854253561487639
 30
0.0
 11
85.128617757585417
 21
65.854253561487639
 31
0.0
  0
LINE
  5
78
  8
0
 10
87.128617757585417
 20
51.854253561487639
 30
0.0
 11
87.128617757585417
 21
63.854253561487639
 31
0.0
  0
LINE
  5
79
  8
0
 10
85.128617757585417
 20
49.854253561487639
 30
0.0
 11
61.128617757585417
 21
49.854253561487589
 31
0.0
  0
ARC
  5
7A
  8
0
 10
85.128617757585417
 20
63.854253561487639
 30
0.0
 40
2.0
 50
0.0
 51
90.0
  0
ARC
  5
7B
  8
0
 10
85.128617757585417
 20
51.854253561487639
 30
0.0
 40
2.0
 50
270.0
 51
0.0
  0
ARC
  5
7C
  8
0
 10
61.128617757585417
 20
51.854253561487639
 30
0.0
 40
2.0
 50
180.0
 51
270.0
  0
ARC
  5
7D
  8
0
 10
61.128617757585417
 20
63.854253561487639
 30
0.0
 40
2.0
 50
90.0
 51
180.0
  0
LINE
  5
7E
  8
0
 10
83.128617757585417
 20
57.354253561487639
 30
0.0
 11
73.101134757585413
 21
57.354253561487639
 31
0.0
  0
LINE
  5
7F
  8
0
 10
73.101134757585413
 20
58.354253561487639
 30
0.0
 11
83.128617757585417
 21
58.354253561487639
 31
0.0
  0
LINE
  5
80
  8
0
 10
73.103217757585412
 20
57.354253561487639
 30
0.0
 11
73.107748757585412
 21
57.354253561487639
 31
0.0
  0
LINE
  5
81
  8
0
 10
73.104443757585415
 20
58.354253561487639
 30
0.0
 11
73.107748757585412
 21
58.354253561487639
 31
0.0
  0
LINE
  5
82
  8
0
 10
59.128617757585417
 20
51.854253561487639
 30
0.0
 11
59.128617757585417
 21
63.854253561487639
 31
0.0
  0
ARC
  5
83
  8
0
 10
67.154173757585411
 20
57.861547561487633
 30
0.0
 40
5.9706339999999987
 50
344.843098
 51
355.12599999999998
  0
ARC
  5
84
  8
0
 10
67.154173757585411
 20
57.861547561487633
 30
0.0
 40
5.9706339999999987
 50
4.733522999999999
 51
14.914638999999999
  0
ARC
  5
85
  8
0
 10
67.099889757585416
 20
57.878300561487627
 30
0.0
 40
5.9706339999999987
 50
104.843098
 51
134.91463899999999
  0
ARC
  5
86
  8
0
 10
67.090216757585409
 20
57.846960561487641
 30
0.0
 40
5.9706339999999987
 50
164.843098
 51
194.91463899999999
  0
ARC
  5
87
  8
0
 10
67.11252275758541
 20
57.822912561487627
 30
0.0
 40
5.9706339999999987
 50
224.843098
 51
254.91463899999999
  0
ARC
  5
88
  8
0
 10
67.144500757585405
 20
57.830206561487643
 30
0.0
 40
5.9706339999999987
 50
284.894497
 51
314.91463900000002
  0
LINE
  5
89
  8
0
 10
69.956504757585421
 20
55.02459156148764
 30
0.0
 11
71.369255757585421
 21
53.61184156148763
 31
0.0
  0
LINE
  5
8A
  8
0
 10
70.992893757585421
 20
56.818515561487636
 30
0.0
 11
72.922169757585422
 21
56.301567561487637
 31
0.0
  0
LINE
  5
8B
  8
0
 10
70.992778757585413
 20
58.890417561487631
 30
0.0
 11
72.922169757585422
 21
59.40739556148764
 31
0.0
  0
LINE
  5
8C
  8
0
 10
69.956276757585414
 20
60.684143561487637
 30
0.0
 11
71.369255757585421
 21
62.09712256148763
 31
0.0
  0
LINE
  5
8D
  8
0
 10
68.162014757585411
 20
61.718646561487631
 30
0.0
 11
68.679528757585416
 21
63.650036561487632
 31
0.0
  0
LINE
  5
8E
  8
0
 10
66.091576757585415
 20
61.717296561487622
 30
0.0
 11
65.573700757585414
 21
63.650036561487632
 31
0.0
  0
LINE
  5
8F
  8
0
 10
64.299651757585409
 20
60.681445561487642
 30
0.0
 11
62.883973757585409
 21
62.09712256148763
 31
0.0
  0
LINE
  5
90
  8
0
 10
63.265486757585407
 20
58.889067561487643
 30
0.0
 11
61.331059757585408
 21
59.40739556148764
 31
0.0
  0
LINE
  5
91
  8
0
 10
63.265372757585411
 20
56.819865561487639
 30
0.0
 11
61.331059757585408
 21
56.301567561487637
 31
0.0
  0
LINE
  5
92
  8
0
 10
64.299423757585416
 20
55.027290561487639
 30
0.0
 11
62.883973757585409
 21
53.61184156148763
 31
0.0
  0
LINE
  5
93
  8
0
 10
66.091462757585418
 20
53.991241561487641
 30
0.0
 11
65.573700757585414
 21
52.058926561487638
 31
0.0
  0
LINE
  5
94
  8
0
 10
68.162128757585421
 20
53.989891561487639
 30
0.0
 11
68.679192757585412
 21
52.060181561487639
 31
0.0
  0
LINE
  5
95
  8
0
 10
83.128617757585417
 20
58.354253561487639
 30
0.0
 11
83.128617757585417
 21
57.354253561487639
 31
0.0
  0
LINE
  5
96
  8
0
 10
68.679192757585412
 20
52.060181561487639
 30
0.0
 11
68.679528757585416
 21
52.058926561487638
 31
0.0
  0
ARC
  5
97
  8
0
 10
67.131868757585423
 20
57.885594561487643
 30
0.0
 40
5.9706339999999987
 50
44.843097999999998
 51
74.390616000000009
  0
LINE
  5
98
  8
0
 10
82.128617757585417
 20
65.854253561487639
 30
0.0
 11
82.778617757585437
 21
65.854253561487639
 31
0.0
  0
LINE
  5
99
  8
0
 10
61.128617757585417
 20
65.854253561487639
 30
0.0
 11
82.028617757585423
 21
65.854253561487639
 31
0.0
  0
LINE
  5
9F
  8
1
 10
77.128617757585403
 20
46.054253561487641
 30
0.0
 11
77.128617757585417
 21
68.354253561487639
 31
0.0
  0
LINE
  5
A0
  8
1
 10
67.128617757585403
 20
49.344527044072493
 30
0.0
 11
67.128617757585417
 21
66.363980078902784
 31
0.0
  0
LINE
  5
A1
  8
1
 10
56.628617757585431
 20
57.854253561487631
 30
0.0
 11
89.628617757585431
 21
57.854253561487639
 31
0.0
  0
LINE
  5
B0
  8
0
 10
68.679888757585417
 20
63.648326561487629
 30
0.0
 11
68.680224757585407
 21
63.649580561487639
 31
0.0
  0
ARC
  5
B1
  8
0
 10
67.129313757585393
 20
57.854253561487631
 30
0.0
 40
4.0
 50
15.004272
 51
45.02964699999999
  0
ARC
  5
B2
  8
0
 10
67.129313757585393
 20
57.854253561487631
 30
0.0
 40
4.0
 50
314.97739999999999
 51
344.989418
  0
ARC
  5
B3
  8
0
 10
67.129313757585393
 20
57.854253561487631
 30
0.0
 40
4.0
 50
254.973128
 51
284.96350200000001
  0
ARC
  5
B4
  8
0
 10
67.129313757585393
 20
57.854253561487631
 30
0.0
 40
4.0
 50
194.986839
 51
224.97035299999999
  0
ARC
  5
B5
  8
0
 10
67.129313757585393
 20
57.854253561487631
 30
0.0
 40
4.0
 50
135.02260000000001
 51
165.010582
  0
ARC
  5
B6
  8
0
 10
67.129313757585393
 20
57.854253561487631
 30
0.0
 40
4.0
 50
75.026871999999997
 51
105.03649799999999
  0
LINE
  5
B7
  8
0
 10
68.679888757585417
 20
63.648326561487629
 30
0.0
 11
68.680224757585407
 21
63.649580561487639
 31
0.0
  0
POLYLINE
  5
FF
  8
0
 66
     1
 10
0.0
 20
0.0
 30
0.0
 70
     1
  0
VERTEX
  5
339
  8
0
 10
79.457754729402069
 20
89.758719561487652
 30
0.0
  0
VERTEX
  5
33A
  8
0
 10
81.767155705011845
 20
93.758719561487624
 30
0.0
  0
VERTEX
  5
33B
  8
0
 10
79.457754729402069
 20
97.758719561487652
 30
0.0
  0
VERTEX
  5
33C
  8
0
 10
74.838952785768726
 20
97.758719561487652
 30
0.0
  0
VERTEX
  5
33D
  8
0
 10
72.529551810158978
 20
93.758719561487624
 30
0.0
  0
VERTEX
  5
33E
  8
0
 10
74.838952785768726
 20
89.758719561487652
 30
0.0
  0
SEQEND
  5
33F
  8
0
  0
POLYLINE
  5
101
  8
0
 66
     1
 10
0.0
 20
0.0
 30
0.0
 70
     1
  0
VERTEX
  5
340
  8
0
 10
79.169079588485474
 20
90.258719561487652
 30
0.0
  0
VERTEX
  5
341
  8
0
 10
81.189805442144007
 20
93.758719561487624
 30
0.0
  0
VERTEX
  5
342
  8
0
 10
79.169079588485459
 20
97.258719561487652
 30
0.0
  0
VERTEX
  5
343
  8
0
 10
75.127627926685349
 20
97.258719561487652
 30
0.0
  0
VERTEX
  5
344
  8
0
 10
73.106902073026816
 20
93.758719561487624
 30
0.0
  0
VERTEX
  5
345
  8
0
 10
75.127627926685349
 20
90.258719561487652
 30
0.0
  0
SEQEND
  5
346
  8
0
  0
LINE
  5
102
  8
0
 10
75.127627926685349
 20
97.258719561487652
 30
0.0
 11
74.838952785768726
 21
97.758719561487652
 31
0.0
  0
LINE
  5
103
  8
0
 10
79.457754729402069
 20
97.758719561487652
 30
0.0
 11
79.169079588485459
 21
97.258719561487652
 31
0.0
  0
LINE
  5
104
  8
0
 10
81.189805442144007
 20
93.758719561487624
 30
0.0
 11
81.767155705011845
 21
93.758719561487624
 31
0.0
  0
LINE
  5
105
  8
0
 10
79.457754729402069
 20
89.758719561487652
 30
0.0
 11
79.169079588485474
 21
90.258719561487652
 31
0.0
  0
LINE
  5
106
  8
0
 10
75.127627926685349
 20
90.258719561487652
 30
0.0
 11
74.838952785768726
 21
89.758719561487652
 31
0.0
  0
LINE
  5
107
  8
0
 10
73.106902073026816
 20
93.758719561487624
 30
0.0
 11
72.529551810158978
 21
93.758719561487624
 31
0.0
  0
LINE
  5
14C
  8
1
 10
120.11050118078489
 20
46.054253561487641
 30
0.0
 11
120.11050118078489
 21
68.354253561487639
 31
0.0
  0
LINE
  5
162
  8
0
 10
124.11050118078489
 20
49.854253561487631
 30
0.0
 11
116.11050118078489
 21
49.854253561487639
 31
0.0
  0
LINE
  5
163
  8
0
 10
116.11050118078489
 20
65.854253561487639
 30
0.0
 11
124.11050118078489
 21
65.854253561487639
 31
0.0
  0
LINE
  5
164
  8
0
 10
126.11050118078489
 20
51.854253561487631
 30
0.0
 11
126.11050118078489
 21
63.854253561487639
 31
0.0
  0
LINE
  5
165
  8
0
 10
114.11050118078489
 20
51.854253561487639
 30
0.0
 11
114.11050118078489
 21
63.854253561487631
 31
0.0
  0
ARC
  5
166
  8
0
 10
124.11050118078489
 20
63.854253561487639
 30
0.0
 40
2.0
 50
0.0
 51
90.0
  0
ARC
  5
167
  8
0
 10
124.11050118078489
 20
51.854253561487631
 30
0.0
 40
2.0
 50
270.0
 51
359.99999999999989
  0
ARC
  5
169
  8
0
 10
116.11050118078489
 20
51.854253561487639
 30
0.0
 40
2.0
 50
180.0
 51
270.0
  0
ARC
  5
16A
  8
0
 10
116.11050118078489
 20
63.854253561487631
 30
0.0
 40
2.0
 50
90.0
 51
180.0
  0
LINE
  5
1DD
  8
2
 10
115.11050118078489
 20
52.054253561487641
 30
0.0
 11
125.11050118078489
 21
52.054253561487648
 31
0.0
  0
LINE
  5
1DE
  8
2
 10
115.11050118078489
 20
53.254253561487637
 30
0.0
 11
125.11050118078489
 21
53.254253561487637
 31
0.0
  0
LINE
  5
1DF
  8
0
 10
115.11050118078489
 20
48.654253561487643
 30
0.0
 11
125.11050118078489
 21
48.654253561487643
 31
0.0
  0
LINE
  5
1E1
  8
2
 10
115.11050118078489
 20
50.122202753918742
 30
0.0
 11
115.11050118078489
 21
53.254253561487637
 31
0.0
  0
LINE
  5
1E2
  8
0
 10
115.11050118078489
 20
48.654253561487643
 30
0.0
 11
115.11050118078479
 21
50.122202753918792
 31
0.0
  0
LINE
  5
1E3
  8
2
 10
125.11050118078489
 20
50.122202753918771
 30
0.0
 11
125.11050118078489
 21
53.254253561487623
 31
0.0
  0
LINE
  5
1E6
  8
0
 10
125.11050118078489
 20
48.654253561487621
 30
0.0
 11
125.11050118078489
 21
50.122202753918728
 31
0.0
  0
LINE
  5
1EE
  8
2
 10
74.628617757585403
 20
53.25425356148763
 30
0.0
 11
79.628617757585403
 21
53.254253561487637
 31
0.0
  0
LINE
  5
1F0
  8
2
 10
74.628617757585403
 20
52.054253561487641
 30
0.0
 11
74.628617757585403
 21
53.254253561487637
 31
0.0
  0
LINE
  5
1F5
  8
2
 10
79.628617757585403
 20
52.054253561487648
 30
0.0
 11
79.628617757585403
 21
53.254253561487637
 31
0.0
  0
LINE
  5
207
  8
0
 10
115.11050118078489
 20
49.854253561487639
 30
0.0
 11
125.11050118078489
 21
49.854253561487639
 31
0.0
  0
LINE
  5
210
  8
2
 10
82.128617757585417
 20
49.854253561487639
 30
0.0
 11
82.128617757585403
 21
52.054253561487641
 31
0.0
  0
LINE
  5
211
  8
0
 10
81.128617757585403
 20
48.654253561487629
 30
0.0
 11
81.128617757585403
 21
48.654253561487643
 31
0.0
  0
LINE
  5
213
  8
2
 10
79.628617757585403
 20
52.054253561487648
 30
0.0
 11
82.128617757585403
 21
52.054253561487648
 31
0.0
  0
LINE
  5
218
  8
0
 10
73.128617757585403
 20
48.654253561487643
 30
0.0
 11
81.128617757585403
 21
48.654253561487643
 31
0.0
  0
LINE
  5
219
  8
0
 10
73.128617757585403
 20
48.654253561487643
 30
0.0
 11
73.128617757585403
 21
48.654253561487629
 31
0.0
  0
LINE
  5
21A
  8
2
 10
72.128617757585403
 20
52.054253561487641
 30
0.0
 11
74.628617757585403
 21
52.054253561487648
 31
0.0
  0
LINE
  5
21B
  8
2
 10
72.128617757585403
 20
49.854253561487639
 30
0.0
 11
72.128617757585403
 21
52.054253561487641
 31
0.0
  0
LINE
  5
21C
  8
0
 10
82.128617757585417
 20
49.854253561487639
 30
0.0
 11
82.128617757585374
 21
49.854253561487639
 31
0.0
  0
LINE
  5
21D
  8
0
 10
73.128617757585403
 20
48.654253561487643
 30
0.0
 11
73.128617757585403
 21
48.854253561487631
 31
0.0
  0
LINE
  5
21E
  8
0
 10
81.128617757585403
 20
48.654253561487643
 30
0.0
 11
81.128617757585374
 21
48.854253561487639
 31
0.0
  0
LINE
  5
21F
  8
0
 10
72.128617757585403
 20
49.854253561487639
 30
0.0
 11
72.128617757585403
 21
49.854253561487639
 31
0.0
  0
ARC
  5
220
  8
0
 10
72.128617757585403
 20
48.854253561487653
 30
0.0
 40
1.0
 50
359.99999999999932
 51
90.000000000000398
  0
ARC
  5
221
  8
0
 10
82.128617757585374
 20
48.854253561487639
 30
0.0
 40
1.0
 50
90.0
 51
180.0
  0
TEXT
  5
2E2
  8
0
 62
     3
 10
0.0
 20
0.0
 30
0.0
 40
10.0
  1
DE-LSH-8
  7
STANDARD1
  0
ENDSEC
  0
EOF
